  0
SECTION
  2
HEADER
  9
$ACADVER
  1
AC1006
  9
$DWGCODEPAGE
  3
ansi_932
  9
$INSBASE
 10
0.0
 20
0.0
 30
0.0
  9
$EXTMIN
 10
-115.0
 20
410.0272727272728
  9
$EXTMAX
 10
320.0
 20
520.0
  9
$LIMMIN
 10
0.0
 20
0.0
  9
$LIMMAX
 10
12.0
 20
9.0
  9
$ORTHOMODE
 70
     0
  9
$REGENMODE
 70
     1
  9
$FILLMODE
 70
     1
  9
$QTEXTMODE
 70
     0
  9
$MIRRTEXT
 70
     1
  9
$DRAGMODE
 70
     2
  9
$LTSCALE
 40
1.0
  9
$OSMODE
 70
    37
  9
$ATTMODE
 70
     1
  9
$TEXTSIZE
 40
0.2
  9
$TRACEWID
 40
0.05
  9
$TEXTSTYLE
  7
STANDARD
  9
$CLAYER
  8
0
  9
$CELTYPE
  6
BYLAYER
  9
$CECOLOR
 62
   256
  9
$DIMSCALE
 40
1.0
  9
$DIMASZ
 40
3.0
  9
$DIMEXO
 40
0.0625
  9
$DIMDLI
 40
0.38
  9
$DIMRND
 40
0.0
  9
$DIMDLE
 40
0.0
  9
$DIMEXE
 40
1.5
  9
$DIMTP
 40
0.0
  9
$DIMTM
 40
0.0
  9
$DIMTXT
 40
3.0
  9
$DIMCEN
 40
0.09
  9
$DIMTSZ
 40
0.0
  9
$DIMTOL
 70
     0
  9
$DIMLIM
 70
     0
  9
$DIMTIH
 70
     1
  9
$DIMTOH
 70
     1
  9
$DIMSE1
 70
     0
  9
$DIMSE2
 70
     0
  9
$DIMTAD
 70
     1
  9
$DIMZIN
 70
     0
  9
$DIMBLK
  1

  9
$DIMASO
 70
     1
  9
$DIMSHO
 70
     1
  9
$DIMPOST
  1

  9
$DIMAPOST
  1

  9
$DIMALT
 70
     0
  9
$DIMALTD
 70
     2
  9
$DIMALTF
 40
25.4
  9
$DIMLFAC
 40
1.0
  9
$DIMTOFL
 70
     0
  9
$DIMTVP
 40
0.0
  9
$DIMTIX
 70
     0
  9
$DIMSOXD
 70
     0
  9
$DIMSAH
 70
     0
  9
$DIMBLK1
  1

  9
$DIMBLK2
  1

  9
$LUNITS
 70
     2
  9
$LUPREC
 70
     4
  9
$SKETCHINC
 40
0.1
  9
$FILLETRAD
 40
0.5
  9
$AUNITS
 70
     0
  9
$AUPREC
 70
     0
  9
$MENU
  1
.
  9
$ELEVATION
 40
0.0
  9
$THICKNESS
 40
0.0
  9
$LIMCHECK
 70
     0
  9
$CHAMFERA
 40
0.0
  9
$CHAMFERB
 40
0.0
  9
$SKPOLY
 70
     0
  9
$TDCREATE
 40
2459004.664961887
  9
$TDUPDATE
 40
2459004.664961887
  9
$TDINDWG
 40
0.0000000116
  9
$TDUSRTIMER
 40
0.0000000116
  9
$USRTIMER
 70
     1
  9
$ANGBASE
 50
0.0
  9
$ANGDIR
 70
     0
  9
$PDMODE
 70
     0
  9
$PDSIZE
 40
0.0
  9
$PLINEWID
 40
0.0
  9
$COORDS
 70
     1
  9
$SPLFRAME
 70
     0
  9
$SPLINETYPE
 70
     6
  9
$SPLINESEGS
 70
     8
  9
$ATTDIA
 70
     0
  9
$ATTREQ
 70
     1
  9
$HANDLING
 70
     1
  9
$HANDSEED
  5
EB
  9
$SURFTAB1
 70
     6
  9
$SURFTAB2
 70
     6
  9
$SURFTYPE
 70
     6
  9
$SURFU
 70
     6
  9
$SURFV
 70
     6
  9
$UCSNAME
  2

  9
$UCSORG
 10
0.0
 20
0.0
 30
0.0
  9
$UCSXDIR
 10
1.0
 20
0.0
 30
0.0
  9
$UCSYDIR
 10
0.0
 20
1.0
 30
0.0
  9
$USERI1
 70
     0
  9
$USERI2
 70
     0
  9
$USERI3
 70
     0
  9
$USERI4
 70
     0
  9
$USERI5
 70
     0
  9
$USERR1
 40
0.0
  9
$USERR2
 40
0.0
  9
$USERR3
 40
0.0
  9
$USERR4
 40
0.0
  9
$USERR5
 40
0.0
  9
$WORLDVIEW
 70
     1
  0
ENDSEC
  0
SECTION
  2
TABLES
  0
TABLE
  2
VPORT
 70
     1
  0
VPORT
  2
*ACTIVE
 70
     0
 10
0.0
 20
0.0
 11
1.0
 21
1.0
 12
102.5
 22
465.0136363636364
 13
0.0
 23
0.0
 14
0.5
 24
0.5
 15
0.5
 25
0.5
 16
0.0
 26
0.0
 36
1.0
 17
0.0
 27
0.0
 37
0.0
 40
109.9727272727272
 41
1.6
 42
50.0
 43
0.0
 44
0.0
 50
0.0
 51
0.0
 71
     0
 72
   100
 73
     1
 74
     3
 75
     0
 76
     0
 77
     0
 78
     0
  0
ENDTAB
  0
TABLE
  2
LTYPE
 70
     1
  0
LTYPE
  2
CONTINUOUS
 70
     0
  3
Solid line
 72
    65
 73
     0
 40
0.0
  0
ENDTAB
  0
TABLE
  2
LAYER
 70
     1
  0
LAYER
  2
0
 70
     0
 62
     7
  6
CONTINUOUS
  0
ENDTAB
  0
TABLE
  2
STYLE
 70
     2
  0
STYLE
  2
STANDARD
 70
     0
 40
0.0
 41
1.0
 50
0.0
 71
     0
 42
0.2
  3
txt
  4

  0
STYLE
  2
ＭＳ_ゴシック
 70
     0
 40
0.0
 41
1.0
 50
0.0
 71
     0
 42
0.2
  3
ＭＳ ゴシック.shx
  4

  0
ENDTAB
  0
TABLE
  2
VIEW
 70
     0
  0
ENDTAB
  0
TABLE
  2
UCS
 70
     0
  0
ENDTAB
  0
ENDSEC
  0
SECTION
  2
BLOCKS
  0
BLOCK
  8
0
  2
D_FRAME_VIEW_1300
 70
     0
 10
0.0
 20
0.0
 30
0.0
  0
LINE
  5
71
  8
0
  6
CONTINUOUS
 62
     7
 10
320.0
 20
520.0
 30
0.0
 11
-114.9999999999999
 21
520.0
 31
0.0
  0
LINE
  5
72
  8
0
  6
CONTINUOUS
 62
     7
 10
320.0
 20
511.5000000000001
 30
0.0
 11
320.0
 21
520.0
 31
0.0
  0
LINE
  5
73
  8
0
  6
CONTINUOUS
 62
     7
 10
320.0
 20
511.5000000000001
 30
0.0
 11
-114.9999999999999
 21
511.5000000000001
 31
0.0
  0
LINE
  5
74
  8
0
  6
CONTINUOUS
 62
     7
 10
-115.0
 20
520.0
 30
0.0
 11
-115.0
 21
511.5000000000001
 31
0.0
  0
LINE
  5
75
  8
0
  6
CONTINUOUS
 62
     7
 10
320.0
 20
495.0000000000001
 30
0.0
 11
320.0
 21
503.5000000000001
 31
0.0
  0
LINE
  5
76
  8
0
  6
CONTINUOUS
 62
     7
 10
-115.0
 20
495.0000000000001
 30
0.0
 11
319.9999999999999
 21
495.0000000000001
 31
0.0
  0
LINE
  5
77
  8
0
  6
CONTINUOUS
 62
     7
 10
-115.0
 20
503.5000000000001
 30
0.0
 11
319.9999999999999
 21
503.5000000000001
 31
0.0
  0
LINE
  5
78
  8
0
  6
CONTINUOUS
 62
     7
 10
-115.0
 20
503.5000000000001
 30
0.0
 11
-115.0
 21
495.0000000000001
 31
0.0
  0
LINE
  5
79
  8
0
  6
CONTINUOUS
 62
     7
 10
-102.25
 20
510.75
 30
0.0
 11
-102.25
 21
504.2500005
 31
0.0
  0
LINE
  5
7A
  8
0
  6
CONTINUOUS
 62
     7
 10
-102.25
 20
504.2500000000001
 30
0.0
 11
-108.7499995
 21
504.2500000000001
 31
0.0
  0
LINE
  5
7B
  8
0
  6
CONTINUOUS
 62
     7
 10
-108.75
 20
504.2500000000001
 30
0.0
 11
-108.75
 21
510.75
 31
0.0
  0
LINE
  5
7C
  8
0
  6
CONTINUOUS
 62
     7
 10
-89.25
 20
510.75
 30
0.0
 11
-89.25
 21
504.2500005
 31
0.0
  0
LINE
  5
7D
  8
0
  6
CONTINUOUS
 62
     7
 10
-89.25
 20
504.2500000000001
 30
0.0
 11
-95.74999949999999
 21
504.2500000000001
 31
0.0
  0
LINE
  5
7E
  8
0
  6
CONTINUOUS
 62
     7
 10
-95.75
 20
504.2500000000001
 30
0.0
 11
-95.75
 21
510.75
 31
0.0
  0
LINE
  5
7F
  8
0
  6
CONTINUOUS
 62
     7
 10
-76.24999999999999
 20
510.75
 30
0.0
 11
-76.24999999999999
 21
504.2500005
 31
0.0
  0
LINE
  5
80
  8
0
  6
CONTINUOUS
 62
     7
 10
-76.24999999999999
 20
504.2500000000001
 30
0.0
 11
-82.74999949999997
 21
504.2500000000001
 31
0.0
  0
LINE
  5
81
  8
0
  6
CONTINUOUS
 62
     7
 10
-82.74999999999999
 20
504.2500000000001
 30
0.0
 11
-82.74999999999999
 21
510.75
 31
0.0
  0
LINE
  5
82
  8
0
  6
CONTINUOUS
 62
     7
 10
-63.24999999999997
 20
510.75
 30
0.0
 11
-63.24999999999997
 21
504.2500005
 31
0.0
  0
LINE
  5
83
  8
0
  6
CONTINUOUS
 62
     7
 10
-63.25
 20
504.2500000000001
 30
0.0
 11
-69.74999949999999
 21
504.2500000000001
 31
0.0
  0
LINE
  5
84
  8
0
  6
CONTINUOUS
 62
     7
 10
-69.74999999999997
 20
504.2500000000001
 30
0.0
 11
-69.74999999999997
 21
510.75
 31
0.0
  0
LINE
  5
85
  8
0
  6
CONTINUOUS
 62
     7
 10
-50.24999999999999
 20
510.75
 30
0.0
 11
-50.24999999999999
 21
504.2500005
 31
0.0
  0
LINE
  5
86
  8
0
  6
CONTINUOUS
 62
     7
 10
-50.24999999999999
 20
504.2500000000001
 30
0.0
 11
-56.74999949999998
 21
504.2500000000001
 31
0.0
  0
LINE
  5
87
  8
0
  6
CONTINUOUS
 62
     7
 10
-56.74999999999999
 20
504.2500000000001
 30
0.0
 11
-56.74999999999999
 21
510.75
 31
0.0
  0
LINE
  5
88
  8
0
  6
CONTINUOUS
 62
     7
 10
-37.24999999999998
 20
510.75
 30
0.0
 11
-37.24999999999998
 21
504.2500005
 31
0.0
  0
LINE
  5
89
  8
0
  6
CONTINUOUS
 62
     7
 10
-37.24999999999998
 20
504.2500000000001
 30
0.0
 11
-43.74999949999999
 21
504.2500000000001
 31
0.0
  0
LINE
  5
8A
  8
0
  6
CONTINUOUS
 62
     7
 10
-43.74999999999999
 20
504.2500000000001
 30
0.0
 11
-43.74999999999999
 21
510.75
 31
0.0
  0
LINE
  5
8B
  8
0
  6
CONTINUOUS
 62
     7
 10
-24.24999999999996
 20
510.75
 30
0.0
 11
-24.24999999999996
 21
504.2500005
 31
0.0
  0
LINE
  5
8C
  8
0
  6
CONTINUOUS
 62
     7
 10
-24.24999999999996
 20
504.2500000000001
 30
0.0
 11
-30.74999949999999
 21
504.2500000000001
 31
0.0
  0
LINE
  5
8D
  8
0
  6
CONTINUOUS
 62
     7
 10
-30.74999999999997
 20
504.2500000000001
 30
0.0
 11
-30.74999999999997
 21
510.75
 31
0.0
  0
LINE
  5
8E
  8
0
  6
CONTINUOUS
 62
     7
 10
-11.24999999999997
 20
510.75
 30
0.0
 11
-11.24999999999997
 21
504.2500005
 31
0.0
  0
LINE
  5
8F
  8
0
  6
CONTINUOUS
 62
     7
 10
-11.24999999999998
 20
504.2500000000001
 30
0.0
 11
-17.74999949999999
 21
504.2500000000001
 31
0.0
  0
LINE
  5
90
  8
0
  6
CONTINUOUS
 62
     7
 10
-17.74999999999999
 20
504.2500000000001
 30
0.0
 11
-17.74999999999999
 21
510.75
 31
0.0
  0
LINE
  5
91
  8
0
  6
CONTINUOUS
 62
     7
 10
1.750000000000015
 20
510.75
 30
0.0
 11
1.750000000000015
 21
504.2500005
 31
0.0
  0
LINE
  5
92
  8
0
  6
CONTINUOUS
 62
     7
 10
1.750000000000015
 20
504.2499999999999
 30
0.0
 11
-4.749999499999976
 21
504.2499999999999
 31
0.0
  0
LINE
  5
93
  8
0
  6
CONTINUOUS
 62
     7
 10
-4.749999999999976
 20
504.2500000000001
 30
0.0
 11
-4.749999999999976
 21
510.75
 31
0.0
  0
LINE
  5
94
  8
0
  6
CONTINUOUS
 62
     7
 10
14.75000000000004
 20
510.75
 30
0.0
 11
14.75000000000004
 21
504.2500005
 31
0.0
  0
LINE
  5
95
  8
0
  6
CONTINUOUS
 62
     7
 10
14.75000000000001
 20
504.2500000000001
 30
0.0
 11
8.250000500000008
 21
504.2500000000001
 31
0.0
  0
LINE
  5
96
  8
0
  6
CONTINUOUS
 62
     7
 10
8.250000000000007
 20
504.2500000000001
 30
0.0
 11
8.250000000000007
 21
510.75
 31
0.0
  0
LINE
  5
97
  8
0
  6
CONTINUOUS
 62
     7
 10
27.75000000000002
 20
510.75
 30
0.0
 11
27.75000000000002
 21
504.2500005
 31
0.0
  0
LINE
  5
98
  8
0
  6
CONTINUOUS
 62
     7
 10
27.75
 20
504.2500000000001
 30
0.0
 11
21.25000050000001
 21
504.2500000000001
 31
0.0
  0
LINE
  5
99
  8
0
  6
CONTINUOUS
 62
     7
 10
21.25000000000002
 20
504.2500000000001
 30
0.0
 11
21.25000000000002
 21
510.75
 31
0.0
  0
LINE
  5
9A
  8
0
  6
CONTINUOUS
 62
     7
 10
40.75000000000004
 20
510.75
 30
0.0
 11
40.75000000000004
 21
504.2500005
 31
0.0
  0
LINE
  5
9B
  8
0
  6
CONTINUOUS
 62
     7
 10
40.75000000000001
 20
504.2500000000001
 30
0.0
 11
34.25000050000001
 21
504.2500000000001
 31
0.0
  0
LINE
  5
9C
  8
0
  6
CONTINUOUS
 62
     7
 10
34.25000000000003
 20
504.2500000000001
 30
0.0
 11
34.25000000000003
 21
510.75
 31
0.0
  0
LINE
  5
9D
  8
0
  6
CONTINUOUS
 62
     7
 10
53.75000000000005
 20
510.75
 30
0.0
 11
53.75000000000005
 21
504.2500005
 31
0.0
  0
LINE
  5
9E
  8
0
  6
CONTINUOUS
 62
     7
 10
53.75000000000002
 20
504.2500000000001
 30
0.0
 11
47.25000050000003
 21
504.2500000000001
 31
0.0
  0
LINE
  5
9F
  8
0
  6
CONTINUOUS
 62
     7
 10
47.25000000000004
 20
504.2500000000001
 30
0.0
 11
47.25000000000004
 21
510.75
 31
0.0
  0
LINE
  5
A0
  8
0
  6
CONTINUOUS
 62
     7
 10
66.75000000000003
 20
510.75
 30
0.0
 11
66.75000000000003
 21
504.2500005
 31
0.0
  0
LINE
  5
A1
  8
0
  6
CONTINUOUS
 62
     7
 10
66.75000000000003
 20
504.2500000000001
 30
0.0
 11
60.25000050000001
 21
504.2500000000001
 31
0.0
  0
LINE
  5
A2
  8
0
  6
CONTINUOUS
 62
     7
 10
60.25000000000002
 20
504.2500000000001
 30
0.0
 11
60.25000000000002
 21
510.75
 31
0.0
  0
LINE
  5
A3
  8
0
  6
CONTINUOUS
 62
     7
 10
79.75000000000004
 20
510.75
 30
0.0
 11
79.75000000000004
 21
504.2500005
 31
0.0
  0
LINE
  5
A4
  8
0
  6
CONTINUOUS
 62
     7
 10
79.75000000000004
 20
504.2500000000001
 30
0.0
 11
73.25000050000003
 21
504.2500000000001
 31
0.0
  0
LINE
  5
A5
  8
0
  6
CONTINUOUS
 62
     7
 10
73.25000000000004
 20
504.2500000000001
 30
0.0
 11
73.25000000000004
 21
510.75
 31
0.0
  0
LINE
  5
A6
  8
0
  6
CONTINUOUS
 62
     7
 10
92.75000000000003
 20
510.75
 30
0.0
 11
92.75000000000003
 21
504.2500005
 31
0.0
  0
LINE
  5
A7
  8
0
  6
CONTINUOUS
 62
     7
 10
92.75
 20
504.2500000000001
 30
0.0
 11
86.25000050000003
 21
504.2500000000001
 31
0.0
  0
LINE
  5
A8
  8
0
  6
CONTINUOUS
 62
     7
 10
86.25000000000001
 20
504.2500000000001
 30
0.0
 11
86.25000000000001
 21
510.75
 31
0.0
  0
LINE
  5
A9
  8
0
  6
CONTINUOUS
 62
     7
 10
105.75
 20
510.75
 30
0.0
 11
105.75
 21
504.2500005
 31
0.0
  0
LINE
  5
AA
  8
0
  6
CONTINUOUS
 62
     7
 10
105.75
 20
504.2500000000001
 30
0.0
 11
99.25000050000004
 21
504.2500000000001
 31
0.0
  0
LINE
  5
AB
  8
0
  6
CONTINUOUS
 62
     7
 10
99.25000000000003
 20
504.2500000000001
 30
0.0
 11
99.25000000000003
 21
510.75
 31
0.0
  0
LINE
  5
AC
  8
0
  6
CONTINUOUS
 62
     7
 10
118.75
 20
510.75
 30
0.0
 11
118.75
 21
504.2500005
 31
0.0
  0
LINE
  5
AD
  8
0
  6
CONTINUOUS
 62
     7
 10
118.75
 20
504.2500000000001
 30
0.0
 11
112.2500005000001
 21
504.2500000000001
 31
0.0
  0
LINE
  5
AE
  8
0
  6
CONTINUOUS
 62
     7
 10
112.25
 20
504.2500000000001
 30
0.0
 11
112.25
 21
510.75
 31
0.0
  0
LINE
  5
AF
  8
0
  6
CONTINUOUS
 62
     7
 10
131.75
 20
510.75
 30
0.0
 11
131.75
 21
504.2500005
 31
0.0
  0
LINE
  5
B0
  8
0
  6
CONTINUOUS
 62
     7
 10
131.75
 20
504.2500000000001
 30
0.0
 11
125.2500005
 21
504.2500000000001
 31
0.0
  0
LINE
  5
B1
  8
0
  6
CONTINUOUS
 62
     7
 10
125.25
 20
504.2500000000001
 30
0.0
 11
125.25
 21
510.75
 31
0.0
  0
LINE
  5
B2
  8
0
  6
CONTINUOUS
 62
     7
 10
144.75
 20
510.75
 30
0.0
 11
144.75
 21
504.2500005
 31
0.0
  0
LINE
  5
B3
  8
0
  6
CONTINUOUS
 62
     7
 10
144.75
 20
504.2500000000001
 30
0.0
 11
138.2500005
 21
504.2500000000001
 31
0.0
  0
LINE
  5
B4
  8
0
  6
CONTINUOUS
 62
     7
 10
138.25
 20
504.2500000000001
 30
0.0
 11
138.25
 21
510.75
 31
0.0
  0
LINE
  5
B5
  8
0
  6
CONTINUOUS
 62
     7
 10
157.75
 20
510.75
 30
0.0
 11
157.75
 21
504.2500005
 31
0.0
  0
LINE
  5
B6
  8
0
  6
CONTINUOUS
 62
     7
 10
157.75
 20
504.2500000000001
 30
0.0
 11
151.2500005
 21
504.2500000000001
 31
0.0
  0
LINE
  5
B7
  8
0
  6
CONTINUOUS
 62
     7
 10
151.25
 20
504.2500000000001
 30
0.0
 11
151.25
 21
510.75
 31
0.0
  0
LINE
  5
B8
  8
0
  6
CONTINUOUS
 62
     7
 10
170.75
 20
510.75
 30
0.0
 11
170.75
 21
504.2500005
 31
0.0
  0
LINE
  5
B9
  8
0
  6
CONTINUOUS
 62
     7
 10
170.75
 20
504.2500000000001
 30
0.0
 11
164.2500005
 21
504.2500000000001
 31
0.0
  0
LINE
  5
BA
  8
0
  6
CONTINUOUS
 62
     7
 10
164.25
 20
504.2500000000001
 30
0.0
 11
164.25
 21
510.75
 31
0.0
  0
LINE
  5
BB
  8
0
  6
CONTINUOUS
 62
     7
 10
183.75
 20
510.75
 30
0.0
 11
183.75
 21
504.2500005
 31
0.0
  0
LINE
  5
BC
  8
0
  6
CONTINUOUS
 62
     7
 10
183.75
 20
504.2500000000001
 30
0.0
 11
177.2500005
 21
504.2500000000001
 31
0.0
  0
LINE
  5
BD
  8
0
  6
CONTINUOUS
 62
     7
 10
177.25
 20
504.2500000000001
 30
0.0
 11
177.25
 21
510.75
 31
0.0
  0
LINE
  5
BE
  8
0
  6
CONTINUOUS
 62
     7
 10
196.75
 20
510.75
 30
0.0
 11
196.75
 21
504.2500005
 31
0.0
  0
LINE
  5
BF
  8
0
  6
CONTINUOUS
 62
     7
 10
196.75
 20
504.2500000000001
 30
0.0
 11
190.2500005
 21
504.2500000000001
 31
0.0
  0
LINE
  5
C0
  8
0
  6
CONTINUOUS
 62
     7
 10
190.25
 20
504.2500000000001
 30
0.0
 11
190.25
 21
510.75
 31
0.0
  0
LINE
  5
C1
  8
0
  6
CONTINUOUS
 62
     7
 10
209.7500000000001
 20
510.75
 30
0.0
 11
209.7500000000001
 21
504.2500005
 31
0.0
  0
LINE
  5
C2
  8
0
  6
CONTINUOUS
 62
     7
 10
209.7500000000001
 20
504.2500000000001
 30
0.0
 11
203.2500005000001
 21
504.2500000000001
 31
0.0
  0
LINE
  5
C3
  8
0
  6
CONTINUOUS
 62
     7
 10
203.25
 20
504.2500000000001
 30
0.0
 11
203.25
 21
510.75
 31
0.0
  0
LINE
  5
C4
  8
0
  6
CONTINUOUS
 62
     7
 10
222.75
 20
510.75
 30
0.0
 11
222.75
 21
504.2500005
 31
0.0
  0
LINE
  5
C5
  8
0
  6
CONTINUOUS
 62
     7
 10
222.75
 20
504.2500000000001
 30
0.0
 11
216.2500005
 21
504.2500000000001
 31
0.0
  0
LINE
  5
C6
  8
0
  6
CONTINUOUS
 62
     7
 10
216.25
 20
504.2500000000001
 30
0.0
 11
216.25
 21
510.75
 31
0.0
  0
LINE
  5
C7
  8
0
  6
CONTINUOUS
 62
     7
 10
235.75
 20
510.75
 30
0.0
 11
235.75
 21
504.2500005
 31
0.0
  0
LINE
  5
C8
  8
0
  6
CONTINUOUS
 62
     7
 10
235.75
 20
504.2500000000001
 30
0.0
 11
229.2500005000001
 21
504.2500000000001
 31
0.0
  0
LINE
  5
C9
  8
0
  6
CONTINUOUS
 62
     7
 10
229.25
 20
504.2499999999999
 30
0.0
 11
229.25
 21
510.75
 31
0.0
  0
LINE
  5
CA
  8
0
  6
CONTINUOUS
 62
     7
 10
248.75
 20
510.75
 30
0.0
 11
248.75
 21
504.2500005
 31
0.0
  0
LINE
  5
CB
  8
0
  6
CONTINUOUS
 62
     7
 10
248.75
 20
504.2500000000001
 30
0.0
 11
242.2500005
 21
504.2500000000001
 31
0.0
  0
LINE
  5
CC
  8
0
  6
CONTINUOUS
 62
     7
 10
242.25
 20
504.2500000000001
 30
0.0
 11
242.25
 21
510.75
 31
0.0
  0
LINE
  5
CD
  8
0
  6
CONTINUOUS
 62
     7
 10
261.7500000000001
 20
510.75
 30
0.0
 11
261.7500000000001
 21
504.2500005
 31
0.0
  0
LINE
  5
CE
  8
0
  6
CONTINUOUS
 62
     7
 10
261.7500000000001
 20
504.2500000000001
 30
0.0
 11
255.2500005000001
 21
504.2500000000001
 31
0.0
  0
LINE
  5
CF
  8
0
  6
CONTINUOUS
 62
     7
 10
255.25
 20
504.2500000000001
 30
0.0
 11
255.25
 21
510.75
 31
0.0
  0
LINE
  5
D0
  8
0
  6
CONTINUOUS
 62
     7
 10
274.7500000000001
 20
510.75
 30
0.0
 11
274.7500000000001
 21
504.2500005
 31
0.0
  0
LINE
  5
D1
  8
0
  6
CONTINUOUS
 62
     7
 10
274.7500000000001
 20
504.2500000000001
 30
0.0
 11
268.2500005
 21
504.2500000000001
 31
0.0
  0
LINE
  5
D2
  8
0
  6
CONTINUOUS
 62
     7
 10
268.2500000000001
 20
504.2500000000001
 30
0.0
 11
268.2500000000001
 21
510.75
 31
0.0
  0
LINE
  5
D3
  8
0
  6
CONTINUOUS
 62
     7
 10
287.75
 20
510.75
 30
0.0
 11
287.75
 21
504.2500005
 31
0.0
  0
LINE
  5
D4
  8
0
  6
CONTINUOUS
 62
     7
 10
287.75
 20
504.2500000000001
 30
0.0
 11
281.2500005000001
 21
504.2500000000001
 31
0.0
  0
LINE
  5
D5
  8
0
  6
CONTINUOUS
 62
     7
 10
281.25
 20
504.2500000000001
 30
0.0
 11
281.25
 21
510.75
 31
0.0
  0
LINE
  5
D6
  8
0
  6
CONTINUOUS
 62
     7
 10
300.75
 20
510.75
 30
0.0
 11
300.75
 21
504.2500005
 31
0.0
  0
LINE
  5
D7
  8
0
  6
CONTINUOUS
 62
     7
 10
300.75
 20
504.2500000000001
 30
0.0
 11
294.2500005
 21
504.2500000000001
 31
0.0
  0
LINE
  5
D8
  8
0
  6
CONTINUOUS
 62
     7
 10
294.25
 20
504.2500000000001
 30
0.0
 11
294.25
 21
510.75
 31
0.0
  0
LINE
  5
D9
  8
0
  6
CONTINUOUS
 62
     7
 10
313.75
 20
510.75
 30
0.0
 11
313.75
 21
504.2500005
 31
0.0
  0
LINE
  5
DA
  8
0
  6
CONTINUOUS
 62
     7
 10
313.75
 20
504.2500000000001
 30
0.0
 11
307.2500005
 21
504.2500000000001
 31
0.0
  0
LINE
  5
DB
  8
0
  6
CONTINUOUS
 62
     7
 10
307.25
 20
504.2500000000001
 30
0.0
 11
307.25
 21
510.75
 31
0.0
  0
LINE
  5
DC
  8
0
  6
CONTINUOUS
 62
     7
 10
320.0
 20
503.5000000000001
 30
0.0
 11
320.0
 21
511.5000000000001
 31
0.0
  0
LINE
  5
DD
  8
0
  6
CONTINUOUS
 62
     7
 10
-115.0
 20
511.5000000000001
 30
0.0
 11
-115.0
 21
503.5000000000001
 31
0.0
  0
LINE
  5
DE
  8
0
  6
CONTINUOUS
 62
     7
 10
-115.0
 20
420.0000000000001
 30
0.0
 11
319.9999999999999
 21
420.0000000000001
 31
0.0
  0
LINE
  5
DF
  8
0
  6
CONTINUOUS
 62
     7
 10
319.9999999999999
 20
420.0000000000001
 30
0.0
 11
320.0
 21
495.0000000000001
 31
0.0
  0
LINE
  5
E0
  8
0
  6
CONTINUOUS
 62
     7
 10
-115.0
 20
495.0000000000001
 30
0.0
 11
-115.0
 21
420.0000000000001
 31
0.0
  0
ENDBLK
  8
0
  0
ENDSEC
  0
SECTION
  2
ENTITIES
  0
TEXT
  5
6F
  8
0
  6
CONTINUOUS
 62
     7
 10
297.5514880580217
 20
409.6852382143304
 30
0.0
 40
3.0
  1
MMH-NSBHF
  0
INSERT
  5
E1
  8
0
  6
CONTINUOUS
 62
     7
  2
D_FRAME_VIEW_1300
 10
0.0
 20
0.0
 30
0.0
  0
ENDSEC
  0
EOF
