  0
SECTION
  2
HEADER
  9
$ACADVER
  1
AC1006
  9
$DWGCODEPAGE
  3
ansi_932
  9
$INSBASE
 10
0.0
 20
0.0
 30
0.0
  9
$EXTMIN
 10
379.9750124999999
 20
47.52727272727272
  9
$EXTMAX
 10
704.9750124999999
 20
300.0000000000001
  9
$LIMMIN
 10
0.0
 20
0.0
  9
$LIMMAX
 10
12.0
 20
9.0
  9
$ORTHOMODE
 70
     0
  9
$REGENMODE
 70
     1
  9
$FILLMODE
 70
     1
  9
$QTEXTMODE
 70
     0
  9
$MIRRTEXT
 70
     1
  9
$DRAGMODE
 70
     2
  9
$LTSCALE
 40
1.0
  9
$OSMODE
 70
    37
  9
$ATTMODE
 70
     1
  9
$TEXTSIZE
 40
0.2
  9
$TRACEWID
 40
0.05
  9
$TEXTSTYLE
  7
STANDARD
  9
$CLAYER
  8
0
  9
$CELTYPE
  6
BYLAYER
  9
$CECOLOR
 62
   256
  9
$DIMSCALE
 40
1.0
  9
$DIMASZ
 40
3.0
  9
$DIMEXO
 40
0.0625
  9
$DIMDLI
 40
0.38
  9
$DIMRND
 40
0.0
  9
$DIMDLE
 40
0.0
  9
$DIMEXE
 40
1.5
  9
$DIMTP
 40
0.0
  9
$DIMTM
 40
0.0
  9
$DIMTXT
 40
3.0
  9
$DIMCEN
 40
0.09
  9
$DIMTSZ
 40
0.0
  9
$DIMTOL
 70
     0
  9
$DIMLIM
 70
     0
  9
$DIMTIH
 70
     1
  9
$DIMTOH
 70
     1
  9
$DIMSE1
 70
     0
  9
$DIMSE2
 70
     0
  9
$DIMTAD
 70
     1
  9
$DIMZIN
 70
     0
  9
$DIMBLK
  1

  9
$DIMASO
 70
     1
  9
$DIMSHO
 70
     1
  9
$DIMPOST
  1

  9
$DIMAPOST
  1

  9
$DIMALT
 70
     0
  9
$DIMALTD
 70
     2
  9
$DIMALTF
 40
25.4
  9
$DIMLFAC
 40
1.0
  9
$DIMTOFL
 70
     0
  9
$DIMTVP
 40
0.0
  9
$DIMTIX
 70
     0
  9
$DIMSOXD
 70
     0
  9
$DIMSAH
 70
     0
  9
$DIMBLK1
  1

  9
$DIMBLK2
  1

  9
$LUNITS
 70
     2
  9
$LUPREC
 70
     4
  9
$SKETCHINC
 40
0.1
  9
$FILLETRAD
 40
0.5
  9
$AUNITS
 70
     0
  9
$AUPREC
 70
     0
  9
$MENU
  1
.
  9
$ELEVATION
 40
0.0
  9
$THICKNESS
 40
0.0
  9
$LIMCHECK
 70
     0
  9
$CHAMFERA
 40
0.0
  9
$CHAMFERB
 40
0.0
  9
$SKPOLY
 70
     0
  9
$TDCREATE
 40
2459004.663326146
  9
$TDUPDATE
 40
2459004.663326319
  9
$TDINDWG
 40
0.0000000116
  9
$TDUSRTIMER
 40
0.0000000116
  9
$USRTIMER
 70
     1
  9
$ANGBASE
 50
0.0
  9
$ANGDIR
 70
     0
  9
$PDMODE
 70
     0
  9
$PDSIZE
 40
0.0
  9
$PLINEWID
 40
0.0
  9
$COORDS
 70
     1
  9
$SPLFRAME
 70
     0
  9
$SPLINETYPE
 70
     6
  9
$SPLINESEGS
 70
     8
  9
$ATTDIA
 70
     0
  9
$ATTREQ
 70
     1
  9
$HANDLING
 70
     1
  9
$HANDSEED
  5
107
  9
$SURFTAB1
 70
     6
  9
$SURFTAB2
 70
     6
  9
$SURFTYPE
 70
     6
  9
$SURFU
 70
     6
  9
$SURFV
 70
     6
  9
$UCSNAME
  2

  9
$UCSORG
 10
0.0
 20
0.0
 30
0.0
  9
$UCSXDIR
 10
1.0
 20
0.0
 30
0.0
  9
$UCSYDIR
 10
0.0
 20
1.0
 30
0.0
  9
$USERI1
 70
     0
  9
$USERI2
 70
     0
  9
$USERI3
 70
     0
  9
$USERI4
 70
     0
  9
$USERI5
 70
     0
  9
$USERR1
 40
0.0
  9
$USERR2
 40
0.0
  9
$USERR3
 40
0.0
  9
$USERR4
 40
0.0
  9
$USERR5
 40
0.0
  9
$WORLDVIEW
 70
     1
  0
ENDSEC
  0
SECTION
  2
TABLES
  0
TABLE
  2
VPORT
 70
     1
  0
VPORT
  2
*ACTIVE
 70
     0
 10
0.0
 20
0.0
 11
1.0
 21
1.0
 12
542.4750124999999
 22
173.7636363636364
 13
0.0
 23
0.0
 14
0.5
 24
0.5
 15
0.5
 25
0.5
 16
0.0
 26
0.0
 36
1.0
 17
0.0
 27
0.0
 37
0.0
 40
252.4727272727274
 41
1.6
 42
50.0
 43
0.0
 44
0.0
 50
0.0
 51
0.0
 71
     0
 72
   100
 73
     1
 74
     3
 75
     0
 76
     0
 77
     0
 78
     0
  0
ENDTAB
  0
TABLE
  2
LTYPE
 70
     1
  0
LTYPE
  2
CONTINUOUS
 70
     0
  3
Solid line
 72
    65
 73
     0
 40
0.0
  0
ENDTAB
  0
TABLE
  2
LAYER
 70
     1
  0
LAYER
  2
0
 70
     0
 62
     7
  6
CONTINUOUS
  0
ENDTAB
  0
TABLE
  2
STYLE
 70
     2
  0
STYLE
  2
STANDARD
 70
     0
 40
0.0
 41
1.0
 50
0.0
 71
     0
 42
0.2
  3
txt
  4

  0
STYLE
  2
ＭＳ_ゴシック
 70
     0
 40
0.0
 41
1.0
 50
0.0
 71
     0
 42
0.2
  3
ＭＳ ゴシック.shx
  4

  0
ENDTAB
  0
TABLE
  2
VIEW
 70
     0
  0
ENDTAB
  0
TABLE
  2
UCS
 70
     0
  0
ENDTAB
  0
ENDSEC
  0
SECTION
  2
BLOCKS
  0
BLOCK
  8
0
  2
D_FRAME_VIEW_1301
 70
     0
 10
0.0
 20
0.0
 30
0.0
  0
ARC
  5
70
  8
0
  6
CONTINUOUS
 62
     7
 10
692.4750124999998
 20
170.0
 30
0.0
 40
4.000000000000004
 50
180.0
 51
0.0
  0
ARC
  5
71
  8
0
  6
CONTINUOUS
 62
     7
 10
692.4750124999998
 20
170.0
 30
0.0
 40
4.000000000000004
 50
0.0
 51
180.0
  0
CIRCLE
  5
72
  8
0
  6
CONTINUOUS
 62
     7
 10
692.4750124999998
 20
170.0
 30
0.0
 40
3.624999999999989
  0
CIRCLE
  5
73
  8
0
  6
CONTINUOUS
 62
     7
 10
692.4750124999998
 20
230.0
 30
0.0
 40
3.624999999999989
  0
CIRCLE
  5
74
  8
0
  6
CONTINUOUS
 62
     7
 10
692.4750124999998
 20
230.0
 30
0.0
 40
3.250000000000031
  0
ARC
  5
75
  8
0
  6
CONTINUOUS
 62
     7
 10
692.4750124999998
 20
230.0
 30
0.0
 40
4.000000000000004
 50
180.0
 51
0.0
  0
ARC
  5
76
  8
0
  6
CONTINUOUS
 62
     7
 10
692.4750124999998
 20
230.0
 30
0.0
 40
4.000000000000004
 50
0.0
 51
180.0
  0
CIRCLE
  5
77
  8
0
  6
CONTINUOUS
 62
     7
 10
692.4750124999998
 20
170.0
 30
0.0
 40
3.250000000000031
  0
ARC
  5
78
  8
0
  6
CONTINUOUS
 62
     7
 10
392.4750124999999
 20
230.0
 30
0.0
 40
4.000000000000004
 50
180.0
 51
0.0
  0
CIRCLE
  5
79
  8
0
  6
CONTINUOUS
 62
     7
 10
392.4750124999999
 20
230.0
 30
0.0
 40
3.625000000000045
  0
ARC
  5
7A
  8
0
  6
CONTINUOUS
 62
     7
 10
392.4750124999999
 20
230.0
 30
0.0
 40
4.000000000000004
 50
0.0
 51
180.0
  0
CIRCLE
  5
7B
  8
0
  6
CONTINUOUS
 62
     7
 10
392.4750124999999
 20
230.0
 30
0.0
 40
3.250000000000031
  0
CIRCLE
  5
7C
  8
0
  6
CONTINUOUS
 62
     7
 10
392.4750124999999
 20
170.0
 30
0.0
 40
3.250000000000031
  0
CIRCLE
  5
7D
  8
0
  6
CONTINUOUS
 62
     7
 10
392.4750124999999
 20
170.0
 30
0.0
 40
3.625000000000045
  0
ARC
  5
7E
  8
0
  6
CONTINUOUS
 62
     7
 10
392.4750124999999
 20
170.0
 30
0.0
 40
4.000000000000004
 50
180.0
 51
0.0
  0
ARC
  5
7F
  8
0
  6
CONTINUOUS
 62
     7
 10
392.4750124999999
 20
170.0
 30
0.0
 40
4.000000000000004
 50
0.0
 51
180.0
  0
CIRCLE
  5
80
  8
0
  6
CONTINUOUS
 62
     7
 10
692.4750124999998
 20
230.0
 30
0.0
 40
6.000000000000005
  0
CIRCLE
  5
81
  8
0
  6
CONTINUOUS
 62
     7
 10
692.4750124999998
 20
170.0
 30
0.0
 40
6.000000000000005
  0
LINE
  5
82
  8
0
  6
CONTINUOUS
 62
     7
 10
379.9750124999999
 20
291.5
 30
0.0
 11
379.9750124999999
 21
299.9999999999999
 31
0.0
  0
LINE
  5
83
  8
0
  6
CONTINUOUS
 62
     7
 10
679.9750124999999
 20
300.0000000000001
 30
0.0
 11
679.9750124999999
 21
291.5000000000001
 31
0.0
  0
LINE
  5
84
  8
0
  6
CONTINUOUS
 62
     7
 10
379.9750124999999
 20
300.0
 30
0.0
 11
679.9750124999999
 21
300.0000000000001
 31
0.0
  0
LINE
  5
85
  8
0
  6
CONTINUOUS
 62
     7
 10
679.9750124999999
 20
291.5
 30
0.0
 11
379.9750124999999
 21
291.5
 31
0.0
  0
LINE
  5
86
  8
0
  6
CONTINUOUS
 62
     7
 10
679.9750124999999
 20
283.4999999999999
 30
0.0
 11
679.9750124999999
 21
275.0
 31
0.0
  0
LINE
  5
87
  8
0
  6
CONTINUOUS
 62
     7
 10
679.9750124999999
 20
275.0
 30
0.0
 11
379.9750124999999
 21
275.0
 31
0.0
  0
LINE
  5
88
  8
0
  6
CONTINUOUS
 62
     7
 10
379.9750124999999
 20
275.0
 30
0.0
 11
379.9750124999999
 21
283.4999999999999
 31
0.0
  0
LINE
  5
89
  8
0
  6
CONTINUOUS
 62
     7
 10
379.9750124999999
 20
283.4999999999999
 30
0.0
 11
679.9750124999999
 21
283.4999999999999
 31
0.0
  0
LINE
  5
8A
  8
0
  6
CONTINUOUS
 62
     7
 10
704.9750124999999
 20
283.4999999999999
 30
0.0
 11
704.9750124999999
 21
99.99999999999997
 31
0.0
  0
LINE
  5
8B
  8
0
  6
CONTINUOUS
 62
     7
 10
679.9750124999999
 20
100.0
 30
0.0
 11
679.9750124999999
 21
275.0
 31
0.0
  0
LINE
  5
8C
  8
0
  6
CONTINUOUS
 62
     7
 10
704.9750124999999
 20
100.0
 30
0.0
 11
679.9750124999999
 21
100.0
 31
0.0
  0
LINE
  5
8D
  8
0
  6
CONTINUOUS
 62
     7
 10
679.9750124999999
 20
283.4999999999999
 30
0.0
 11
704.9750124999999
 21
283.4999999999999
 31
0.0
  0
LINE
  5
8E
  8
0
  6
CONTINUOUS
 62
     7
 10
704.9750124999999
 20
300.0000000000001
 30
0.0
 11
704.9750124999999
 21
291.5000000000001
 31
0.0
  0
LINE
  5
8F
  8
0
  6
CONTINUOUS
 62
     7
 10
679.9750124999999
 20
300.0000000000001
 30
0.0
 11
704.9750124999999
 21
300.0000000000001
 31
0.0
  0
LINE
  5
90
  8
0
  6
CONTINUOUS
 62
     7
 10
704.9750124999999
 20
291.5
 30
0.0
 11
679.9750124999999
 21
291.5
 31
0.0
  0
LINE
  5
91
  8
0
  6
CONTINUOUS
 62
     7
 10
514.2250124999999
 20
290.7500000000001
 30
0.0
 11
514.2250124999999
 21
284.2500005000001
 31
0.0
  0
LINE
  5
92
  8
0
  6
CONTINUOUS
 62
     7
 10
514.2250124999999
 20
284.25
 30
0.0
 11
520.725012
 21
284.25
 31
0.0
  0
LINE
  5
93
  8
0
  6
CONTINUOUS
 62
     7
 10
520.7250124999999
 20
284.25
 30
0.0
 11
520.7250124999999
 21
290.75
 31
0.0
  0
LINE
  5
94
  8
0
  6
CONTINUOUS
 62
     7
 10
501.2250124999999
 20
290.7500000000001
 30
0.0
 11
501.2250124999999
 21
284.2500005000001
 31
0.0
  0
LINE
  5
95
  8
0
  6
CONTINUOUS
 62
     7
 10
501.2250124999999
 20
284.25
 30
0.0
 11
507.7250119999999
 21
284.25
 31
0.0
  0
LINE
  5
96
  8
0
  6
CONTINUOUS
 62
     7
 10
507.7250124999999
 20
284.25
 30
0.0
 11
507.7250124999999
 21
290.75
 31
0.0
  0
LINE
  5
97
  8
0
  6
CONTINUOUS
 62
     7
 10
488.2250124999999
 20
290.7500000000001
 30
0.0
 11
488.2250124999999
 21
284.2500005000001
 31
0.0
  0
LINE
  5
98
  8
0
  6
CONTINUOUS
 62
     7
 10
488.2250124999999
 20
284.25
 30
0.0
 11
494.7250119999999
 21
284.25
 31
0.0
  0
LINE
  5
99
  8
0
  6
CONTINUOUS
 62
     7
 10
494.7250124999999
 20
284.25
 30
0.0
 11
494.7250124999999
 21
290.7499999999999
 31
0.0
  0
LINE
  5
9A
  8
0
  6
CONTINUOUS
 62
     7
 10
475.2250124999999
 20
290.7500000000001
 30
0.0
 11
475.2250124999999
 21
284.2500005000001
 31
0.0
  0
LINE
  5
9B
  8
0
  6
CONTINUOUS
 62
     7
 10
475.2250124999999
 20
284.25
 30
0.0
 11
481.7250119999999
 21
284.25
 31
0.0
  0
LINE
  5
9C
  8
0
  6
CONTINUOUS
 62
     7
 10
481.7250124999999
 20
284.25
 30
0.0
 11
481.7250124999999
 21
290.75
 31
0.0
  0
LINE
  5
9D
  8
0
  6
CONTINUOUS
 62
     7
 10
462.2250124999999
 20
290.7500000000001
 30
0.0
 11
462.2250124999999
 21
284.2500005000001
 31
0.0
  0
LINE
  5
9E
  8
0
  6
CONTINUOUS
 62
     7
 10
462.2250124999999
 20
284.25
 30
0.0
 11
468.7250119999999
 21
284.25
 31
0.0
  0
LINE
  5
9F
  8
0
  6
CONTINUOUS
 62
     7
 10
468.7250124999999
 20
284.25
 30
0.0
 11
468.7250124999999
 21
290.75
 31
0.0
  0
LINE
  5
A0
  8
0
  6
CONTINUOUS
 62
     7
 10
449.2250124999999
 20
290.7500000000001
 30
0.0
 11
449.2250124999999
 21
284.2500005000001
 31
0.0
  0
LINE
  5
A1
  8
0
  6
CONTINUOUS
 62
     7
 10
449.2250124999999
 20
284.25
 30
0.0
 11
455.7250119999999
 21
284.25
 31
0.0
  0
LINE
  5
A2
  8
0
  6
CONTINUOUS
 62
     7
 10
455.7250124999999
 20
284.25
 30
0.0
 11
455.7250124999999
 21
290.75
 31
0.0
  0
LINE
  5
A3
  8
0
  6
CONTINUOUS
 62
     7
 10
436.2250124999999
 20
290.7500000000001
 30
0.0
 11
436.2250124999999
 21
284.2500005000001
 31
0.0
  0
LINE
  5
A4
  8
0
  6
CONTINUOUS
 62
     7
 10
436.2250125
 20
284.25
 30
0.0
 11
442.7250119999999
 21
284.25
 31
0.0
  0
LINE
  5
A5
  8
0
  6
CONTINUOUS
 62
     7
 10
442.7250124999999
 20
284.25
 30
0.0
 11
442.7250124999999
 21
290.75
 31
0.0
  0
LINE
  5
A6
  8
0
  6
CONTINUOUS
 62
     7
 10
423.2250124999999
 20
290.7500000000001
 30
0.0
 11
423.2250124999999
 21
284.2500005000001
 31
0.0
  0
LINE
  5
A7
  8
0
  6
CONTINUOUS
 62
     7
 10
423.2250125
 20
284.25
 30
0.0
 11
429.7250119999999
 21
284.25
 31
0.0
  0
LINE
  5
A8
  8
0
  6
CONTINUOUS
 62
     7
 10
429.7250124999999
 20
284.25
 30
0.0
 11
429.7250124999999
 21
290.75
 31
0.0
  0
LINE
  5
A9
  8
0
  6
CONTINUOUS
 62
     7
 10
410.2250124999999
 20
290.7500000000001
 30
0.0
 11
410.2250124999999
 21
284.2500005000001
 31
0.0
  0
LINE
  5
AA
  8
0
  6
CONTINUOUS
 62
     7
 10
410.2250125
 20
284.25
 30
0.0
 11
416.7250119999999
 21
284.25
 31
0.0
  0
LINE
  5
AB
  8
0
  6
CONTINUOUS
 62
     7
 10
416.7250124999999
 20
284.25
 30
0.0
 11
416.7250124999999
 21
290.75
 31
0.0
  0
LINE
  5
AC
  8
0
  6
CONTINUOUS
 62
     7
 10
527.2250124999999
 20
290.7500000000001
 30
0.0
 11
527.2250124999999
 21
284.2500005000001
 31
0.0
  0
LINE
  5
AD
  8
0
  6
CONTINUOUS
 62
     7
 10
527.2250124999999
 20
284.25
 30
0.0
 11
533.7250119999999
 21
284.25
 31
0.0
  0
LINE
  5
AE
  8
0
  6
CONTINUOUS
 62
     7
 10
533.7250124999999
 20
284.25
 30
0.0
 11
533.7250124999999
 21
290.75
 31
0.0
  0
LINE
  5
AF
  8
0
  6
CONTINUOUS
 62
     7
 10
540.2250124999998
 20
290.7500000000001
 30
0.0
 11
540.2250124999998
 21
284.2500005000001
 31
0.0
  0
LINE
  5
B0
  8
0
  6
CONTINUOUS
 62
     7
 10
540.2250124999999
 20
284.25
 30
0.0
 11
546.7250119999999
 21
284.25
 31
0.0
  0
LINE
  5
B1
  8
0
  6
CONTINUOUS
 62
     7
 10
546.7250124999999
 20
284.25
 30
0.0
 11
546.7250124999999
 21
290.75
 31
0.0
  0
LINE
  5
B2
  8
0
  6
CONTINUOUS
 62
     7
 10
553.2250124999999
 20
290.7500000000001
 30
0.0
 11
553.2250124999999
 21
284.2500005000001
 31
0.0
  0
LINE
  5
B3
  8
0
  6
CONTINUOUS
 62
     7
 10
553.2250124999999
 20
284.25
 30
0.0
 11
559.7250119999999
 21
284.25
 31
0.0
  0
LINE
  5
B4
  8
0
  6
CONTINUOUS
 62
     7
 10
559.7250124999999
 20
284.25
 30
0.0
 11
559.7250124999999
 21
290.75
 31
0.0
  0
LINE
  5
B5
  8
0
  6
CONTINUOUS
 62
     7
 10
566.2250124999999
 20
290.7500000000001
 30
0.0
 11
566.2250124999999
 21
284.2500005000001
 31
0.0
  0
LINE
  5
B6
  8
0
  6
CONTINUOUS
 62
     7
 10
566.2250125
 20
284.25
 30
0.0
 11
572.7250119999999
 21
284.25
 31
0.0
  0
LINE
  5
B7
  8
0
  6
CONTINUOUS
 62
     7
 10
572.7250124999998
 20
284.25
 30
0.0
 11
572.7250124999998
 21
290.75
 31
0.0
  0
LINE
  5
B8
  8
0
  6
CONTINUOUS
 62
     7
 10
579.2250124999999
 20
290.7500000000001
 30
0.0
 11
579.2250124999999
 21
284.2500005000001
 31
0.0
  0
LINE
  5
B9
  8
0
  6
CONTINUOUS
 62
     7
 10
579.2250125
 20
284.25
 30
0.0
 11
585.7250119999999
 21
284.25
 31
0.0
  0
LINE
  5
BA
  8
0
  6
CONTINUOUS
 62
     7
 10
585.7250124999998
 20
284.25
 30
0.0
 11
585.7250124999998
 21
290.75
 31
0.0
  0
LINE
  5
BB
  8
0
  6
CONTINUOUS
 62
     7
 10
592.2250124999999
 20
290.7500000000001
 30
0.0
 11
592.2250124999999
 21
284.2500005000001
 31
0.0
  0
LINE
  5
BC
  8
0
  6
CONTINUOUS
 62
     7
 10
592.2250124999999
 20
284.25
 30
0.0
 11
598.7250119999998
 21
284.25
 31
0.0
  0
LINE
  5
BD
  8
0
  6
CONTINUOUS
 62
     7
 10
598.7250124999998
 20
284.25
 30
0.0
 11
598.7250124999998
 21
290.75
 31
0.0
  0
LINE
  5
BE
  8
0
  6
CONTINUOUS
 62
     7
 10
605.2250124999999
 20
290.7500000000001
 30
0.0
 11
605.2250124999999
 21
284.2500005000001
 31
0.0
  0
LINE
  5
BF
  8
0
  6
CONTINUOUS
 62
     7
 10
605.2250124999999
 20
284.25
 30
0.0
 11
611.7250119999999
 21
284.25
 31
0.0
  0
LINE
  5
C0
  8
0
  6
CONTINUOUS
 62
     7
 10
611.7250124999998
 20
284.25
 30
0.0
 11
611.7250124999998
 21
290.75
 31
0.0
  0
LINE
  5
C1
  8
0
  6
CONTINUOUS
 62
     7
 10
618.2250124999999
 20
290.7500000000001
 30
0.0
 11
618.2250124999999
 21
284.2500005000001
 31
0.0
  0
LINE
  5
C2
  8
0
  6
CONTINUOUS
 62
     7
 10
618.2250124999999
 20
284.25
 30
0.0
 11
624.7250119999999
 21
284.25
 31
0.0
  0
LINE
  5
C3
  8
0
  6
CONTINUOUS
 62
     7
 10
624.7250124999999
 20
284.25
 30
0.0
 11
624.7250124999999
 21
290.75
 31
0.0
  0
LINE
  5
C4
  8
0
  6
CONTINUOUS
 62
     7
 10
631.2250124999999
 20
290.7500000000001
 30
0.0
 11
631.2250124999999
 21
284.2500005000001
 31
0.0
  0
LINE
  5
C5
  8
0
  6
CONTINUOUS
 62
     7
 10
631.2250124999999
 20
284.25
 30
0.0
 11
637.725012
 21
284.25
 31
0.0
  0
LINE
  5
C6
  8
0
  6
CONTINUOUS
 62
     7
 10
637.7250124999999
 20
284.25
 30
0.0
 11
637.7250124999999
 21
290.75
 31
0.0
  0
LINE
  5
C7
  8
0
  6
CONTINUOUS
 62
     7
 10
644.2250124999998
 20
290.7500000000001
 30
0.0
 11
644.2250124999998
 21
284.2500005000001
 31
0.0
  0
LINE
  5
C8
  8
0
  6
CONTINUOUS
 62
     7
 10
644.2250124999999
 20
284.25
 30
0.0
 11
650.7250119999999
 21
284.25
 31
0.0
  0
LINE
  5
C9
  8
0
  6
CONTINUOUS
 62
     7
 10
650.7250124999999
 20
284.25
 30
0.0
 11
650.7250124999999
 21
290.75
 31
0.0
  0
LINE
  5
CA
  8
0
  6
CONTINUOUS
 62
     7
 10
657.2250124999998
 20
290.7500000000001
 30
0.0
 11
657.2250124999998
 21
284.2500005000001
 31
0.0
  0
LINE
  5
CB
  8
0
  6
CONTINUOUS
 62
     7
 10
657.2250124999999
 20
284.25
 30
0.0
 11
663.725012
 21
284.25
 31
0.0
  0
LINE
  5
CC
  8
0
  6
CONTINUOUS
 62
     7
 10
663.7250124999999
 20
284.25
 30
0.0
 11
663.7250124999999
 21
290.75
 31
0.0
  0
LINE
  5
CD
  8
0
  6
CONTINUOUS
 62
     7
 10
670.2250124999999
 20
290.7500000000001
 30
0.0
 11
670.2250124999999
 21
284.2500005000001
 31
0.0
  0
LINE
  5
CE
  8
0
  6
CONTINUOUS
 62
     7
 10
670.2250124999999
 20
284.25
 30
0.0
 11
676.7250119999999
 21
284.25
 31
0.0
  0
LINE
  5
CF
  8
0
  6
CONTINUOUS
 62
     7
 10
676.7250124999999
 20
284.25
 30
0.0
 11
676.7250124999999
 21
290.75
 31
0.0
  0
LINE
  5
D0
  8
0
  6
CONTINUOUS
 62
     7
 10
397.2250124999999
 20
290.7500000000001
 30
0.0
 11
397.2250124999999
 21
284.2500005000001
 31
0.0
  0
LINE
  5
D1
  8
0
  6
CONTINUOUS
 62
     7
 10
397.2250125
 20
284.25
 30
0.0
 11
403.7250119999999
 21
284.25
 31
0.0
  0
LINE
  5
D2
  8
0
  6
CONTINUOUS
 62
     7
 10
403.7250124999999
 20
284.25
 30
0.0
 11
403.7250124999999
 21
290.75
 31
0.0
  0
LINE
  5
D3
  8
0
  6
CONTINUOUS
 62
     7
 10
704.9750124999999
 20
283.4999999999999
 30
0.0
 11
704.9750124999999
 21
291.5
 31
0.0
  0
LINE
  5
D4
  8
0
  6
CONTINUOUS
 62
     7
 10
379.9750124999999
 20
291.5
 30
0.0
 11
379.9750124999999
 21
283.4999999999999
 31
0.0
  0
CIRCLE
  5
D5
  8
0
  6
CONTINUOUS
 62
     7
 10
392.4750124999999
 20
170.0
 30
0.0
 40
6.000000000000005
  0
CIRCLE
  5
D6
  8
0
  6
CONTINUOUS
 62
     7
 10
392.4750124999999
 20
230.0
 30
0.0
 40
6.000000000000005
  0
LINE
  5
D7
  8
0
  6
CONTINUOUS
 62
     7
 10
630.4750124999999
 20
99.99999999999997
 30
0.0
 11
629.4750124999999
 21
99.99999999999997
 31
0.0
  0
LINE
  5
D8
  8
0
  6
CONTINUOUS
 62
     7
 10
629.4750124999999
 20
100.0
 30
0.0
 11
555.4750124999999
 21
100.0
 31
0.0
  0
LINE
  5
D9
  8
0
  6
CONTINUOUS
 62
     7
 10
555.4750124999998
 20
99.99999999999997
 30
0.0
 11
554.4750124999999
 21
99.99999999999997
 31
0.0
  0
LINE
  5
DA
  8
0
  6
CONTINUOUS
 62
     7
 10
554.4750124999998
 20
100.0
 30
0.0
 11
480.4750124999998
 21
100.0
 31
0.0
  0
LINE
  5
DB
  8
0
  6
CONTINUOUS
 62
     7
 10
480.4750124999999
 20
99.99999999999997
 30
0.0
 11
479.4750124999999
 21
99.99999999999997
 31
0.0
  0
LINE
  5
DC
  8
0
  6
CONTINUOUS
 62
     7
 10
479.4750124999999
 20
100.0
 30
0.0
 11
404.9750124999999
 21
100.0
 31
0.0
  0
LINE
  5
DD
  8
0
  6
CONTINUOUS
 62
     7
 10
404.9750124999999
 20
99.99999999999997
 30
0.0
 11
379.9750124999999
 21
99.99999999999997
 31
0.0
  0
LINE
  5
DE
  8
0
  6
CONTINUOUS
 62
     7
 10
679.9750124999999
 20
100.0
 30
0.0
 11
630.4750125
 21
100.0
 31
0.0
  0
LINE
  5
DF
  8
0
  6
CONTINUOUS
 62
     7
 10
379.9750124999999
 20
99.99999999999997
 30
0.0
 11
379.9750124999999
 21
275.0
 31
0.0
  0
LINE
  5
E0
  8
0
  6
CONTINUOUS
 62
     7
 10
479.4750124999999
 20
64.99999999999997
 30
0.0
 11
404.9750124999999
 21
65.0
 31
0.0
  0
LINE
  5
E1
  8
0
  6
CONTINUOUS
 62
     7
 10
404.9750124999999
 20
65.0
 30
0.0
 11
404.9750124999999
 21
100.0
 31
0.0
  0
LINE
  5
E2
  8
0
  6
CONTINUOUS
 62
     7
 10
479.4750124999999
 20
99.99999999999997
 30
0.0
 11
479.4750124999999
 21
64.99999999999997
 31
0.0
  0
LINE
  5
E3
  8
0
  6
CONTINUOUS
 62
     7
 10
474.9750124999999
 20
95.0
 30
0.0
 11
409.9750129999999
 21
95.0
 31
0.0
  0
LINE
  5
E4
  8
0
  6
CONTINUOUS
 62
     7
 10
409.9750124999999
 20
95.0
 30
0.0
 11
409.9750124999999
 21
70.00000049999998
 31
0.0
  0
LINE
  5
E5
  8
0
  6
CONTINUOUS
 62
     7
 10
409.9750124999999
 20
70.0
 30
0.0
 11
474.9750124999999
 21
70.0
 31
0.0
  0
LINE
  5
E6
  8
0
  6
CONTINUOUS
 62
     7
 10
474.9750124999999
 20
70.0
 30
0.0
 11
474.9750124999999
 21
94.99999949999999
 31
0.0
  0
LINE
  5
E7
  8
0
  6
CONTINUOUS
 62
     7
 10
554.4750124999998
 20
65.0
 30
0.0
 11
480.4750124999998
 21
65.0
 31
0.0
  0
LINE
  5
E8
  8
0
  6
CONTINUOUS
 62
     7
 10
554.4750124999998
 20
99.99999999999997
 30
0.0
 11
554.4750124999998
 21
65.0
 31
0.0
  0
LINE
  5
E9
  8
0
  6
CONTINUOUS
 62
     7
 10
549.9750124999999
 20
95.0
 30
0.0
 11
484.9750129999999
 21
95.0
 31
0.0
  0
LINE
  5
EA
  8
0
  6
CONTINUOUS
 62
     7
 10
484.9750124999999
 20
95.0
 30
0.0
 11
484.9750124999999
 21
70.00000049999998
 31
0.0
  0
LINE
  5
EB
  8
0
  6
CONTINUOUS
 62
     7
 10
484.9750124999999
 20
70.0
 30
0.0
 11
549.9750124999999
 21
70.0
 31
0.0
  0
LINE
  5
EC
  8
0
  6
CONTINUOUS
 62
     7
 10
549.9750124999999
 20
70.0
 30
0.0
 11
549.9750124999999
 21
94.99999949999999
 31
0.0
  0
LINE
  5
ED
  8
0
  6
CONTINUOUS
 62
     7
 10
480.4750124999999
 20
65.0
 30
0.0
 11
480.4750124999999
 21
100.0
 31
0.0
  0
LINE
  5
EE
  8
0
  6
CONTINUOUS
 62
     7
 10
629.4750124999999
 20
65.0
 30
0.0
 11
555.4750124999999
 21
65.0
 31
0.0
  0
LINE
  5
EF
  8
0
  6
CONTINUOUS
 62
     7
 10
629.4750124999999
 20
99.99999999999997
 30
0.0
 11
629.4750124999999
 21
65.0
 31
0.0
  0
LINE
  5
F0
  8
0
  6
CONTINUOUS
 62
     7
 10
624.9750124999999
 20
95.0
 30
0.0
 11
559.975013
 21
95.0
 31
0.0
  0
LINE
  5
F1
  8
0
  6
CONTINUOUS
 62
     7
 10
559.9750124999999
 20
95.0
 30
0.0
 11
559.9750124999999
 21
70.00000049999998
 31
0.0
  0
LINE
  5
F2
  8
0
  6
CONTINUOUS
 62
     7
 10
559.9750124999999
 20
69.99999999999997
 30
0.0
 11
624.9750124999999
 21
69.99999999999997
 31
0.0
  0
LINE
  5
F3
  8
0
  6
CONTINUOUS
 62
     7
 10
624.9750124999999
 20
69.99999999999997
 30
0.0
 11
624.9750124999999
 21
94.99999949999999
 31
0.0
  0
LINE
  5
F4
  8
0
  6
CONTINUOUS
 62
     7
 10
555.4750124999998
 20
65.0
 30
0.0
 11
555.4750124999998
 21
100.0
 31
0.0
  0
LINE
  5
F5
  8
0
  6
CONTINUOUS
 62
     7
 10
704.9750124999999
 20
65.00000000000003
 30
0.0
 11
630.4750124999999
 21
65.0
 31
0.0
  0
LINE
  5
F6
  8
0
  6
CONTINUOUS
 62
     7
 10
699.9750124999999
 20
95.0
 30
0.0
 11
634.9750129999999
 21
95.0
 31
0.0
  0
LINE
  5
F7
  8
0
  6
CONTINUOUS
 62
     7
 10
634.9750124999998
 20
95.0
 30
0.0
 11
634.9750124999998
 21
70.00000049999998
 31
0.0
  0
LINE
  5
F8
  8
0
  6
CONTINUOUS
 62
     7
 10
634.9750124999998
 20
70.0
 30
0.0
 11
699.9750124999999
 21
70.0
 31
0.0
  0
LINE
  5
F9
  8
0
  6
CONTINUOUS
 62
     7
 10
699.9750124999999
 20
70.0
 30
0.0
 11
699.9750124999999
 21
94.99999949999999
 31
0.0
  0
LINE
  5
FA
  8
0
  6
CONTINUOUS
 62
     7
 10
630.4750124999999
 20
65.0
 30
0.0
 11
630.4750124999999
 21
100.0
 31
0.0
  0
LINE
  5
FB
  8
0
  6
CONTINUOUS
 62
     7
 10
704.9750124999999
 20
100.0
 30
0.0
 11
704.9750124999999
 21
65.00000000000003
 31
0.0
  0
ENDBLK
  8
0
  0
ENDSEC
  0
SECTION
  2
ENTITIES
  0
INSERT
  5
FC
  8
0
  6
CONTINUOUS
 62
     7
  2
D_FRAME_VIEW_1301
 10
0.0
 20
0.0
 30
0.0
  0
TEXT
  5
FD
  8
0
  6
CONTINUOUS
 62
     7
 10
687.5514880580217
 20
47.18523821433036
 30
0.0
 40
3.0
  1
MMH-NSBHS
  0
ENDSEC
  0
EOF
