  0
SECTION
  2
HEADER
  9
$ACADVER
  1
AC1014
  9
$ACADMAINTVER
 70
     9
  9
$DWGCODEPAGE
  3
ANSI_932
  9
$INSBASE
 10
0.0
 20
0.0
 30
0.0
  9
$EXTMIN
 10
38.43583263377527
 20
165.0318181818181
 30
0.0
  9
$EXTMAX
 10
146.4893616356134
 20
269.9506040458839
 30
0.0
  9
$LIMMIN
 10
0.0
 20
0.0
  9
$LIMMAX
 10
12.0
 20
9.0
  9
$ORTHOMODE
 70
     0
  9
$REGENMODE
 70
     1
  9
$FILLMODE
 70
     1
  9
$QTEXTMODE
 70
     0
  9
$MIRRTEXT
 70
     1
  9
$DRAGMODE
 70
     2
  9
$LTSCALE
 40
1.0
  9
$OSMODE
 70
    37
  9
$ATTMODE
 70
     1
  9
$TEXTSIZE
 40
0.2
  9
$TRACEWID
 40
0.05
  9
$TEXTSTYLE
  7
STANDARD
  9
$CLAYER
  8
0
  9
$CELTYPE
  6
BYLAYER
  9
$CECOLOR
 62
   256
  9
$CELTSCALE
 40
1.0
  9
$DELOBJ
 70
     1
  9
$DISPSILH
 70
     0
  9
$DIMSCALE
 40
1.0
  9
$DIMASZ
 40
3.0
  9
$DIMEXO
 40
0.0625
  9
$DIMDLI
 40
0.38
  9
$DIMRND
 40
0.0
  9
$DIMDLE
 40
0.0
  9
$DIMEXE
 40
1.5
  9
$DIMTP
 40
0.0
  9
$DIMTM
 40
0.0
  9
$DIMTXT
 40
3.0
  9
$DIMCEN
 40
0.09
  9
$DIMTSZ
 40
0.0
  9
$DIMTOL
 70
     0
  9
$DIMLIM
 70
     0
  9
$DIMTIH
 70
     1
  9
$DIMTOH
 70
     1
  9
$DIMSE1
 70
     0
  9
$DIMSE2
 70
     0
  9
$DIMTAD
 70
     1
  9
$DIMZIN
 70
     0
  9
$DIMBLK
  1

  9
$DIMASO
 70
     1
  9
$DIMSHO
 70
     1
  9
$DIMPOST
  1

  9
$DIMAPOST
  1

  9
$DIMALT
 70
     0
  9
$DIMALTD
 70
     2
  9
$DIMALTF
 40
25.4
  9
$DIMLFAC
 40
1.0
  9
$DIMTOFL
 70
     0
  9
$DIMTVP
 40
0.0
  9
$DIMTIX
 70
     0
  9
$DIMSOXD
 70
     0
  9
$DIMSAH
 70
     0
  9
$DIMBLK1
  1

  9
$DIMBLK2
  1

  9
$DIMSTYLE
  2
STANDARD
  9
$DIMCLRD
 70
     0
  9
$DIMCLRE
 70
     0
  9
$DIMCLRT
 70
     0
  9
$DIMTFAC
 40
1.0
  9
$DIMGAP
 40
1.5
  9
$DIMJUST
 70
     0
  9
$DIMSD1
 70
     0
  9
$DIMSD2
 70
     0
  9
$DIMTOLJ
 70
     1
  9
$DIMTZIN
 70
     0
  9
$DIMALTZ
 70
     0
  9
$DIMALTTZ
 70
     0
  9
$DIMFIT
 70
     3
  9
$DIMUPT
 70
     0
  9
$DIMUNIT
 70
     2
  9
$DIMDEC
 70
     2
  9
$DIMTDEC
 70
     4
  9
$DIMALTU
 70
     2
  9
$DIMALTTD
 70
     2
  9
$DIMTXSTY
  7
ＭＳ_ゴシック
  9
$DIMAUNIT
 70
     0
  9
$LUNITS
 70
     2
  9
$LUPREC
 70
     4
  9
$SKETCHINC
 40
0.1
  9
$FILLETRAD
 40
0.5
  9
$AUNITS
 70
     0
  9
$AUPREC
 70
     0
  9
$MENU
  1
.
  9
$ELEVATION
 40
0.0
  9
$PELEVATION
 40
0.0
  9
$THICKNESS
 40
0.0
  9
$LIMCHECK
 70
     0
  9
$CHAMFERA
 40
0.0
  9
$CHAMFERB
 40
0.0
  9
$CHAMFERC
 40
0.0
  9
$CHAMFERD
 40
0.0
  9
$SKPOLY
 70
     0
  9
$TDCREATE
 40
2459066.573055694
  9
$TDUPDATE
 40
2459066.57305588
  9
$TDINDWG
 40
0.0000000116
  9
$TDUSRTIMER
 40
0.0000000116
  9
$USRTIMER
 70
     1
  9
$ANGBASE
 50
0.0
  9
$ANGDIR
 70
     0
  9
$PDMODE
 70
     0
  9
$PDSIZE
 40
0.0
  9
$PLINEWID
 40
0.0
  9
$COORDS
 70
     1
  9
$SPLFRAME
 70
     0
  9
$SPLINETYPE
 70
     6
  9
$SPLINESEGS
 70
     8
  9
$ATTDIA
 70
     0
  9
$ATTREQ
 70
     1
  9
$HANDLING
 70
     1
  9
$HANDSEED
  5
FA
  9
$SURFTAB1
 70
     6
  9
$SURFTAB2
 70
     6
  9
$SURFTYPE
 70
     6
  9
$SURFU
 70
     6
  9
$SURFV
 70
     6
  9
$UCSNAME
  2

  9
$UCSORG
 10
0.0
 20
0.0
 30
0.0
  9
$UCSXDIR
 10
1.0
 20
0.0
 30
0.0
  9
$UCSYDIR
 10
0.0
 20
1.0
 30
0.0
  9
$PUCSNAME
  2

  9
$PUCSORG
 10
0.0
 20
0.0
 30
0.0
  9
$PUCSXDIR
 10
1.0
 20
0.0
 30
0.0
  9
$PUCSYDIR
 10
0.0
 20
1.0
 30
0.0
  9
$USERI1
 70
     0
  9
$USERI2
 70
     0
  9
$USERI3
 70
     0
  9
$USERI4
 70
     0
  9
$USERI5
 70
     0
  9
$USERR1
 40
0.0
  9
$USERR2
 40
0.0
  9
$USERR3
 40
0.0
  9
$USERR4
 40
0.0
  9
$USERR5
 40
0.0
  9
$WORLDVIEW
 70
     1
  9
$SHADEDGE
 70
     3
  9
$SHADEDIF
 70
    70
  9
$TILEMODE
 70
     1
  9
$MAXACTVP
 70
    64
  9
$PINSBASE
 10
0.0
 20
0.0
 30
0.0
  9
$PLIMCHECK
 70
     0
  9
$PEXTMIN
 10
1.000000000000000E+20
 20
1.000000000000000E+20
 30
1.000000000000000E+20
  9
$PEXTMAX
 10
-1.000000000000000E+20
 20
-1.000000000000000E+20
 30
-1.000000000000000E+20
  9
$PLIMMIN
 10
0.0
 20
0.0
  9
$PLIMMAX
 10
12.0
 20
9.0
  9
$UNITMODE
 70
     0
  9
$VISRETAIN
 70
     1
  9
$PLINEGEN
 70
     0
  9
$PSLTSCALE
 70
     1
  9
$TREEDEPTH
 70
  3020
  9
$PICKSTYLE
 70
     1
  9
$CMLSTYLE
  2
STANDARD
  9
$CMLJUST
 70
     0
  9
$CMLSCALE
 40
1.0
  9
$PROXYGRAPHICS
 70
     1
  9
$MEASUREMENT
 70
     1
  0
ENDSEC
  0
SECTION
  2
CLASSES
  0
CLASS
  1
ACDBDICTIONARYWDFLT
  2
AcDbDictionaryWithDefault
  3
ObjectDBX Classes
 90
        0
280
     0
281
     0
  0
CLASS
  1
VISUALSTYLE
  2
AcDbVisualStyle
  3
ObjectDBX Classes
 90
     4095
280
     0
281
     0
  0
CLASS
  1
MATERIAL
  2
AcDbMaterial
  3
ObjectDBX Classes
 90
     1153
280
     0
281
     0
  0
CLASS
  1
SCALE
  2
AcDbScale
  3
ObjectDBX Classes
 90
     1153
280
     0
281
     0
  0
CLASS
  1
TABLESTYLE
  2
AcDbTableStyle
  3
ObjectDBX Classes
 90
     4095
280
     0
281
     0
  0
CLASS
  1
MLEADERSTYLE
  2
AcDbMLeaderStyle
  3
ACDB_MLEADERSTYLE_CLASS
 90
     4095
280
     0
281
     0
  0
CLASS
  1
SUN
  2
AcDbSun
  3
SCENEOE
 90
     1153
280
     0
281
     0
  0
CLASS
  1
DICTIONARYVAR
  2
AcDbDictionaryVar
  3
ObjectDBX Classes
 90
        0
280
     0
281
     0
  0
CLASS
  1
XRECORD
  2
AcDbXrecord
  3
ObjectDBX Classes
 90
        0
280
     0
281
     0
  0
CLASS
  1
LWPOLYLINE
  2
AcDbPolyline
  3
ObjectDBX Classes
 90
        0
280
     0
281
     1
  0
CLASS
  1
HATCH
  2
AcDbHatch
  3
ObjectDBX Classes
 90
        0
280
     0
281
     1
  0
CLASS
  1
ACDBPLACEHOLDER
  2
AcDbPlaceHolder
  3
ObjectDBX Classes
 90
        0
280
     0
281
     0
  0
CLASS
  1
LAYOUT
  2
AcDbLayout
  3
ObjectDBX Classes
 90
        0
280
     0
281
     0
  0
ENDSEC
  0
SECTION
  2
TABLES
  0
TABLE
  2
VPORT
  5
8
102
{ACAD_XDICTIONARY
360
EF
102
}
330
0
100
AcDbSymbolTable
 70
     1
  0
VPORT
  5
29
330
8
100
AcDbSymbolTableRecord
100
AcDbViewportTableRecord
  2
*ACTIVE
 70
     0
 10
0.0
 20
0.0
 11
1.0
 21
1.0
 12
92.46259713469435
 22
217.491211113851
 13
0.0
 23
0.0
 14
0.5
 24
0.5
 15
0.5
 25
0.5
 16
0.0
 26
0.0
 36
1.0
 17
0.0
 27
0.0
 37
0.0
 40
104.9187858640659
 41
1.6
 42
50.0
 43
0.0
 44
0.0
 50
0.0
 51
0.0
 71
     0
 72
   100
 73
     1
 74
     3
 75
     0
 76
     0
 77
     0
 78
     0
  0
ENDTAB
  0
TABLE
  2
LTYPE
  5
5
330
0
100
AcDbSymbolTable
 70
     1
  0
LTYPE
  5
14
330
5
100
AcDbSymbolTableRecord
100
AcDbLinetypeTableRecord
  2
BYBLOCK
 70
     0
  3

 72
    65
 73
     0
 40
0.0
  0
LTYPE
  5
15
330
5
100
AcDbSymbolTableRecord
100
AcDbLinetypeTableRecord
  2
BYLAYER
 70
     0
  3

 72
    65
 73
     0
 40
0.0
  0
LTYPE
  5
16
330
5
100
AcDbSymbolTableRecord
100
AcDbLinetypeTableRecord
  2
CONTINUOUS
 70
     0
  3
Solid line
 72
    65
 73
     0
 40
0.0
  0
ENDTAB
  0
TABLE
  2
LAYER
  5
2
330
0
100
AcDbSymbolTable
 70
     1
  0
LAYER
  5
10
330
2
100
AcDbSymbolTableRecord
100
AcDbLayerTableRecord
  2
0
 70
     0
 62
     7
  6
CONTINUOUS
  0
ENDTAB
  0
TABLE
  2
STYLE
  5
3
330
0
100
AcDbSymbolTable
 70
     2
  0
STYLE
  5
11
330
3
100
AcDbSymbolTableRecord
100
AcDbTextStyleTableRecord
  2
STANDARD
 70
     0
 40
0.0
 41
1.0
 50
0.0
 71
     0
 42
0.2
  3
txt
  4

  0
STYLE
  5
6E
330
3
100
AcDbSymbolTableRecord
100
AcDbTextStyleTableRecord
  2
ＭＳ_ゴシック
 70
     0
 40
0.0
 41
1.0
 50
0.0
 71
     0
 42
0.2
  3
ＭＳ ゴシック.shx
  4

  0
ENDTAB
  0
TABLE
  2
VIEW
  5
6
330
0
100
AcDbSymbolTable
 70
     0
  0
ENDTAB
  0
TABLE
  2
UCS
  5
7
330
0
100
AcDbSymbolTable
 70
     0
  0
ENDTAB
  0
TABLE
  2
APPID
  5
9
330
0
100
AcDbSymbolTable
 70
     2
  0
APPID
  5
12
330
9
100
AcDbSymbolTableRecord
100
AcDbRegAppTableRecord
  2
ACAD
 70
     0
  0
APPID
  5
F9
330
9
100
AcDbSymbolTableRecord
100
AcDbRegAppTableRecord
  2
ACAD_MLEADERVER
 70
     0
  0
ENDTAB
  0
TABLE
  2
DIMSTYLE
  5
A
330
0
100
AcDbSymbolTable
 70
     1
  0
DIMSTYLE
105
27
330
A
100
AcDbSymbolTableRecord
100
AcDbDimStyleTableRecord
  2
STANDARD
 70
     0
  3

  4

  5

  6

  7

 40
1.0
 41
0.18
 42
0.0625
 43
0.38
 44
0.18
 45
0.0
 46
0.0
 47
0.0
 48
0.0
140
0.18
141
0.09
142
0.0
143
25.4
144
1.0
145
0.0
146
1.0
147
0.09
 71
     0
 72
     0
 73
     1
 74
     1
 75
     0
 76
     0
 77
     0
 78
     0
170
     0
171
     2
172
     0
173
     0
174
     0
175
     0
176
     0
177
     0
178
     0
270
     2
271
     4
272
     4
273
     2
274
     2
340
11
275
     0
280
     0
281
     0
282
     0
283
     1
284
     0
285
     0
286
     0
287
     3
288
     0
  0
ENDTAB
  0
TABLE
  2
BLOCK_RECORD
  5
1
330
0
100
AcDbSymbolTable
 70
     0
  0
BLOCK_RECORD
  5
1F
330
1
100
AcDbSymbolTableRecord
100
AcDbBlockTableRecord
  2
*MODEL_SPACE
  0
BLOCK_RECORD
  5
1B
330
1
100
AcDbSymbolTableRecord
100
AcDbBlockTableRecord
  2
*PAPER_SPACE
  0
ENDTAB
  0
ENDSEC
  0
SECTION
  2
BLOCKS
  0
BLOCK
  5
20
330
1F
100
AcDbEntity
  8
0
100
AcDbBlockBegin
  2
*MODEL_SPACE
 70
     0
 10
0.0
 20
0.0
 30
0.0
  3
*MODEL_SPACE
  1

  0
ENDBLK
  5
21
330
1F
100
AcDbEntity
  8
0
100
AcDbBlockEnd
  0
BLOCK
  5
1C
330
1B
100
AcDbEntity
 67
     1
  8
0
100
AcDbBlockBegin
  2
*PAPER_SPACE
 70
     0
 10
0.0
 20
0.0
 30
0.0
  3
*PAPER_SPACE
  1

  0
ENDBLK
  5
1D
330
1B
100
AcDbEntity
 67
     1
  8
0
100
AcDbBlockEnd
  0
ENDSEC
  0
SECTION
  2
ENTITIES
  0
MTEXT
  5
6F
330
1F
100
AcDbEntity
  8
0
 62
     7
100
AcDbMText
 10
116.0257252719771
 20
167.7181818181817
 30
0.0
 40
3.0
 41
0.0
 71
     1
 72
     1
  1
{\fＭＳ ゴシック;ＭＭＨ－ＳＳＬ３０}
  0
LINE
  5
70
330
1F
100
AcDbEntity
  8
0
  6
CONTINUOUS
 62
     7
100
AcDbLine
 10
57.7379140878794
 20
210.4203832266016
 30
0.0
 11
60.12981197600359
 21
212.095208158494
 31
0.0
  0
LINE
  5
71
330
1F
100
AcDbEntity
  8
0
  6
CONTINUOUS
 62
     7
100
AcDbLine
 10
54.90301568632509
 20
212.7634072292442
 30
0.0
 11
52.66217123184155
 21
210.5225627747608
 31
0.0
  0
LINE
  5
72
330
1F
100
AcDbEntity
  8
0
  6
CONTINUOUS
 62
     7
100
AcDbLine
 10
60.12981197600365
 20
212.0952081584939
 30
0.0
 11
57.53389242797786
 21
210.2775257223805
 31
0.0
  0
LWPOLYLINE
  5
73
330
1F
100
AcDbEntity
  8
0
  6
CONTINUOUS
 62
     7
100
AcDbPolyline
 90
        8
 70
     0
 43
0.0
 10
-59.15529827503334
 20
239.9500931752352
 42
0.184284568948317
 10
-58.01872686043574
 20
240.3692214090881
 10
-57.93209301596025
 20
240.4611791220883
 10
-57.86226089143165
 20
240.5556267787103
 10
-57.80031573179856
 20
240.6694939979936
 10
-57.75968294699479
 20
240.7853319691075
 10
-57.74000302257149
 20
240.9020333313929
 10
-57.73791408787938
 20
240.9500931752351
210
0.0
220
0.0
230
-1.0
  0
LINE
  5
74
330
1F
100
AcDbEntity
  8
0
  6
CONTINUOUS
 62
     7
100
AcDbLine
 10
42.24630630781398
 20
192.5101988634966
 30
0.0
 11
42.45972003727915
 21
192.5580302104173
 31
0.0
  0
LINE
  5
75
330
1F
100
AcDbEntity
  8
0
  6
CONTINUOUS
 62
     7
100
AcDbLine
 10
54.90301568632505
 20
240.9500931752351
 30
0.0
 11
54.67453913672627
 21
268.9500931752351
 31
0.0
  0
LINE
  5
76
330
1F
100
AcDbEntity
  8
0
  6
CONTINUOUS
 62
     7
100
AcDbLine
 10
53.85743095394303
 20
239.9500931752352
 30
0.0
 11
71.56416736622471
 21
239.9500931752352
 31
0.0
  0
ARC
  5
77
330
1F
100
AcDbEntity
  8
0
  6
CONTINUOUS
 62
     7
100
AcDbCircle
 10
-53.69763866749803
 20
197.5580302104173
 30
0.0
 40
9.499999999999998
210
0.0
220
0.0
230
-1.0
100
AcDbArc
 50
344.878334685091
 51
15.12166531490897
  0
LINE
  5
78
330
1F
100
AcDbEntity
  8
0
  6
CONTINUOUS
 62
     7
100
AcDbLine
 10
60.12981197600359
 20
240.9500931752352
 30
0.0
 11
59.8651319620997
 21
268.9500931752352
 31
0.0
  0
LINE
  5
79
330
1F
100
AcDbEntity
  8
0
  6
CONTINUOUS
 62
     7
100
AcDbLine
 10
71.56416736622472
 20
239.9500931752352
 30
0.0
 11
61.35404138924424
 21
239.9500931752352
 31
0.0
  0
LINE
  5
7A
330
1F
100
AcDbEntity
  8
0
  6
CONTINUOUS
 62
     7
100
AcDbLine
 10
53.54446243728139
 20
239.9500931752352
 30
0.0
 11
38.43583263377531
 21
239.9500931752352
 31
0.0
  0
LWPOLYLINE
  5
7B
330
1F
100
AcDbEntity
  8
0
  6
CONTINUOUS
 62
     7
100
AcDbPolyline
 90
        9
 70
     0
 43
0.0
 10
60.12981197600353
 20
240.9500931752352
 10
60.1376825800386
 20
240.8461269963022
 10
60.1596165393658
 20
240.741901148388
 10
60.19475087947818
 20
240.6412769193163
 10
60.2404783281083
 20
240.5480859125538
 10
60.29742198889704
 20
240.4589449022437
 10
60.37838405519832
 20
240.3597932435894
 10
60.47992215640431
 20
240.2627143155854
 42
0.1741239734270904
 10
61.35404138924426
 20
239.9500931752352
  0
LINE
  5
7C
330
1F
100
AcDbEntity
  8
0
  6
CONTINUOUS
 62
     7
100
AcDbLine
 10
58.96029628922894
 20
269.9500931752352
 30
0.0
 11
61.08885661454872
 21
269.9500931752352
 31
0.0
  0
LINE
  5
7D
330
1F
100
AcDbEntity
  8
0
  6
CONTINUOUS
 62
     7
100
AcDbLine
 10
94.95009317523483
 20
182.0683404718776
 30
0.0
 11
94.95009317523521
 21
212.8190675425737
 31
0.0
  0
LINE
  5
7E
330
1F
100
AcDbEntity
  8
0
  6
CONTINUOUS
 62
     7
100
AcDbLine
 10
42.45972003727915
 20
192.5580302104173
 30
0.0
 11
42.59583701191078
 21
192.5580302104173
 31
0.0
  0
LINE
  5
7F
330
1F
100
AcDbEntity
  8
0
  6
CONTINUOUS
 62
     7
100
AcDbLine
 10
53.87267273840235
 20
269.8590345661959
 30
0.0
 11
53.87271914558165
 21
269.9500931752352
 31
0.0
  0
LINE
  5
80
330
1F
100
AcDbEntity
  8
0
  6
CONTINUOUS
 62
     7
100
AcDbLine
 10
54.90301568632504
 20
212.7634072292443
 30
0.0
 11
52.83828639902114
 21
210.6986779419404
 31
0.0
  0
LWPOLYLINE
  5
81
330
1F
100
AcDbEntity
  8
0
  6
CONTINUOUS
 62
     7
100
AcDbPolyline
 90
        9
 70
     0
 43
0.0
 10
54.67453913672615
 20
268.9500931752352
 10
54.66679534913568
 20
269.0519521892595
 10
54.64492742027094
 20
269.1540612612325
 10
54.60965472242407
 20
269.2527474807217
 10
54.56359447157227
 20
269.3439786036863
 10
54.48445894010351
 20
269.4589916578764
 10
54.39180553755024
 20
269.5597104196289
 10
54.28511492416216
 20
269.6496427314859
 42
0.1584619835242098
 10
53.27754122234147
 20
269.9500931752352
  0
LINE
  5
82
330
1F
100
AcDbEntity
  8
0
  6
CONTINUOUS
 62
     7
100
AcDbLine
 10
38.69763866749803
 20
269.9500931752352
 30
0.0
 11
38.43583263377528
 21
239.9500931752352
 31
0.0
  0
LINE
  5
83
330
1F
100
AcDbEntity
  8
0
  6
CONTINUOUS
 62
     7
100
AcDbLine
 10
53.85743095394303
 20
239.9500931752352
 30
0.0
 11
71.56416736622471
 21
239.9500931752352
 31
0.0
  0
LINE
  5
84
330
1F
100
AcDbEntity
  8
0
  6
CONTINUOUS
 62
     7
100
AcDbLine
 10
42.59583701191078
 20
202.5580302104173
 30
0.0
 11
42.45972003727913
 21
202.5580302104173
 31
0.0
  0
LINE
  5
85
330
1F
100
AcDbEntity
  8
0
  6
CONTINUOUS
 62
     7
100
AcDbLine
 10
61.35404138924424
 20
239.9500931752352
 30
0.0
 11
59.15529827503332
 21
239.9500931752352
 31
0.0
  0
LINE
  5
86
330
1F
100
AcDbEntity
  8
0
  6
CONTINUOUS
 62
     7
100
AcDbLine
 10
60.12981197600365
 20
212.0952081584939
 30
0.0
 11
57.53389242797786
 21
210.2775257223805
 31
0.0
  0
LINE
  5
87
330
1F
100
AcDbEntity
  8
0
  6
CONTINUOUS
 62
   253
100
AcDbLine
 10
42.00736511124733
 20
203.2777709532278
 30
0.0
 11
42.02366572355962
 21
203.2780263384049
 31
0.0
  0
LINE
  5
88
330
1F
100
AcDbEntity
  8
0
  6
CONTINUOUS
 62
     7
100
AcDbLine
 10
53.87271914558167
 20
269.9500931752352
 30
0.0
 11
58.96069394739095
 21
269.9500931752352
 31
0.0
  0
LINE
  5
89
330
1F
100
AcDbEntity
  8
0
  6
CONTINUOUS
 62
     7
100
AcDbLine
 10
60.12981197600364
 20
212.0952081584939
 30
0.0
 11
57.53389242797786
 21
210.2775257223805
 31
0.0
  0
LINE
  5
8A
330
1F
100
AcDbEntity
  8
0
  6
CONTINUOUS
 62
     7
100
AcDbLine
 10
57.7379140878794
 20
210.4203832266016
 30
0.0
 11
57.53389242797786
 21
210.2775257223805
 31
0.0
  0
LINE
  5
8B
330
1F
100
AcDbEntity
  8
0
  6
CONTINUOUS
 62
     7
100
AcDbLine
 10
51.00057231163625
 20
210.2751774169286
 30
0.0
 11
52.66217123184155
 21
210.5225627747608
 31
0.0
  0
LINE
  5
8C
330
1F
100
AcDbEntity
  8
0
  6
CONTINUOUS
 62
     7
100
AcDbLine
 10
53.85743095394302
 20
239.9500931752352
 30
0.0
 11
71.56416736622472
 21
239.9500931752352
 31
0.0
  0
LINE
  5
8D
330
1F
100
AcDbEntity
  8
0
  6
CONTINUOUS
 62
     7
100
AcDbLine
 10
71.30236133250195
 20
269.9500931752352
 30
0.0
 11
61.0888566145487
 21
269.9500931752352
 31
0.0
  0
LINE
  5
8E
330
1F
100
AcDbEntity
  8
0
  6
CONTINUOUS
 62
     7
100
AcDbLine
 10
124.9500931752352
 20
182.3301465056004
 30
0.0
 11
124.9500931752352
 21
211.5459638551214
 31
0.0
  0
LINE
  5
8F
330
1F
100
AcDbEntity
  8
0
  6
CONTINUOUS
 62
     7
100
AcDbLine
 10
53.54446243728138
 20
212.8190675425737
 30
0.0
 11
54.90301568632504
 21
212.7634072292443
 31
0.0
  0
LINE
  5
90
330
1F
100
AcDbEntity
  8
0
  6
CONTINUOUS
 62
     7
100
AcDbLine
 10
57.73791408787942
 20
240.9500931752352
 30
0.0
 11
57.53389242797788
 21
268.9500931752352
 31
0.0
  0
LINE
  5
91
330
1F
100
AcDbEntity
  8
0
  6
CONTINUOUS
 62
     7
100
AcDbLine
 10
94.95009317523483
 20
182.0683404718776
 30
0.0
 11
94.95009317523521
 21
212.8190675425737
 31
0.0
  0
ARC
  5
92
330
1F
100
AcDbEntity
  8
0
  6
CONTINUOUS
 62
     7
100
AcDbCircle
 10
53.69763866749802
 20
197.5580302104173
 30
0.0
 40
15.26180603372275
100
AcDbArc
 50
90.57506292799363
 51
269.9140155752922
  0
LINE
  5
93
330
1F
100
AcDbEntity
  8
0
  6
CONTINUOUS
 62
     7
100
AcDbLine
 10
124.9500931752352
 20
212.5521463276338
 30
0.0
 11
124.9500931752352
 21
182.3301465056004
 31
0.0
  0
LINE
  5
94
330
1F
100
AcDbEntity
  8
0
  6
CONTINUOUS
 62
     7
100
AcDbLine
 10
53.85743095394302
 20
239.9500931752352
 30
0.0
 11
59.1561969570463
 21
239.9500931752352
 31
0.0
  0
LWPOLYLINE
  5
95
330
1F
100
AcDbEntity
  8
0
  6
CONTINUOUS
 62
     7
100
AcDbPolyline
 90
        8
 70
     0
 43
0.0
 10
-57.53389242797765
 20
268.9500931752352
 10
-57.54502729204475
 20
269.0752039403697
 10
-57.58083935061819
 20
269.2004835582342
 10
-57.63549873487744
 20
269.313232964859
 10
-57.70810297821888
 20
269.418928543417
 10
-57.80323133811221
 20
269.5232331481455
 10
-57.91250555523925
 20
269.6165471926035
 42
0.1586238442001386
 10
-58.96029628922894
 20
269.9500931752352
210
0.0
220
0.0
230
-1.0
  0
LINE
  5
96
330
1F
100
AcDbEntity
  8
0
  6
CONTINUOUS
 62
     7
100
AcDbLine
 10
53.27754122234152
 20
269.9500931752352
 30
0.0
 11
53.87271914558167
 21
269.9500931752352
 31
0.0
  0
LINE
  5
97
330
1F
100
AcDbEntity
  8
0
  6
CONTINUOUS
 62
     7
100
AcDbLine
 10
124.9500931752352
 20
212.5521463276338
 30
0.0
 11
124.9500931752352
 21
182.3301465056004
 31
0.0
  0
LINE
  5
98
330
1F
100
AcDbEntity
  8
0
  6
CONTINUOUS
 62
     7
100
AcDbLine
 10
71.56416736622475
 20
239.9500931752352
 30
0.0
 11
71.30236133250199
 21
269.9500931752352
 31
0.0
  0
LINE
  5
99
330
1F
100
AcDbEntity
  8
0
  6
CONTINUOUS
 62
     7
100
AcDbLine
 10
57.53389242797765
 20
210.2775257223803
 30
0.0
 11
58.96029628922893
 21
210.0555298697984
 31
0.0
  0
LINE
  5
9A
330
1F
100
AcDbEntity
  8
0
  6
CONTINUOUS
 62
     7
100
AcDbLine
 10
54.90301568632509
 20
212.7634072292442
 30
0.0
 11
52.66217123184155
 21
210.5225627747608
 31
0.0
  0
LWPOLYLINE
  5
9B
330
1F
100
AcDbEntity
  8
0
  6
CONTINUOUS
 62
     7
100
AcDbPolyline
 90
       49
 70
     0
 43
0.0
 10
42.47267593004481
 20
192.5580302104173
 10
42.45190675363991
 20
192.5575970056099
 10
42.43115556356229
 20
192.5563003677543
 10
42.41047594749412
 20
192.5541447617001
 10
42.3899214931176
 20
192.5511346522969
 10
42.36892015162108
 20
192.5471450335966
 10
42.3480894667946
 20
192.5422569350601
 10
42.32748618589784
 20
192.5364849553334
 10
42.30716705619041
 20
192.5298436930623
 10
42.28771204863779
 20
192.5225602114496
 10
42.26855981655052
 20
192.5144679158395
 10
42.24975945044972
 20
192.5055887564573
 10
42.23136004085651
 20
192.4959446835284
 10
42.21286315190901
 20
192.4852283767903
 10
42.19482470936907
 20
192.4737207147707
 10
42.17729343150897
 20
192.4614542571147
 10
42.160318036601
 20
192.4484615634676
 10
42.1443708071073
 20
192.435149015859
 10
42.12897700910623
 20
192.4211734710141
 10
42.11417570077638
 20
192.4065718911262
 10
42.10000594029637
 20
192.3913812383885
 10
42.08609911256554
 20
192.3751465238203
 10
42.07288683589586
 20
192.3583168141485
 10
42.06040430511425
 20
192.340938960431
 10
42.04868671504767
 20
192.3230598137255
 10
42.03804531499684
 20
192.3052193694151
 10
42.02814559330122
 20
192.2869365045605
 10
42.0190121704951
 20
192.2682590256356
 10
42.01066966711279
 20
192.2492347391143
 10
42.00292085895435
 20
192.2293123016955
 10
41.99602437938054
 20
192.2090583233279
 10
41.98999792954181
 20
192.1885286626431
 10
41.98485921058867
 20
192.1677791782724
 10
41.98072317195263
 20
192.1474224078943
 10
41.97743342719712
 20
192.1268936659125
 10
41.97499738300107
 20
192.1062462119618
 10
41.97342244604341
 20
192.0855333056772
 10
41.97270500930632
 20
192.0641694230839
 10
41.97290156845479
 20
192.0427748201226
 10
41.97401033555555
 20
192.0214080630597
 10
41.97602952267531
 20
192.0001277181614
 10
41.97888520739035
 20
191.9794220848176
 10
41.98260704770873
 20
191.9588358860096
 10
41.98718417485971
 20
191.9384228120957
 10
41.99260572007258
 20
191.918236553434
 10
41.99906654739066
 20
191.897712909218
 10
42.00641121154663
 20
191.8774674672075
 10
42.01461813083732
 20
191.8575559505591
 10
42.02366572355962
 20
191.8380340824296
  0
LWPOLYLINE
  5
9C
330
1F
100
AcDbEntity
  8
0
  6
CONTINUOUS
 62
     7
100
AcDbPolyline
 90
       37
 70
     0
 43
0.0
 10
42.00736511124733
 20
203.2777709532278
 10
42.00596231984709
 20
203.2748373392294
 10
41.99475260929781
 20
203.2493811977321
 10
41.98496101250058
 20
203.2232772980214
 10
41.97662202745342
 20
203.1965866309135
 10
41.96966922868214
 20
203.1689162233566
 10
41.96427660095154
 20
203.1406999223302
 10
41.96049159392012
 20
203.1120056787333
 10
41.95826314487467
 20
203.0805321081671
 10
41.95802980610635
 20
203.0485793819596
 10
41.95986932500888
 20
203.0162530172551
 10
41.96274996578779
 20
202.9911573827289
 10
41.96695605215617
 20
202.9658848854997
 10
41.97253063725523
 20
202.9405056511242
 10
41.97951677422623
 20
202.9150898051591
 10
41.98751172132781
 20
202.8909430870972
 10
41.99688211276841
 20
202.8668311602019
 10
42.00766307764721
 20
202.8428455961908
 10
42.01695158827341
 20
202.8245138063708
 10
42.02713593785929
 20
202.8063088306192
 10
42.03822285832365
 20
202.7882921132124
 10
42.05021908158528
 20
202.770525098427
 10
42.06208765545563
 20
202.7544199021048
 10
42.07475985156444
 20
202.7385885494852
 10
42.08822420220157
 20
202.7230957803145
 10
42.09909607798789
 20
202.7114662864198
 10
42.11044376188275
 20
202.7000751603149
 10
42.12225066219469
 20
202.6889573615642
 10
42.13450018723233
 20
202.6781478497318
 10
42.1469193284969
 20
202.6678846722119
 10
42.1597602615918
 20
202.6579494488968
 10
42.1729929168899
 20
202.6483766625892
 10
42.1865872247641
 20
202.6392007960918
 10
42.20101682749647
 20
202.6301493097538
 10
42.21581245571716
 20
202.6215541426999
 10
42.23092523922379
 20
202.6134474926535
 10
42.24630630781398
 20
202.605861557338
  0
LWPOLYLINE
  5
9D
330
1F
100
AcDbEntity
  8
0
  6
CONTINUOUS
 62
     7
100
AcDbPolyline
 90
       35
 70
     0
 43
0.0
 10
-42.00736511124733
 20
191.8382894676067
 10
-42.00596231984711
 20
191.8412230816051
 10
-41.99260042911244
 20
191.8720548769287
 10
-41.98130207469283
 20
191.9038643166408
 10
-41.97213759304787
 20
191.9365410247406
 10
-41.9651773206371
 20
191.9699746252276
 10
-41.96049159392012
 20
192.0040547421012
 10
-41.95844966589413
 20
192.0312964610656
 10
-41.95789973482574
 20
192.0589738366816
 10
-41.95889856472574
 20
192.0870032989816
 10
-41.96150291960499
 20
192.1153012779984
 10
-41.96576956347428
 20
192.1437842037646
 10
-41.97175526034442
 20
192.1723685063127
 10
-41.97951677422623
 20
192.2009706156754
 10
-41.98637006938162
 20
192.2218916552409
 10
-41.99427694168094
 20
192.2428455509218
 10
-42.0032546517313
 20
192.2637588013281
 10
-42.0133204601398
 20
192.2845579050698
 10
-42.02449162751356
 20
192.305169360757
 10
-42.03678541445968
 20
192.3255196669995
 10
-42.05021908158528
 20
192.3455353224075
 10
-42.06221336428037
 20
192.3617936305451
 10
-42.07506114896135
 20
192.3778053343809
 10
-42.08873807961263
 20
192.3934967571347
 10
-42.10321980021861
 20
192.4087942220264
 10
-42.1184819547637
 20
192.4236240522758
 10
-42.13450018723233
 20
192.4379125711027
 10
-42.14710089299988
 20
192.4483099681128
 10
-42.16017290671337
 20
192.4583857797131
 10
-42.17367701144342
 20
192.4681062828284
 10
-42.18757399026066
 20
192.4774377543834
 10
-42.20182462623571
 20
192.486346471303
 10
-42.21638970243919
 20
192.4947987105119
 10
-42.23123000194174
 20
192.5027607489348
 10
-42.24630630781398
 20
192.5101988634966
210
0.0
220
0.0
230
-1.0
  0
LWPOLYLINE
  5
9E
330
1F
100
AcDbEntity
  8
0
  6
CONTINUOUS
 62
     7
100
AcDbPolyline
 90
       49
 70
     0
 43
0.0
 10
42.02366572355962
 20
203.2780263384049
 10
42.01491678017194
 20
203.2591860678443
 10
42.00695106851823
 20
203.2399820587252
 10
41.9997881577567
 20
203.2204643940854
 10
41.99344761704555
 20
203.2006831569626
 10
41.98779000834936
 20
203.1800696752439
 10
41.98301427631617
 20
203.1592141244797
 10
41.97913227936703
 20
203.1381738842111
 10
41.97615587592301
 20
203.1170063339791
 10
41.97413634736083
 20
203.0963321623679
 10
41.97297630684637
 20
203.075574009513
 10
41.97267764129535
 20
203.0547856136553
 10
41.9732422376235
 20
203.0340207130361
 10
41.97472675157174
 20
203.0126965303309
 10
41.97712355960043
 20
202.9914358314892
 10
41.98042485701639
 20
202.9702966867217
 10
41.9846228391265
 20
202.949337166239
 10
41.98956042392153
 20
202.9291600147397
 10
41.99533683602853
 20
202.9091881102419
 10
42.00193606727014
 20
202.8894727848028
 10
42.009342109469
 20
202.8700653704799
 10
42.01780131884689
 20
202.8504347083258
 10
42.02710036690026
 20
202.8311659188489
 10
42.03721266715414
 20
202.8123112129954
 10
42.04811163313347
 20
202.7939228017114
 10
42.05944967222565
 20
202.7765172440851
 10
42.07151131746011
 20
202.7595830183334
 10
42.08426447157083
 20
202.7431632633223
 10
42.09767703729179
 20
202.7273011179183
 10
42.11215729271016
 20
202.7115769127508
 10
42.12731026278944
 20
202.6964721671607
 10
42.14309357821418
 20
202.6820273478826
 10
42.15946486966888
 20
202.6682829216514
 10
42.17592532572074
 20
202.6556111522329
 10
42.19291259662479
 20
202.643623670206
 10
42.21038211490951
 20
202.6323505590288
 10
42.22828931310342
 20
202.621821902159
 10
42.24715837276859
 20
202.6117768226321
 10
42.26645719340763
 20
202.6025389656285
 10
42.28613239895983
 20
202.5941324935546
 10
42.30613061336445
 20
202.586581568817
 10
42.32598358963369
 20
202.5800338285356
 10
42.34611051902724
 20
202.5743166473194
 10
42.36645838709438
 20
202.5694438948535
 10
42.38697417938434
 20
202.5654294408231
 10
42.40825050213154
 20
202.5621999898822
 10
42.42966593973904
 20
202.5598868734513
 10
42.45116093483431
 20
202.5584952331049
 10
42.4726759300448
 20
202.5580302104173
  0
LWPOLYLINE
  5
9F
330
1F
100
AcDbEntity
  8
0
  6
CONTINUOUS
 62
     7
100
AcDbPolyline
 90
        8
 70
     0
 43
0.0
 10
61.0888566145487
 20
269.9500931752352
 42
0.2189479471375633
 10
60.06835844290398
 20
269.4965542727487
 10
59.99632692922785
 20
269.3967951079603
 10
59.94409939127221
 20
269.3017585790263
 10
59.90599195640694
 20
269.2069598249939
 10
59.87945671082723
 20
269.1060612511582
 10
59.86576151748496
 20
268.9892984986354
 10
59.8651319620996
 20
268.9500931752352
  0
LINE
  5
A0
330
1F
100
AcDbEntity
  8
0
  6
CONTINUOUS
 62
     7
100
AcDbLine
 10
38.69763866749808
 20
269.9500931752352
 30
0.0
 11
71.30236133250193
 21
269.9500931752352
 31
0.0
  0
LINE
  5
A1
330
1F
100
AcDbEntity
  8
0
  6
CONTINUOUS
 62
     7
100
AcDbLine
 10
38.69763866749808
 20
269.9500931752352
 30
0.0
 11
71.30236133250193
 21
269.9500931752352
 31
0.0
  0
LINE
  5
A2
330
1F
100
AcDbEntity
  8
0
  6
CONTINUOUS
 62
     7
100
AcDbLine
 10
60.12981197600365
 20
212.0952081584939
 30
0.0
 11
57.53389242797786
 21
210.2775257223805
 31
0.0
  0
LINE
  5
A3
330
1F
100
AcDbEntity
  8
0
  6
CONTINUOUS
 62
     7
100
AcDbLine
 10
94.95009317523483
 20
182.0683404718776
 30
0.0
 11
94.95009317523521
 21
212.8190675425737
 31
0.0
  0
LINE
  5
A4
330
1F
100
AcDbEntity
  8
0
  6
CONTINUOUS
 62
     7
100
AcDbLine
 10
53.27754122234152
 20
269.9500931752352
 30
0.0
 11
38.6976386674981
 21
269.9500931752352
 31
0.0
  0
LINE
  5
A5
330
1F
100
AcDbEntity
  8
0
  6
CONTINUOUS
 62
     7
100
AcDbLine
 10
38.6976386674981
 20
269.9500931752352
 30
0.0
 11
71.30236133250195
 21
269.9500931752352
 31
0.0
  0
LINE
  5
A6
330
1F
100
AcDbEntity
  8
0
  6
CONTINUOUS
 62
     7
100
AcDbLine
 10
38.69763866749808
 20
269.9500931752352
 30
0.0
 11
71.30236133250193
 21
269.9500931752352
 31
0.0
  0
LINE
  5
A7
330
1F
100
AcDbEntity
  8
0
  6
CONTINUOUS
 62
     7
100
AcDbLine
 10
124.9500931752352
 20
212.5521463276338
 30
0.0
 11
124.9500931752352
 21
182.3301465056004
 31
0.0
  0
LINE
  5
A8
330
1F
100
AcDbEntity
  8
0
  6
CONTINUOUS
 62
     7
100
AcDbLine
 10
60.12981197600364
 20
212.0952081584939
 30
0.0
 11
57.53389242797786
 21
210.2775257223805
 31
0.0
  0
ARC
  5
A9
330
1F
100
AcDbEntity
  8
0
  6
CONTINUOUS
 62
     7
100
AcDbCircle
 10
42.59583701191078
 20
200.5580302104173
 30
0.0
 40
2.000000000000003
100
AcDbArc
 50
344.8783346850906
 51
90.0
  0
LWPOLYLINE
  5
AA
330
1F
100
AcDbEntity
  8
0
  6
CONTINUOUS
 62
     7
100
AcDbPolyline
 90
       10
 70
     0
 43
0.0
 10
53.5444624372814
 20
239.9500931752352
 42
0.1658740409869403
 10
54.53378011678536
 20
240.253113195153
 10
54.62785203216236
 20
240.334377816647
 10
54.71276955602705
 20
240.4272419829028
 10
54.78169672148497
 20
240.5249542680229
 10
54.83060707207457
 20
240.6167353625786
 10
54.86828978113684
 20
240.7154200131846
 10
54.89348111482725
 20
240.8233971860784
 10
54.90279360696615
 20
240.9244820497816
 10
54.90301568632503
 20
240.9500931752352
  0
LINE
  5
AB
330
1F
100
AcDbEntity
  8
0
  6
CONTINUOUS
 62
     7
100
AcDbLine
 10
38.6976386674981
 20
269.9500931752352
 30
0.0
 11
71.30236133250195
 21
269.9500931752352
 31
0.0
  0
ARC
  5
AC
330
1F
100
AcDbEntity
  8
0
  6
CONTINUOUS
 62
     7
100
AcDbCircle
 10
-56.30236133250198
 20
197.3301465056004
 30
0.0
 40
13.0
210
0.0
220
0.0
230
-1.0
100
AcDbArc
 50
101.7976869889404
 51
280.7716673647701
  0
LINE
  5
AD
330
1F
100
AcDbEntity
  8
0
  6
CONTINUOUS
 62
     7
100
AcDbLine
 10
94.95009317523483
 20
182.0683404718776
 30
0.0
 11
94.95009317523521
 21
212.8190675425737
 31
0.0
  0
LINE
  5
AE
330
1F
100
AcDbEntity
  8
0
  6
CONTINUOUS
 62
     7
100
AcDbLine
 10
124.9500931752352
 20
212.5521463276338
 30
0.0
 11
124.9500931752352
 21
182.3301465056004
 31
0.0
  0
ARC
  5
AF
330
1F
100
AcDbEntity
  8
0
  6
CONTINUOUS
 62
     7
100
AcDbCircle
 10
-53.69763866749802
 20
197.5580302104173
 30
0.0
 40
13.0
210
0.0
220
0.0
230
-1.0
100
AcDbArc
 50
26.10386213352829
 51
78.02606778712314
  0
LINE
  5
B0
330
1F
100
AcDbEntity
  8
0
  6
CONTINUOUS
 62
     7
100
AcDbLine
 10
94.95009317523483
 20
182.0683404718776
 30
0.0
 11
94.95009317523521
 21
212.8190675425737
 31
0.0
  0
LINE
  5
B1
330
1F
100
AcDbEntity
  8
0
  6
CONTINUOUS
 62
     7
100
AcDbLine
 10
60.12981197600351
 20
212.095208158494
 30
0.0
 11
61.35404138924424
 21
211.7316482333817
 31
0.0
  0
LINE
  5
B2
330
1F
100
AcDbEntity
  8
0
  6
CONTINUOUS
 62
     7
100
AcDbLine
 10
53.85743095394303
 20
239.9500931752352
 30
0.0
 11
71.56416736622471
 21
239.9500931752352
 31
0.0
  0
LINE
  5
B3
330
1F
100
AcDbEntity
  8
0
  6
CONTINUOUS
 62
     7
100
AcDbLine
 10
94.95009317523483
 20
182.0683404718776
 30
0.0
 11
94.95009317523521
 21
212.8190675425737
 31
0.0
  0
LINE
  5
B4
330
1F
100
AcDbEntity
  8
0
  6
CONTINUOUS
 62
     7
100
AcDbLine
 10
54.90301568632501
 20
212.7634072292443
 30
0.0
 11
52.66217123184155
 21
210.5225627747608
 31
0.0
  0
ARC
  5
B5
330
1F
100
AcDbEntity
  8
0
  6
CONTINUOUS
 62
     7
100
AcDbCircle
 10
42.59583701191078
 20
194.5580302104173
 30
0.0
 40
2.000000000000002
100
AcDbArc
 50
270.0
 51
15.12166531490914
  0
LINE
  5
B6
330
1F
100
AcDbEntity
  8
0
  6
CONTINUOUS
 62
     7
100
AcDbLine
 10
124.9500931752352
 20
212.5521463276338
 30
0.0
 11
124.9500931752352
 21
182.3301465056004
 31
0.0
  0
LINE
  5
B7
330
1F
100
AcDbEntity
  8
0
  6
CONTINUOUS
 62
     7
100
AcDbLine
 10
60.12981197600364
 20
212.0952081584939
 30
0.0
 11
57.53389242797786
 21
210.2775257223805
 31
0.0
  0
LINE
  5
B8
330
1F
100
AcDbEntity
  8
0
  6
CONTINUOUS
 62
     7
100
AcDbLine
 10
54.90301568632509
 20
212.7634072292442
 30
0.0
 11
52.66217123184155
 21
210.5225627747608
 31
0.0
  0
LINE
  5
B9
330
1F
100
AcDbEntity
  8
0
  6
CONTINUOUS
 62
     7
100
AcDbLine
 10
94.95009317523521
 20
182.0683404718776
 30
0.0
 11
124.9500931752352
 21
182.3301465056004
 31
0.0
  0
ARC
  5
BA
330
1F
100
AcDbEntity
  8
0
  6
CONTINUOUS
 62
     7
100
AcDbCircle
 10
56.30236133250198
 20
197.3301465056004
 30
0.0
 40
15.26180603372274
100
AcDbArc
 50
260.0859844247077
 51
70.6704287877809
  0
LINE
  5
BB
330
1F
100
AcDbEntity
  8
0
  6
CONTINUOUS
 62
     7
100
AcDbLine
 10
53.85743095394302
 20
239.9500931752352
 30
0.0
 11
71.56416736622472
 21
239.9500931752352
 31
0.0
  0
LINE
  5
BC
330
1F
100
AcDbEntity
  8
0
  6
CONTINUOUS
 62
     7
100
AcDbLine
 10
38.69763866749808
 20
269.9500931752352
 30
0.0
 11
71.30236133250193
 21
269.9500931752352
 31
0.0
  0
LINE
  5
BD
330
1F
100
AcDbEntity
  8
0
  6
CONTINUOUS
 62
     7
100
AcDbLine
 10
53.85743095394303
 20
239.9500931752352
 30
0.0
 11
71.56416736622471
 21
239.9500931752352
 31
0.0
  0
LINE
  5
BE
330
1F
100
AcDbEntity
  8
0
  6
CONTINUOUS
 62
     7
100
AcDbLine
 10
54.90301568632509
 20
212.7634072292442
 30
0.0
 11
52.66217123184155
 21
210.5225627747608
 31
0.0
  0
LINE
  5
BF
330
1F
100
AcDbEntity
  8
0
  6
CONTINUOUS
 62
     7
100
AcDbLine
 10
42.45972003727913
 20
202.5580302104173
 30
0.0
 11
42.24630630781398
 21
202.605861557338
 31
0.0
  0
LINE
  5
C0
330
1F
100
AcDbEntity
  8
0
  6
CONTINUOUS
 62
     7
100
AcDbLine
 10
124.9500931752352
 20
212.5521463276338
 30
0.0
 11
124.9500931752352
 21
182.3301465056004
 31
0.0
  0
LINE
  5
C1
330
1F
100
AcDbEntity
  8
0
  6
CONTINUOUS
 62
     7
100
AcDbLine
 10
124.9500931752352
 20
212.5580302104173
 30
0.0
 11
94.95009317523517
 21
212.81983624414
 31
0.0
  0
LINE
  5
C2
330
1F
100
AcDbEntity
  8
0
  6
CONTINUOUS
 62
     7
100
AcDbLine
 10
52.83828639902114
 20
210.6986779419404
 30
0.0
 11
52.66217123184155
 21
210.5225627747608
 31
0.0
  0
LINE
  5
C3
330
1F
100
AcDbEntity
  8
0
  6
CONTINUOUS
 62
     7
100
AcDbLine
 10
94.95009317523521
 20
182.0683404718776
 30
0.0
 11
94.95009317523521
 21
211.7316482333817
 31
0.0
  0
LINE
  5
C4
330
1F
100
AcDbEntity
  8
0
  6
CONTINUOUS
 62
   253
100
AcDbLine
 10
42.02366572355962
 20
191.8380340824296
 30
0.0
 11
42.00736511124733
 21
191.8382894676067
 31
0.0
  0
LINE
  5
C5
330
1F
100
AcDbEntity
  8
0
  6
CONTINUOUS
 62
     7
100
AcDbLine
 10
54.90301568632501
 20
212.7634072292443
 30
0.0
 11
52.66217123184155
 21
210.5225627747608
 31
0.0
  0
ARC
  5
C6
330
1F
100
AcDbEntity
  8
0
  6
CONTINUOUS
 62
     7
100
AcDbCircle
 10
-53.69763866749802
 20
197.5580302104173
 30
0.0
 40
12.99999999999998
210
0.0
220
0.0
230
-1.0
100
AcDbArc
 50
269.2283326352299
 51
333.8961378664717
  0
ENDSEC
  0
SECTION
  2
OBJECTS
  0
DICTIONARY
  5
C
330
0
100
AcDbDictionary
  3
ACAD_GROUP
350
D
  3
ACAD_LAYOUT
350
1A
  3
ACAD_MATERIAL
350
43
  3
ACAD_MLEADERSTYLE
350
6B
  3
ACAD_MLINESTYLE
350
17
  3
ACAD_PLOTSETTINGS
350
19
  3
ACAD_SCALELIST
350
47
  3
ACAD_VISUALSTYLE
350
2A
  3
ACDBHEADERROUNDTRIPXREC
350
C7
  3
ACDBVARIABLEDICTIONARY
350
E8
  0
DICTIONARY
  5
EF
330
8
100
AcDbDictionary
280
     1
  3
ACAD_XREC_ROUNDTRIP
360
F0
  0
DICTIONARY
  5
D
102
{ACAD_REACTORS
330
C
102
}
330
C
100
AcDbDictionary
  0
DICTIONARY
  5
1A
102
{ACAD_REACTORS
330
C
102
}
330
C
100
AcDbDictionary
  0
DICTIONARY
  5
43
102
{ACAD_REACTORS
330
C
102
}
330
C
100
AcDbDictionary
  3
BYBLOCK
350
45
  3
BYLAYER
350
44
  3
GLOBAL
350
46
  0
DICTIONARY
  5
6B
102
{ACAD_REACTORS
330
C
102
}
330
C
100
AcDbDictionary
  3
STANDARD
350
6C
  0
DICTIONARY
  5
17
102
{ACAD_REACTORS
330
C
102
}
330
C
100
AcDbDictionary
  3
STANDARD
350
18
  0
DICTIONARY
  5
19
102
{ACAD_REACTORS
330
C
102
}
330
C
100
AcDbDictionary
  0
DICTIONARY
  5
47
102
{ACAD_REACTORS
330
C
102
}
330
C
100
AcDbDictionary
  3
A0
350
48
  3
A1
350
49
  3
A2
350
4A
  3
A3
350
4B
  3
A4
350
4C
  3
A5
350
4D
  3
A6
350
4E
  3
A7
350
4F
  3
A8
350
50
  3
A9
350
51
  3
B0
350
52
  3
B1
350
53
  3
B2
350
54
  3
B3
350
55
  3
B4
350
56
  3
B5
350
57
  3
B6
350
58
  3
B7
350
59
  3
B8
350
5A
  3
B9
350
5B
  3
C0
350
5C
  3
C1
350
5D
  3
C2
350
5E
  3
C3
350
5F
  3
C4
350
60
  3
C5
350
61
  3
C6
350
62
  3
C7
350
63
  3
C8
350
64
  3
C9
350
65
  3
D0
350
66
  3
D1
350
67
  3
D2
350
68
  0
DICTIONARY
  5
2A
102
{ACAD_REACTORS
330
C
102
}
330
C
100
AcDbDictionary
  3
2DWIREFRAME
350
2F
  3
BASIC
350
32
  3
BRIGHTEN
350
36
  3
COLORCHANGE
350
3A
  3
CONCEPTUAL
350
34
  3
DIM
350
35
  3
EDGECOLOROFF
350
3D
  3
FACEPATTERN
350
39
  3
FLAT
350
2B
  3
FLATWITHEDGES
350
2C
  3
GOURAUD
350
2D
  3
GOURAUDWITHEDGES
350
2E
  3
HIDDEN
350
31
  3
JITTEROFF
350
3B
  3
LINEPATTERN
350
38
  3
OVERHANGOFF
350
3C
  3
REALISTIC
350
33
  3
SHADED
350
42
  3
SHADED_WITH_EDGES
350
41
  3
SHADES_OF_GRAY
350
3E
  3
SKETCHY
350
3F
  3
THICKEN
350
37
  3
WIREFRAME
350
30
  3
X-RAY
350
40
  0
DICTIONARY
  5
C7
102
{ACAD_REACTORS
330
C
102
}
330
C
100
AcDbDictionary
  3
CEPSNID
350
D1
  3
CEPSNTYPE
350
D0
  3
DIMSTYLEDATA
350
E7
  3
FINGERPRINTGUID
350
D2
  3
HYPERLINKBASE
350
CA
  3
INSUNITS
350
CF
  3
LAYOUTDICT
350
CC
  3
LWETCUNION
350
CE
  3
PLOTSETDICT
350
CD
  3
PSVPSCALE
350
D4
  3
PUCSBASE
350
D7
  3
PUCSORGBACK
350
DD
  3
PUCSORGBOTTOM
350
D9
  3
PUCSORGFRONT
350
DC
  3
PUCSORGLEFT
350
DA
  3
PUCSORGRIGHT
350
DB
  3
PUCSORGTOP
350
D8
  3
PUCSORTHOREF
350
D5
  3
PUCSORTHOVIEW
350
D6
  3
STYLESHEET
350
CB
  3
TSTACKALIGN
350
C8
  3
TSTACKSIZE
350
C9
  3
UCSBASE
350
E0
  3
UCSORGBACK
350
E6
  3
UCSORGBOTTOM
350
E2
  3
UCSORGFRONT
350
E5
  3
UCSORGLEFT
350
E3
  3
UCSORGRIGHT
350
E4
  3
UCSORGTOP
350
E1
  3
UCSORTHOREF
350
DE
  3
UCSORTHOVIEW
350
DF
  3
VERSIONGUID
350
D3
  0
DICTIONARY
  5
E8
102
{ACAD_REACTORS
330
C
102
}
330
C
100
AcDbDictionary
  3
CANNOSCALE
350
F1
  3
CMLEADERSTYLE
350
EA
  3
CTABLESTYLE
350
E9
  3
DIMASSOC
350
ED
  3
HIDETEXT
350
EE
  3
MSLTSCALE
350
F2
  0
XRECORD
  5
F0
102
{ACAD_REACTORS
330
EF
102
}
330
EF
100
AcDbXrecord
102
VTR_0.000_0.000_1.000_1.000_VISUALSTYLE
340
2F
102
VTR_0.000_0.000_1.000_1.000_GRIDDISPLAY
 70
     3
102
VTR_0.000_0.000_1.000_1.000_GRIDMAJOR
 70
     5
102
VTR_0.000_0.000_1.000_1.000_DEFAULTLIGHTING
280
     1
102
VTR_0.000_0.000_1.000_1.000_DEFAULTLIGHTINGTYPE
 70
     1
102
VTR_0.000_0.000_1.000_1.000_BRIGHTNESS
141
0.0
102
VTR_0.000_0.000_1.000_1.000_CONTRAST
142
0.0
  0
MATERIAL
  5
45
102
{ACAD_REACTORS
330
43
102
}
102
{ACAD_XDICTIONARY
360
F5
102
}
330
43
100
AcDbMaterial
  1
BYBLOCK
  0
MATERIAL
  5
44
102
{ACAD_REACTORS
330
43
102
}
102
{ACAD_XDICTIONARY
360
F3
102
}
330
43
100
AcDbMaterial
  1
BYLAYER
  0
MATERIAL
  5
46
102
{ACAD_REACTORS
330
43
102
}
102
{ACAD_XDICTIONARY
360
F7
102
}
330
43
100
AcDbMaterial
  1
GLOBAL
  0
ACAD_PROXY_OBJECT
  5
6C
102
{ACAD_REACTORS
330
6B
102
}
330
6B
100
AcDbProxyObject
 90
      499
 91
      505
 93
      610
310
40901902A4063FBFFFFFE056BD1B81E855B9FC0AD7A3703D0AD73F4214DD185B99185C9900AD7A3703D0AC73F90141901A02B5E8DC0F42B1CFC02B5E8DC0F42B1CFE5764000000000000300FC0
340
14
340
0
340
11
340
0
 94
        0
1001
ACAD_MLEADERVER
1070
     2
  0
MLINESTYLE
  5
18
102
{ACAD_REACTORS
330
17
102
}
330
17
100
AcDbMlineStyle
  2
Standard
 70
     0
  3

 62
   256
 51
90.0
 52
90.0
 71
     2
 49
0.5
 62
   256
  6
BYLAYER
 49
-0.5
 62
   256
  6
BYLAYER
  0
ACAD_PROXY_OBJECT
  5
48
102
{ACAD_REACTORS
330
47
102
}
330
47
100
AcDbProxyObject
 90
      499
 91
      503
 93
       41
310
903313A31580
  0
ACAD_PROXY_OBJECT
  5
49
102
{ACAD_REACTORS
330
47
102
}
330
47
100
AcDbProxyObject
 90
      499
 91
      503
 93
      105
310
903313A324000000000000004000
  0
ACAD_PROXY_OBJECT
  5
4A
102
{ACAD_REACTORS
330
47
102
}
330
47
100
AcDbProxyObject
 90
      499
 91
      503
 93
      105
310
903313A344000000000000104000
  0
ACAD_PROXY_OBJECT
  5
4B
102
{ACAD_REACTORS
330
47
102
}
330
47
100
AcDbProxyObject
 90
      499
 91
      503
 93
      105
310
903313A354000000000000144000
  0
ACAD_PROXY_OBJECT
  5
4C
102
{ACAD_REACTORS
330
47
102
}
330
47
100
AcDbProxyObject
 90
      499
 91
      503
 93
      105
310
903313A384000000000000204000
  0
ACAD_PROXY_OBJECT
  5
4D
102
{ACAD_REACTORS
330
47
102
}
330
47
100
AcDbProxyObject
 90
      499
 91
      503
 93
      113
310
904313A31304000000000000244000
  0
ACAD_PROXY_OBJECT
  5
4E
102
{ACAD_REACTORS
330
47
102
}
330
47
100
AcDbProxyObject
 90
      499
 91
      503
 93
      113
310
904313A31364000000000000304000
  0
ACAD_PROXY_OBJECT
  5
4F
102
{ACAD_REACTORS
330
47
102
}
330
47
100
AcDbProxyObject
 90
      499
 91
      503
 93
      113
310
904313A32304000000000000344000
  0
ACAD_PROXY_OBJECT
  5
50
102
{ACAD_REACTORS
330
47
102
}
330
47
100
AcDbProxyObject
 90
      499
 91
      503
 93
      113
310
904313A333040000000000003E4000
  0
ACAD_PROXY_OBJECT
  5
51
102
{ACAD_REACTORS
330
47
102
}
330
47
100
AcDbProxyObject
 90
      499
 91
      503
 93
      113
310
904313A34304000000000000444000
  0
ACAD_PROXY_OBJECT
  5
52
102
{ACAD_REACTORS
330
47
102
}
330
47
100
AcDbProxyObject
 90
      499
 91
      503
 93
      113
310
904313A35304000000000000494000
  0
ACAD_PROXY_OBJECT
  5
53
102
{ACAD_REACTORS
330
47
102
}
330
47
100
AcDbProxyObject
 90
      499
 91
      503
 93
      121
310
905313A3130304000000000000594000
  0
ACAD_PROXY_OBJECT
  5
54
102
{ACAD_REACTORS
330
47
102
}
330
47
100
AcDbProxyObject
 90
      499
 91
      503
 93
      105
310
903323A310000000000000010100
  0
ACAD_PROXY_OBJECT
  5
55
102
{ACAD_REACTORS
330
47
102
}
330
47
100
AcDbProxyObject
 90
      499
 91
      503
 93
      105
310
903343A310000000000000410100
  0
ACAD_PROXY_OBJECT
  5
56
102
{ACAD_REACTORS
330
47
102
}
330
47
100
AcDbProxyObject
 90
      499
 91
      503
 93
      105
310
903383A310000000000000810100
  0
ACAD_PROXY_OBJECT
  5
57
102
{ACAD_REACTORS
330
47
102
}
330
47
100
AcDbProxyObject
 90
      499
 91
      503
 93
      113
310
90431303A310000000000000910100
  0
ACAD_PROXY_OBJECT
  5
58
102
{ACAD_REACTORS
330
47
102
}
330
47
100
AcDbProxyObject
 90
      499
 91
      503
 93
      121
310
9053130303A310000000000001650100
  0
ACAD_PROXY_OBJECT
  5
59
102
{ACAD_REACTORS
330
47
102
}
330
47
100
AcDbProxyObject
 90
      499
 91
      503
 93
      257
310
90E312F31323822203D2031272D3022000000000000200FC000000000000284000
  0
ACAD_PROXY_OBJECT
  5
5A
102
{ACAD_REACTORS
330
47
102
}
330
47
100
AcDbProxyObject
 90
      499
 91
      503
 93
      249
310
90D312F363422203D2031272D3022000000000000240FC000000000000284000
  0
ACAD_PROXY_OBJECT
  5
5B
102
{ACAD_REACTORS
330
47
102
}
330
47
100
AcDbProxyObject
 90
      499
 91
      503
 93
      249
310
90D312F333222203D2031272D3022000000000000280FC000000000000284000
  0
ACAD_PROXY_OBJECT
  5
5C
102
{ACAD_REACTORS
330
47
102
}
330
47
100
AcDbProxyObject
 90
      499
 91
      503
 93
      249
310
90D312F313622203D2031272D30220000000000002C0FC000000000000284000
  0
ACAD_PROXY_OBJECT
  5
5D
102
{ACAD_REACTORS
330
47
102
}
330
47
100
AcDbProxyObject
 90
      499
 91
      503
 93
      249
310
90D332F333222203D2031272D30220000000000002E0FC000000000000284000
  0
ACAD_PROXY_OBJECT
  5
5E
102
{ACAD_REACTORS
330
47
102
}
330
47
100
AcDbProxyObject
 90
      499
 91
      503
 93
      241
310
90C312F3822203D2031272D3022000000000000300FC000000000000284000
  0
ACAD_PROXY_OBJECT
  5
5F
102
{ACAD_REACTORS
330
47
102
}
330
47
100
AcDbProxyObject
 90
      499
 91
      503
 93
      249
310
90D332F313622203D2031272D3022000000000000320FC000000000000284000
  0
ACAD_PROXY_OBJECT
  5
60
102
{ACAD_REACTORS
330
47
102
}
330
47
100
AcDbProxyObject
 90
      499
 91
      503
 93
      241
310
90C312F3422203D2031272D3022000000000000340FC000000000000284000
  0
ACAD_PROXY_OBJECT
  5
61
102
{ACAD_REACTORS
330
47
102
}
330
47
100
AcDbProxyObject
 90
      499
 91
      503
 93
      241
310
90C332F3822203D2031272D3022000000000000360FC000000000000284000
  0
ACAD_PROXY_OBJECT
  5
62
102
{ACAD_REACTORS
330
47
102
}
330
47
100
AcDbProxyObject
 90
      499
 91
      503
 93
      241
310
90C312F3222203D2031272D3022000000000000380FC000000000000284000
  0
ACAD_PROXY_OBJECT
  5
63
102
{ACAD_REACTORS
330
47
102
}
330
47
100
AcDbProxyObject
 90
      499
 91
      503
 93
      241
310
90C332F3422203D2031272D30220000000000003A0FC000000000000284000
  0
ACAD_PROXY_OBJECT
  5
64
102
{ACAD_REACTORS
330
47
102
}
330
47
100
AcDbProxyObject
 90
      499
 91
      503
 93
      161
310
90A3122203D2031272D30224000000000000284000
  0
ACAD_PROXY_OBJECT
  5
65
102
{ACAD_REACTORS
330
47
102
}
330
47
100
AcDbProxyObject
 90
      499
 91
      503
 93
      257
310
90E312D312F3222203D2031272D30220000000000003E0FC000000000000284000
  0
ACAD_PROXY_OBJECT
  5
66
102
{ACAD_REACTORS
330
47
102
}
330
47
100
AcDbProxyObject
 90
      499
 91
      503
 93
      225
310
90A3322203D2031272D302200000000000002100000000000000284000
  0
ACAD_PROXY_OBJECT
  5
67
102
{ACAD_REACTORS
330
47
102
}
330
47
100
AcDbProxyObject
 90
      499
 91
      503
 93
      225
310
90A3622203D2031272D302200000000000006100000000000000284000
  0
ACAD_PROXY_OBJECT
  5
68
102
{ACAD_REACTORS
330
47
102
}
330
47
100
AcDbProxyObject
 90
      499
 91
      503
 93
      249
310
90D31272D3022203D2031272D30220000000000000A100000000000000284000
  0
ACAD_PROXY_OBJECT
  5
2F
102
{ACAD_REACTORS
330
2A
102
}
330
2A
100
AcDbProxyObject
 90
      499
 91
      501
 93
      436
310
42CC9915DA5C99599C985B595049028333333333333E33F0000000000000F90107901411070040501600405405064090741402480A0340
1001
ACAD
1000
AcDbSavedByObjectVersion
1070
     0
  0
ACAD_PROXY_OBJECT
  5
32
102
{ACAD_REACTORS
330
2A
102
}
330
2A
100
AcDbProxyObject
 90
      499
 91
      501
 93
      388
310
4150985CDA58D07406404333333333333E33F0000000000000F90107A41107004050150841D405064090741402480A0350
1001
ACAD
1000
AcDbSavedByObjectVersion
1070
     0
  0
ACAD_PROXY_OBJECT
  5
36
102
{ACAD_REACTORS
330
2A
102
}
330
2A
100
AcDbProxyObject
 90
      499
 91
      501
 93
      428
310
42109C9A59DA1D195B90C409028333333333333E33F0000000000000F9010790141107004050150841D405064090741402480A029950
1001
ACAD
1000
AcDbSavedByObjectVersion
1070
     0
  0
ACAD_PROXY_OBJECT
  5
3A
102
{ACAD_REACTORS
330
2A
102
}
330
2A
100
AcDbProxyObject
 90
      499
 91
      501
 93
      452
310
42D0DBDB1BDC90DA185B99D95104090240C333333333333E33F0000000000000F90108901411070040501508421405064090741402480A0350
1001
ACAD
1000
AcDbSavedByObjectVersion
1070
     0
  0
ACAD_PROXY_OBJECT
  5
34
102
{ACAD_REACTORS
330
2A
102
}
330
2A
100
AcDbProxyObject
 90
      499
 91
      501
 93
      500
310
4290DBDB98D95C1D1D585B10940D028333333333333E33F0000000000000F90107902409070040501000000000018199010841D405064090740C02480A0340
1001
ACAD
1000
AcDbSavedByObjectVersion
1070
     0
  0
ACAD_PROXY_OBJECT
  5
35
102
{ACAD_REACTORS
330
2A
102
}
330
2A
100
AcDbProxyObject
 90
      499
 91
      501
 93
      412
310
40D11A5B50B409028333333333333E33F0000000000000F9010790141107004050150841D405064090741402480A02677FFFFFD0
1001
ACAD
1000
AcDbSavedByObjectVersion
1070
     0
  0
ACAD_PROXY_OBJECT
  5
3D
102
{ACAD_REACTORS
330
2A
102
}
330
2A
100
AcDbProxyObject
 90
      499
 91
      501
 93
      452
310
43115919D950DBDB1BDC93D999916409028333333333333E33F0000000000000F9010790141107004050150841D405064090741402480A0350
1001
ACAD
1000
AcDbSavedByObjectVersion
1070
     0
  0
ACAD_PROXY_OBJECT
  5
39
102
{ACAD_REACTORS
330
2A
102
}
330
2A
100
AcDbProxyObject
 90
      499
 91
      501
 93
      444
310
42D19858D95C185D1D195C9B90F409028333333333333E33F0000000000000F9010790141107004050150841D405064090741402480A0350
1001
ACAD
1000
AcDbSavedByObjectVersion
1070
     0
  0
ACAD_PROXY_OBJECT
  5
2B
102
{ACAD_REACTORS
330
2A
102
}
330
2A
100
AcDbProxyObject
 90
      499
 91
      501
 93
      380
310
41119B185D240901404333333333333E33F0000000000000F9010740A907004050150841D405064090741402480A1B50
1001
ACAD
1000
AcDbSavedByObjectVersion
1070
     0
  0
ACAD_PROXY_OBJECT
  5
2C
102
{ACAD_REACTORS
330
2A
102
}
330
2A
100
AcDbProxyObject
 90
      499
 91
      501
 93
      468
310
43519B185D15DA5D1A115919D95CD0140901404333333333333E33F0000000000000F90107409019070040501600405405064090741402480A1B50
1001
ACAD
1000
AcDbSavedByObjectVersion
1070
     0
  0
ACAD_PROXY_OBJECT
  5
2D
102
{ACAD_REACTORS
330
2A
102
}
330
2A
100
AcDbProxyObject
 90
      499
 91
      501
 93
      404
310
41D1DBDD5C985D5910240902404333333333333E33F0000000000000F9010740A9070040501641D405064090741402480A1B50
1001
ACAD
1000
AcDbSavedByObjectVersion
1070
     0
  0
ACAD_PROXY_OBJECT
  5
2E
102
{ACAD_REACTORS
330
2A
102
}
330
2A
100
AcDbProxyObject
 90
      499
 91
      501
 93
      492
310
4411DBDD5C985D5915DA5D1A115919D95CD0340902404333333333333E33F0000000000000F90107409019070040501600405405064090741402480A1B50
1001
ACAD
1000
AcDbSavedByObjectVersion
1070
     0
  0
ACAD_PROXY_OBJECT
  5
31
102
{ACAD_REACTORS
330
2A
102
}
330
2A
100
AcDbProxyObject
 90
      499
 91
      501
 93
      476
310
41921A5919195B90640502408333333333333E33F0000000000000F901079024090700405020000000000001110200405405064090740C02480A0340
1001
ACAD
1000
AcDbSavedByObjectVersion
1070
     0
  0
ACAD_PROXY_OBJECT
  5
3B
102
{ACAD_REACTORS
330
2A
102
}
330
2A
100
AcDbProxyObject
 90
      499
 91
      501
 93
      428
310
42529A5D1D195C93D999914409028333333333333E33F0000000000000F9010790141107004050150A41D405064090741402480A0350
1001
ACAD
1000
AcDbSavedByObjectVersion
1070
     0
  0
ACAD_PROXY_OBJECT
  5
38
102
{ACAD_REACTORS
330
2A
102
}
330
2A
100
AcDbProxyObject
 90
      499
 91
      501
 93
      444
310
42D31A5B995C185D1D195C9B90E409028333333333333E33F0000000000000F9010790141107004050750841D405064090741402483A0350
1001
ACAD
1000
AcDbSavedByObjectVersion
1070
     0
  0
ACAD_PROXY_OBJECT
  5
3C
102
{ACAD_REACTORS
330
2A
102
}
330
2A
100
AcDbProxyObject
 90
      499
 91
      501
 93
      444
310
42D3DD995C9A185B99D3D999915409028333333333333E33F0000000000000F9010790141107004050150941D405064090741402480A0350
1001
ACAD
1000
AcDbSavedByObjectVersion
1070
     0
  0
ACAD_PROXY_OBJECT
  5
33
102
{ACAD_REACTORS
330
2A
102
}
330
2A
100
AcDbProxyObject
 90
      499
 91
      501
 93
      428
310
425499585B1A5CDD1A58D08409038333333333333E33F0000000000000F9010740A907004050150800405405064090740C02480A1B40
1001
ACAD
1000
AcDbSavedByObjectVersion
1070
     0
  0
ACAD_PROXY_OBJECT
  5
42
102
{ACAD_REACTORS
330
2A
102
}
330
2A
100
AcDbProxyObject
 90
      499
 91
      501
 93
      420
310
4194DA1859195911B40902404333333333333E33F0000000000000F9010740A41107004050150800405405064090840C02480A0B40
1001
ACAD
1000
AcDbSavedByObjectVersion
1070
     0
  0
ACAD_PROXY_OBJECT
  5
41
102
{ACAD_REACTORS
330
2A
102
}
330
2A
100
AcDbProxyObject
 90
      499
 91
      501
 93
      516
310
4454DA18591959081DDA5D1A08195919D95CD1A40902404333333333333E33F0000000000000F901074090142907004050250800405405064090740C02480A0B40
1001
ACAD
1000
AcDbSavedByObjectVersion
1070
     0
  0
ACAD_PROXY_OBJECT
  5
3E
102
{ACAD_REACTORS
330
2A
102
}
330
2A
100
AcDbProxyObject
 90
      499
 91
      501
 93
      532
310
4394DA1859195CC81BD98811DC985E5174090240C333333333333E33F0000000000000F901079024090741D01000000000000111010841D405064090740C02480A0340
1001
ACAD
1000
AcDbSavedByObjectVersion
1070
     0
  0
ACAD_PROXY_OBJECT
  5
3F
102
{ACAD_REACTORS
330
2A
102
}
330
2A
100
AcDbProxyObject
 90
      499
 91
      501
 93
      476
310
41D4DAD95D18DA1E51840502408333333333333E33F0000000000000F901079024090741D01000000000000111010B41D405064090741802480A0340
1001
ACAD
1000
AcDbSavedByObjectVersion
1070
     0
  0
ACAD_PROXY_OBJECT
  5
37
102
{ACAD_REACTORS
330
2A
102
}
330
2A
100
AcDbProxyObject
 90
      499
 91
      501
 93
      412
310
41D51A1A58DAD95B90D409028333333333333E33F0000000000000F9010790141107004050150C41D405064090741402480A0350
1001
ACAD
1000
AcDbSavedByObjectVersion
1070
     0
  0
ACAD_PROXY_OBJECT
  5
30
102
{ACAD_REACTORS
330
2A
102
}
330
2A
100
AcDbProxyObject
 90
      499
 91
      501
 93
      420
310
4255DA5C99599C985B595059028333333333333E33F0000000000000F90107901411070040501600405405064090740C02480A0340
1001
ACAD
1000
AcDbSavedByObjectVersion
1070
     0
  0
ACAD_PROXY_OBJECT
  5
40
102
{ACAD_REACTORS
330
2A
102
}
330
2A
100
AcDbProxyObject
 90
      499
 91
      501
 93
      404
310
41560B54985E51940902404000000000000E03F0000000000000F9010740501907004050150841D405064090740C02480A1B40
1001
ACAD
1000
AcDbSavedByObjectVersion
1070
     0
  0
XRECORD
  5
D1
102
{ACAD_REACTORS
330
C7
102
}
330
C7
100
AcDbXrecord
340
0
  0
XRECORD
  5
D0
102
{ACAD_REACTORS
330
C7
102
}
330
C7
100
AcDbXrecord
 90
        0
  0
XRECORD
  5
E7
102
{ACAD_REACTORS
330
C7
102
}
330
C7
100
AcDbXrecord
1000
DSTYLE
1002
{
1070
   179
 70
     2
1070
   171
 70
     2
1070
   143
 40
25.4
1070
   274
 70
     2
1070
    41
 40
3.0
1070
   141
 40
0.09
1070
    43
 40
0.38
1070
   278
 70
    46
1070
    44
 40
1.5
1070
    42
 40
0.0625
1070
   147
 40
1.5
1070
   272
 70
     4
1070
    73
 70
     1
1070
   172
 70
     0
1070
    74
 70
     1
1070
   283
 70
     1
1070
   340
340
6E
1070
   140
 40
3.0
1070
   284
 70
     0
1070
    78
 70
     0
1002
}
  0
XRECORD
  5
D2
102
{ACAD_REACTORS
330
C7
102
}
330
C7
100
AcDbXrecord
  1
{68E11D7C-A57A-4337-981F-3ADDE960B7AF}
  0
XRECORD
  5
CA
102
{ACAD_REACTORS
330
C7
102
}
330
C7
100
AcDbXrecord
  1

  0
XRECORD
  5
CF
102
{ACAD_REACTORS
330
C7
102
}
330
C7
100
AcDbXrecord
 90
        4
  0
XRECORD
  5
CC
102
{ACAD_REACTORS
330
C7
102
}
330
C7
100
AcDbXrecord
340
1A
  0
XRECORD
  5
CE
102
{ACAD_REACTORS
330
C7
102
}
330
C7
100
AcDbXrecord
 90
    10269
  0
XRECORD
  5
CD
102
{ACAD_REACTORS
330
C7
102
}
330
C7
100
AcDbXrecord
340
19
  0
XRECORD
  5
D4
102
{ACAD_REACTORS
330
C7
102
}
330
C7
100
AcDbXrecord
 40
0.0
  0
XRECORD
  5
D7
102
{ACAD_REACTORS
330
C7
102
}
330
C7
100
AcDbXrecord
340
0
  0
XRECORD
  5
DD
102
{ACAD_REACTORS
330
C7
102
}
330
C7
100
AcDbXrecord
 10
0.0
 20
0.0
 30
0.0
  0
XRECORD
  5
D9
102
{ACAD_REACTORS
330
C7
102
}
330
C7
100
AcDbXrecord
 10
0.0
 20
0.0
 30
0.0
  0
XRECORD
  5
DC
102
{ACAD_REACTORS
330
C7
102
}
330
C7
100
AcDbXrecord
 10
0.0
 20
0.0
 30
0.0
  0
XRECORD
  5
DA
102
{ACAD_REACTORS
330
C7
102
}
330
C7
100
AcDbXrecord
 10
0.0
 20
0.0
 30
0.0
  0
XRECORD
  5
DB
102
{ACAD_REACTORS
330
C7
102
}
330
C7
100
AcDbXrecord
 10
0.0
 20
0.0
 30
0.0
  0
XRECORD
  5
D8
102
{ACAD_REACTORS
330
C7
102
}
330
C7
100
AcDbXrecord
 10
0.0
 20
0.0
 30
0.0
  0
XRECORD
  5
D5
102
{ACAD_REACTORS
330
C7
102
}
330
C7
100
AcDbXrecord
340
0
  0
XRECORD
  5
D6
102
{ACAD_REACTORS
330
C7
102
}
330
C7
100
AcDbXrecord
 70
     0
  0
XRECORD
  5
CB
102
{ACAD_REACTORS
330
C7
102
}
330
C7
100
AcDbXrecord
  1

  0
XRECORD
  5
C8
102
{ACAD_REACTORS
330
C7
102
}
330
C7
100
AcDbXrecord
 90
        1
  0
XRECORD
  5
C9
102
{ACAD_REACTORS
330
C7
102
}
330
C7
100
AcDbXrecord
 90
       70
  0
XRECORD
  5
E0
102
{ACAD_REACTORS
330
C7
102
}
330
C7
100
AcDbXrecord
340
0
  0
XRECORD
  5
E6
102
{ACAD_REACTORS
330
C7
102
}
330
C7
100
AcDbXrecord
 10
0.0
 20
0.0
 30
0.0
  0
XRECORD
  5
E2
102
{ACAD_REACTORS
330
C7
102
}
330
C7
100
AcDbXrecord
 10
0.0
 20
0.0
 30
0.0
  0
XRECORD
  5
E5
102
{ACAD_REACTORS
330
C7
102
}
330
C7
100
AcDbXrecord
 10
0.0
 20
0.0
 30
0.0
  0
XRECORD
  5
E3
102
{ACAD_REACTORS
330
C7
102
}
330
C7
100
AcDbXrecord
 10
0.0
 20
0.0
 30
0.0
  0
XRECORD
  5
E4
102
{ACAD_REACTORS
330
C7
102
}
330
C7
100
AcDbXrecord
 10
0.0
 20
0.0
 30
0.0
  0
XRECORD
  5
E1
102
{ACAD_REACTORS
330
C7
102
}
330
C7
100
AcDbXrecord
 10
0.0
 20
0.0
 30
0.0
  0
XRECORD
  5
DE
102
{ACAD_REACTORS
330
C7
102
}
330
C7
100
AcDbXrecord
340
0
  0
XRECORD
  5
DF
102
{ACAD_REACTORS
330
C7
102
}
330
C7
100
AcDbXrecord
 70
     0
  0
XRECORD
  5
D3
102
{ACAD_REACTORS
330
C7
102
}
330
C7
100
AcDbXrecord
  1
{FAEB1C32-E019-11D5-929B-00C0DF256EC4}
  0
DICTIONARYVAR
  5
F1
102
{ACAD_REACTORS
330
E8
102
}
330
E8
100
DictionaryVariables
280
     0
  1
1:1
  0
DICTIONARYVAR
  5
EA
102
{ACAD_REACTORS
330
E8
102
}
330
E8
100
DictionaryVariables
280
     0
  1
Standard
  0
DICTIONARYVAR
  5
E9
102
{ACAD_REACTORS
330
E8
102
}
330
E8
100
DictionaryVariables
280
     0
  1
Standard
  0
DICTIONARYVAR
  5
ED
102
{ACAD_REACTORS
330
E8
102
}
330
E8
100
DictionaryVariables
280
     0
  1
2
  0
DICTIONARYVAR
  5
EE
102
{ACAD_REACTORS
330
E8
102
}
330
E8
100
DictionaryVariables
280
     0
  1
1
  0
DICTIONARYVAR
  5
F2
102
{ACAD_REACTORS
330
E8
102
}
330
E8
100
DictionaryVariables
280
     0
  1
1
  0
DICTIONARY
  5
F5
330
45
100
AcDbDictionary
280
     1
  3
ACAD_XREC_ROUNDTRIP
360
F6
  0
DICTIONARY
  5
F3
330
44
100
AcDbDictionary
280
     1
  3
ACAD_XREC_ROUNDTRIP
360
F4
  0
DICTIONARY
  5
F7
330
46
100
AcDbDictionary
280
     1
  3
ACAD_XREC_ROUNDTRIP
360
F8
  0
XRECORD
  5
F6
102
{ACAD_REACTORS
330
F5
102
}
330
F5
100
AcDbXrecord
102
MATERIAL
148
0.0
149
0.0
149
0.0
 93
        0
 94
      127
282
     0
 72
     1
 77
     1
171
     1
175
     1
179
     1
273
     0
  0
XRECORD
  5
F4
102
{ACAD_REACTORS
330
F3
102
}
330
F3
100
AcDbXrecord
102
MATERIAL
148
0.0
149
0.0
149
0.0
 93
        0
 94
      127
282
     0
 72
     1
 77
     1
171
     1
175
     1
179
     1
273
     0
  0
XRECORD
  5
F8
102
{ACAD_REACTORS
330
F7
102
}
330
F7
100
AcDbXrecord
102
MATERIAL
148
0.0
149
0.0
149
0.0
 93
        0
 94
      127
282
     0
 72
     1
 77
     1
171
     1
175
     1
179
     1
273
     0
  0
ENDSEC
  0
EOF
