  0
SECTION
  2
HEADER
  9
$ACADVER
  1
AC1014
  9
$ACADMAINTVER
 70
     9
  9
$DWGCODEPAGE
  3
ANSI_932
  9
$INSBASE
 10
0.0
 20
0.0
 30
0.0
  9
$EXTMIN
 10
285.3959253463769
 20
82.75277150343292
 30
0.0
  9
$EXTMAX
 10
679.5
 20
347.5
 30
0.0
  9
$LIMMIN
 10
0.0
 20
0.0
  9
$LIMMAX
 10
12.0
 20
9.0
  9
$ORTHOMODE
 70
     0
  9
$REGENMODE
 70
     1
  9
$FILLMODE
 70
     1
  9
$QTEXTMODE
 70
     0
  9
$MIRRTEXT
 70
     1
  9
$DRAGMODE
 70
     2
  9
$LTSCALE
 40
1.0
  9
$OSMODE
 70
    37
  9
$ATTMODE
 70
     1
  9
$TEXTSIZE
 40
0.2
  9
$TRACEWID
 40
0.05
  9
$TEXTSTYLE
  7
STANDARD
  9
$CLAYER
  8
0
  9
$CELTYPE
  6
BYLAYER
  9
$CECOLOR
 62
   256
  9
$CELTSCALE
 40
1.0
  9
$DELOBJ
 70
     1
  9
$DISPSILH
 70
     0
  9
$DIMSCALE
 40
1.0
  9
$DIMASZ
 40
3.0
  9
$DIMEXO
 40
0.0625
  9
$DIMDLI
 40
0.38
  9
$DIMRND
 40
0.0
  9
$DIMDLE
 40
0.0
  9
$DIMEXE
 40
1.5
  9
$DIMTP
 40
0.0
  9
$DIMTM
 40
0.0
  9
$DIMTXT
 40
3.0
  9
$DIMCEN
 40
0.09
  9
$DIMTSZ
 40
0.0
  9
$DIMTOL
 70
     0
  9
$DIMLIM
 70
     0
  9
$DIMTIH
 70
     1
  9
$DIMTOH
 70
     1
  9
$DIMSE1
 70
     0
  9
$DIMSE2
 70
     0
  9
$DIMTAD
 70
     1
  9
$DIMZIN
 70
     0
  9
$DIMBLK
  1

  9
$DIMASO
 70
     1
  9
$DIMSHO
 70
     1
  9
$DIMPOST
  1

  9
$DIMAPOST
  1

  9
$DIMALT
 70
     0
  9
$DIMALTD
 70
     2
  9
$DIMALTF
 40
25.4
  9
$DIMLFAC
 40
1.0
  9
$DIMTOFL
 70
     0
  9
$DIMTVP
 40
0.0
  9
$DIMTIX
 70
     0
  9
$DIMSOXD
 70
     0
  9
$DIMSAH
 70
     0
  9
$DIMBLK1
  1

  9
$DIMBLK2
  1

  9
$DIMSTYLE
  2
STANDARD
  9
$DIMCLRD
 70
     0
  9
$DIMCLRE
 70
     0
  9
$DIMCLRT
 70
     0
  9
$DIMTFAC
 40
1.0
  9
$DIMGAP
 40
1.5
  9
$DIMJUST
 70
     0
  9
$DIMSD1
 70
     0
  9
$DIMSD2
 70
     0
  9
$DIMTOLJ
 70
     1
  9
$DIMTZIN
 70
     0
  9
$DIMALTZ
 70
     0
  9
$DIMALTTZ
 70
     0
  9
$DIMFIT
 70
     3
  9
$DIMUPT
 70
     0
  9
$DIMUNIT
 70
     2
  9
$DIMDEC
 70
     2
  9
$DIMTDEC
 70
     4
  9
$DIMALTU
 70
     2
  9
$DIMALTTD
 70
     2
  9
$DIMTXSTY
  7
ＭＳ_ゴシック
  9
$DIMAUNIT
 70
     0
  9
$LUNITS
 70
     2
  9
$LUPREC
 70
     4
  9
$SKETCHINC
 40
0.1
  9
$FILLETRAD
 40
0.5
  9
$AUNITS
 70
     0
  9
$AUPREC
 70
     0
  9
$MENU
  1
.
  9
$ELEVATION
 40
0.0
  9
$PELEVATION
 40
0.0
  9
$THICKNESS
 40
0.0
  9
$LIMCHECK
 70
     0
  9
$CHAMFERA
 40
0.0
  9
$CHAMFERB
 40
0.0
  9
$CHAMFERC
 40
0.0
  9
$CHAMFERD
 40
0.0
  9
$SKPOLY
 70
     0
  9
$TDCREATE
 40
2459712.677805764
  9
$TDUPDATE
 40
2459712.677806065
  9
$TDINDWG
 40
0.0000000116
  9
$TDUSRTIMER
 40
0.0000000116
  9
$USRTIMER
 70
     1
  9
$ANGBASE
 50
0.0
  9
$ANGDIR
 70
     0
  9
$PDMODE
 70
     0
  9
$PDSIZE
 40
0.0
  9
$PLINEWID
 40
0.0
  9
$COORDS
 70
     1
  9
$SPLFRAME
 70
     0
  9
$SPLINETYPE
 70
     6
  9
$SPLINESEGS
 70
     8
  9
$ATTDIA
 70
     0
  9
$ATTREQ
 70
     1
  9
$HANDLING
 70
     1
  9
$HANDSEED
  5
37D
  9
$SURFTAB1
 70
     6
  9
$SURFTAB2
 70
     6
  9
$SURFTYPE
 70
     6
  9
$SURFU
 70
     6
  9
$SURFV
 70
     6
  9
$UCSNAME
  2

  9
$UCSORG
 10
0.0
 20
0.0
 30
0.0
  9
$UCSXDIR
 10
1.0
 20
0.0
 30
0.0
  9
$UCSYDIR
 10
0.0
 20
1.0
 30
0.0
  9
$PUCSNAME
  2

  9
$PUCSORG
 10
0.0
 20
0.0
 30
0.0
  9
$PUCSXDIR
 10
1.0
 20
0.0
 30
0.0
  9
$PUCSYDIR
 10
0.0
 20
1.0
 30
0.0
  9
$USERI1
 70
     0
  9
$USERI2
 70
     0
  9
$USERI3
 70
     0
  9
$USERI4
 70
     0
  9
$USERI5
 70
     0
  9
$USERR1
 40
0.0
  9
$USERR2
 40
0.0
  9
$USERR3
 40
0.0
  9
$USERR4
 40
0.0
  9
$USERR5
 40
0.0
  9
$WORLDVIEW
 70
     1
  9
$SHADEDGE
 70
     3
  9
$SHADEDIF
 70
    70
  9
$TILEMODE
 70
     1
  9
$MAXACTVP
 70
    64
  9
$PINSBASE
 10
0.0
 20
0.0
 30
0.0
  9
$PLIMCHECK
 70
     0
  9
$PEXTMIN
 10
1.000000000000000E+20
 20
1.000000000000000E+20
 30
1.000000000000000E+20
  9
$PEXTMAX
 10
-1.000000000000000E+20
 20
-1.000000000000000E+20
 30
-1.000000000000000E+20
  9
$PLIMMIN
 10
0.0
 20
0.0
  9
$PLIMMAX
 10
12.0
 20
9.0
  9
$UNITMODE
 70
     0
  9
$VISRETAIN
 70
     1
  9
$PLINEGEN
 70
     0
  9
$PSLTSCALE
 70
     1
  9
$TREEDEPTH
 70
  3020
  9
$PICKSTYLE
 70
     1
  9
$CMLSTYLE
  2
STANDARD
  9
$CMLJUST
 70
     0
  9
$CMLSCALE
 40
1.0
  9
$PROXYGRAPHICS
 70
     1
  9
$MEASUREMENT
 70
     1
  0
ENDSEC
  0
SECTION
  2
CLASSES
  0
CLASS
  1
ACDBDICTIONARYWDFLT
  2
AcDbDictionaryWithDefault
  3
ObjectDBX Classes
 90
        0
280
     0
281
     0
  0
CLASS
  1
VISUALSTYLE
  2
AcDbVisualStyle
  3
ObjectDBX Classes
 90
     4095
280
     0
281
     0
  0
CLASS
  1
MATERIAL
  2
AcDbMaterial
  3
ObjectDBX Classes
 90
     1153
280
     0
281
     0
  0
CLASS
  1
SCALE
  2
AcDbScale
  3
ObjectDBX Classes
 90
     1153
280
     0
281
     0
  0
CLASS
  1
TABLESTYLE
  2
AcDbTableStyle
  3
ObjectDBX Classes
 90
     4095
280
     0
281
     0
  0
CLASS
  1
MLEADERSTYLE
  2
AcDbMLeaderStyle
  3
ACDB_MLEADERSTYLE_CLASS
 90
     4095
280
     0
281
     0
  0
CLASS
  1
SUN
  2
AcDbSun
  3
SCENEOE
 90
     1153
280
     0
281
     0
  0
CLASS
  1
DICTIONARYVAR
  2
AcDbDictionaryVar
  3
ObjectDBX Classes
 90
        0
280
     0
281
     0
  0
CLASS
  1
XRECORD
  2
AcDbXrecord
  3
ObjectDBX Classes
 90
        0
280
     0
281
     0
  0
CLASS
  1
LWPOLYLINE
  2
AcDbPolyline
  3
ObjectDBX Classes
 90
        0
280
     0
281
     1
  0
CLASS
  1
HATCH
  2
AcDbHatch
  3
ObjectDBX Classes
 90
        0
280
     0
281
     1
  0
CLASS
  1
ACDBPLACEHOLDER
  2
AcDbPlaceHolder
  3
ObjectDBX Classes
 90
        0
280
     0
281
     0
  0
CLASS
  1
LAYOUT
  2
AcDbLayout
  3
ObjectDBX Classes
 90
        0
280
     0
281
     0
  0
ENDSEC
  0
SECTION
  2
TABLES
  0
TABLE
  2
VPORT
  5
8
102
{ACAD_XDICTIONARY
360
372
102
}
330
0
100
AcDbSymbolTable
 70
     1
  0
VPORT
  5
29
330
8
100
AcDbSymbolTableRecord
100
AcDbViewportTableRecord
  2
*ACTIVE
 70
     0
 10
0.0
 20
0.0
 11
1.0
 21
1.0
 12
482.4479626731884
 22
215.1263857517165
 13
0.0
 23
0.0
 14
0.5
 24
0.5
 15
0.5
 25
0.5
 16
0.0
 26
0.0
 36
1.0
 17
0.0
 27
0.0
 37
0.0
 40
264.7472284965671
 41
1.6
 42
50.0
 43
0.0
 44
0.0
 50
0.0
 51
0.0
 71
     0
 72
   100
 73
     1
 74
     3
 75
     0
 76
     0
 77
     0
 78
     0
  0
ENDTAB
  0
TABLE
  2
LTYPE
  5
5
330
0
100
AcDbSymbolTable
 70
     3
  0
LTYPE
  5
14
330
5
100
AcDbSymbolTableRecord
100
AcDbLinetypeTableRecord
  2
BYBLOCK
 70
     0
  3

 72
    65
 73
     0
 40
0.0
  0
LTYPE
  5
15
330
5
100
AcDbSymbolTableRecord
100
AcDbLinetypeTableRecord
  2
BYLAYER
 70
     0
  3

 72
    65
 73
     0
 40
0.0
  0
LTYPE
  5
16
330
5
100
AcDbSymbolTableRecord
100
AcDbLinetypeTableRecord
  2
CONTINUOUS
 70
     0
  3
Solid line
 72
    65
 73
     0
 40
0.0
  0
LTYPE
  5
70
330
5
100
AcDbSymbolTableRecord
100
AcDbLinetypeTableRecord
  2
DOT
 70
     0
  3

 72
    65
 73
     0
 40
0.0
  0
LTYPE
  5
345
330
5
100
AcDbSymbolTableRecord
100
AcDbLinetypeTableRecord
  2
CENTER
 70
     0
  3

 72
    65
 73
     0
 40
0.0
  0
ENDTAB
  0
TABLE
  2
LAYER
  5
2
330
0
100
AcDbSymbolTable
 70
     1
  0
LAYER
  5
10
330
2
100
AcDbSymbolTableRecord
100
AcDbLayerTableRecord
  2
0
 70
     0
 62
     7
  6
CONTINUOUS
  0
ENDTAB
  0
TABLE
  2
STYLE
  5
3
330
0
100
AcDbSymbolTable
 70
     2
  0
STYLE
  5
11
330
3
100
AcDbSymbolTableRecord
100
AcDbTextStyleTableRecord
  2
STANDARD
 70
     0
 40
0.0
 41
1.0
 50
0.0
 71
     0
 42
0.2
  3
txt
  4

  0
STYLE
  5
6E
330
3
100
AcDbSymbolTableRecord
100
AcDbTextStyleTableRecord
  2
ＭＳ_ゴシック
 70
     0
 40
0.0
 41
1.0
 50
0.0
 71
     0
 42
0.2
  3
ＭＳ ゴシック.shx
  4

  0
ENDTAB
  0
TABLE
  2
VIEW
  5
6
330
0
100
AcDbSymbolTable
 70
     0
  0
ENDTAB
  0
TABLE
  2
UCS
  5
7
330
0
100
AcDbSymbolTable
 70
     0
  0
ENDTAB
  0
TABLE
  2
APPID
  5
9
330
0
100
AcDbSymbolTable
 70
     2
  0
APPID
  5
12
330
9
100
AcDbSymbolTableRecord
100
AcDbRegAppTableRecord
  2
ACAD
 70
     0
  0
APPID
  5
37C
330
9
100
AcDbSymbolTableRecord
100
AcDbRegAppTableRecord
  2
ACAD_MLEADERVER
 70
     0
  0
ENDTAB
  0
TABLE
  2
DIMSTYLE
  5
A
330
0
100
AcDbSymbolTable
 70
     1
  0
DIMSTYLE
105
27
330
A
100
AcDbSymbolTableRecord
100
AcDbDimStyleTableRecord
  2
STANDARD
 70
     0
  3

  4

  5

  6

  7

 40
1.0
 41
0.18
 42
0.0625
 43
0.38
 44
0.18
 45
0.0
 46
0.0
 47
0.0
 48
0.0
140
0.18
141
0.09
142
0.0
143
25.4
144
1.0
145
0.0
146
1.0
147
0.09
 71
     0
 72
     0
 73
     1
 74
     1
 75
     0
 76
     0
 77
     0
 78
     0
170
     0
171
     2
172
     0
173
     0
174
     0
175
     0
176
     0
177
     0
178
     0
270
     2
271
     4
272
     4
273
     2
274
     2
340
11
275
     0
280
     0
281
     0
282
     0
283
     1
284
     0
285
     0
286
     0
287
     3
288
     0
  0
ENDTAB
  0
TABLE
  2
BLOCK_RECORD
  5
1
330
0
100
AcDbSymbolTable
 70
     0
  0
BLOCK_RECORD
  5
1F
330
1
100
AcDbSymbolTableRecord
100
AcDbBlockTableRecord
  2
*MODEL_SPACE
  0
BLOCK_RECORD
  5
1B
330
1
100
AcDbSymbolTableRecord
100
AcDbBlockTableRecord
  2
*PAPER_SPACE
  0
ENDTAB
  0
ENDSEC
  0
SECTION
  2
BLOCKS
  0
BLOCK
  5
20
330
1F
100
AcDbEntity
  8
0
100
AcDbBlockBegin
  2
*MODEL_SPACE
 70
     0
 10
0.0
 20
0.0
 30
0.0
  3
*MODEL_SPACE
  1

  0
ENDBLK
  5
21
330
1F
100
AcDbEntity
  8
0
100
AcDbBlockEnd
  0
BLOCK
  5
1C
330
1B
100
AcDbEntity
 67
     1
  8
0
100
AcDbBlockBegin
  2
*PAPER_SPACE
 70
     0
 10
0.0
 20
0.0
 30
0.0
  3
*PAPER_SPACE
  1

  0
ENDBLK
  5
1D
330
1B
100
AcDbEntity
 67
     1
  8
0
100
AcDbBlockEnd
  0
ENDSEC
  0
SECTION
  2
ENTITIES
  0
LINE
  5
6F
330
1F
100
AcDbEntity
  8
0
  6
DOT
 62
     7
100
AcDbLine
 10
669.7320009457466
 20
155.2110683678326
 30
0.0
 11
645.1351243296754
 21
155.2110683678326
 31
0.0
  0
LINE
  5
71
330
1F
100
AcDbEntity
  8
0
  6
DOT
 62
     7
100
AcDbLine
 10
639.93423747573
 20
155.2110683692335
 30
0.0
 11
639.93423747573
 21
156.7110683692335
 31
0.0
  0
LINE
  5
72
330
1F
100
AcDbEntity
  8
0
  6
DOT
 62
     7
100
AcDbLine
 10
639.93423747573
 20
156.7110683678326
 30
0.0
 11
674.9342374757299
 21
156.7110683678326
 31
0.0
  0
LINE
  5
73
330
1F
100
AcDbEntity
  8
0
  6
DOT
 62
     7
100
AcDbLine
 10
674.9342374757299
 20
155.2110683692335
 30
0.0
 11
674.9342374757299
 21
156.7110683692335
 31
0.0
  0
ARC
  5
74
330
1F
100
AcDbEntity
  8
0
  6
DOT
 62
     7
100
AcDbCircle
 10
660.5789060124325
 20
159.2301058657963
 30
0.0
 40
2.520028476661165
100
AcDbArc
 50
268.3931277750136
 51
2.071473426545367
  0
ARC
  5
75
330
1F
100
AcDbEntity
  8
0
  6
DOT
 62
     7
100
AcDbCircle
 10
644.07417260895
 20
162.9285515906271
 30
0.0
 40
19.36212610521067
100
AcDbArc
 50
349.262486175644
 51
0.8360442086239459
  0
ARC
  5
76
330
1F
100
AcDbEntity
  8
0
  6
DOT
 62
     7
100
AcDbCircle
 10
661.5026534891341
 20
162.1992978687096
 30
0.0
 40
10.11912449736822
100
AcDbArc
 50
174.2616373150175
 51
208.7362819742913
  0
ARC
  5
77
330
1F
100
AcDbEntity
  8
0
  6
DOT
 62
     7
100
AcDbCircle
 10
654.1493607461201
 20
158.8397006383881
 30
0.0
 40
2.13905190245554
100
AcDbArc
 50
224.7326426424494
 51
275.6575657769824
  0
LINE
  5
78
330
1F
100
AcDbEntity
  8
0
  6
DOT
 62
     7
100
AcDbLine
 10
639.93423747456
 20
163.2110683676243
 30
0.0
 11
639.93423747456
 21
156.7110683680409
 31
0.0
  0
LINE
  5
79
330
1F
100
AcDbEntity
  8
0
  6
DOT
 62
     7
100
AcDbLine
 10
674.93423747456
 20
163.2110683676243
 30
0.0
 11
674.93423747456
 21
156.7110683680409
 31
0.0
  0
LINE
  5
7A
330
1F
100
AcDbEntity
  8
0
  6
DOT
 62
     7
100
AcDbLine
 10
663.4342374741512
 20
163.2110683676243
 30
0.0
 11
663.4342374741512
 21
194.4610683676243
 31
0.0
  0
LINE
  5
7B
330
1F
100
AcDbEntity
  8
0
  6
DOT
 62
     7
100
AcDbLine
 10
651.4342374741512
 20
163.2110683676243
 30
0.0
 11
651.4342374741512
 21
194.4610683676243
 31
0.0
  0
LINE
  5
7C
330
1F
100
AcDbEntity
  8
0
  6
DOT
 62
     7
100
AcDbLine
 10
651.4342374713377
 20
194.4610683676243
 30
0.0
 11
651.4342374713377
 21
239.2110683647558
 31
0.0
  0
LINE
  5
7D
330
1F
100
AcDbEntity
  8
0
  6
DOT
 62
     7
100
AcDbLine
 10
663.4342374713377
 20
194.4610683676243
 30
0.0
 11
663.4342374713377
 21
239.2110683647558
 31
0.0
  0
LINE
  5
7E
330
1F
100
AcDbEntity
  8
0
  6
DOT
 62
     7
100
AcDbLine
 10
639.9342374741512
 20
163.2110683676243
 30
0.0
 11
639.9342374741512
 21
194.4610683676243
 31
0.0
  0
LINE
  5
7F
330
1F
100
AcDbEntity
  8
0
  6
DOT
 62
     7
100
AcDbLine
 10
674.9342374741514
 20
163.2110683676243
 30
0.0
 11
674.9342374741514
 21
194.4610683676243
 31
0.0
  0
LINE
  5
80
330
1F
100
AcDbEntity
  8
0
  6
DOT
 62
     7
100
AcDbLine
 10
639.9342374713377
 20
194.4610683676243
 30
0.0
 11
639.9342374713377
 21
239.2110683647558
 31
0.0
  0
LINE
  5
81
330
1F
100
AcDbEntity
  8
0
  6
DOT
 62
     7
100
AcDbLine
 10
674.9342374713376
 20
194.4610683676243
 30
0.0
 11
674.9342374713376
 21
239.2110683647558
 31
0.0
  0
LINE
  5
82
330
1F
100
AcDbEntity
  8
0
  6
DOT
 62
     7
100
AcDbLine
 10
647.1842374713377
 20
150.7923138317858
 30
0.0
 11
647.1842374713377
 21
150.4110683647559
 31
0.0
  0
LINE
  5
83
330
1F
100
AcDbEntity
  8
0
  6
DOT
 62
     7
100
AcDbLine
 10
647.1842374713377
 20
150.4110683647559
 30
0.0
 11
645.5842374713376
 21
150.4110683647559
 31
0.0
  0
LINE
  5
84
330
1F
100
AcDbEntity
  8
0
  6
DOT
 62
     7
100
AcDbLine
 10
645.5842374713376
 20
150.4110683647559
 30
0.0
 11
645.5842374713376
 21
151.4110683647559
 31
0.0
  0
LINE
  5
85
330
1F
100
AcDbEntity
  8
0
  6
DOT
 62
     7
100
AcDbLine
 10
645.5842374713376
 20
151.4110683647559
 30
0.0
 11
647.1842374713377
 21
151.4110683647559
 31
0.0
  0
LINE
  5
86
330
1F
100
AcDbEntity
  8
0
  6
DOT
 62
     7
100
AcDbLine
 10
647.1842374713377
 20
151.4110683647559
 30
0.0
 11
647.1842374713377
 21
150.7923138317858
 31
0.0
  0
LINE
  5
87
330
1F
100
AcDbEntity
  8
0
  6
DOT
 62
     7
100
AcDbLine
 10
669.2842374713376
 20
151.4110683647559
 30
0.0
 11
667.6842374713376
 21
151.4110683647559
 31
0.0
  0
LINE
  5
88
330
1F
100
AcDbEntity
  8
0
  6
DOT
 62
     7
100
AcDbLine
 10
669.2842374713376
 20
150.4110683647559
 30
0.0
 11
669.2842374713376
 21
151.4110683647559
 31
0.0
  0
LINE
  5
89
330
1F
100
AcDbEntity
  8
0
  6
DOT
 62
     7
100
AcDbLine
 10
667.6842374713376
 20
150.4110683647559
 30
0.0
 11
669.2842374713376
 21
150.4110683647559
 31
0.0
  0
LINE
  5
8A
330
1F
100
AcDbEntity
  8
0
  6
DOT
 62
     7
100
AcDbLine
 10
667.6842374713376
 20
150.7923138317858
 30
0.0
 11
667.6842374713376
 21
150.4110683647559
 31
0.0
  0
LINE
  5
8B
330
1F
100
AcDbEntity
  8
0
  6
DOT
 62
     7
100
AcDbLine
 10
667.6842374713376
 20
151.4110683647559
 30
0.0
 11
667.6842374713376
 21
150.7923138317858
 31
0.0
  0
ARC
  5
8C
330
1F
100
AcDbEntity
  8
0
  6
DOT
 62
     7
100
AcDbCircle
 10
669.7842374713379
 20
153.1110683647559
 30
0.0
 40
2.099999999999991
100
AcDbArc
 50
90.0
 51
180.0
  0
LINE
  5
8D
330
1F
100
AcDbEntity
  8
0
  6
DOT
 62
     7
100
AcDbLine
 10
675.3342374713378
 20
155.2110683647559
 30
0.0
 11
669.7842374713379
 21
155.2110683647559
 31
0.0
  0
ARC
  5
8E
330
1F
100
AcDbEntity
  8
0
  6
DOT
 62
     7
100
AcDbCircle
 10
675.3342374713378
 20
127.3110683647559
 30
0.0
 40
2.099999999999991
100
AcDbArc
 50
270.0000000000002
 51
0.0
  0
LINE
  5
8F
330
1F
100
AcDbEntity
  8
0
  6
DOT
 62
     7
100
AcDbLine
 10
639.5342374713377
 20
125.2110683647559
 30
0.0
 11
675.3342374713378
 21
125.2110683647559
 31
0.0
  0
ARC
  5
90
330
1F
100
AcDbEntity
  8
0
  6
DOT
 62
     7
100
AcDbCircle
 10
639.5342374713377
 20
127.3110683647559
 30
0.0
 40
2.099999999999991
100
AcDbArc
 50
180.0
 51
269.9999999999998
  0
LINE
  5
91
330
1F
100
AcDbEntity
  8
0
  6
DOT
 62
     7
100
AcDbLine
 10
639.5342374713377
 20
155.2110683647559
 30
0.0
 11
645.0842374713378
 21
155.2110683647559
 31
0.0
  0
ARC
  5
92
330
1F
100
AcDbEntity
  8
0
  6
DOT
 62
     7
100
AcDbCircle
 10
645.0842374713377
 20
153.1110683647559
 30
0.0
 40
2.099999999999991
100
AcDbArc
 50
0.0
 51
90.0
  0
LINE
  5
93
330
1F
100
AcDbEntity
  8
0
  6
DOT
 62
     7
100
AcDbLine
 10
645.5842374713376
 20
151.4110683647559
 30
0.0
 11
645.5842374713376
 21
153.3110683647559
 31
0.0
  0
ARC
  5
94
330
1F
100
AcDbEntity
  8
0
  6
DOT
 62
     7
100
AcDbCircle
 10
645.2842374713376
 20
153.3110683647559
 30
0.0
 40
0.299999999999967
100
AcDbArc
 50
0.0
 51
90.0
  0
LINE
  5
95
330
1F
100
AcDbEntity
  8
0
  6
DOT
 62
     7
100
AcDbLine
 10
645.2842374713376
 20
153.6110683647559
 30
0.0
 11
639.3342374713377
 21
153.6110683647559
 31
0.0
  0
ARC
  5
96
330
1F
100
AcDbEntity
  8
0
  6
DOT
 62
     7
100
AcDbCircle
 10
639.3342374713378
 20
153.3110683647559
 30
0.0
 40
0.3000000000000225
100
AcDbArc
 50
90.00000000000132
 51
180.0
  0
LINE
  5
97
330
1F
100
AcDbEntity
  8
0
  6
DOT
 62
     7
100
AcDbLine
 10
639.0342374713377
 20
153.3110683647559
 30
0.0
 11
639.0342374713377
 21
127.1110683647559
 31
0.0
  0
ARC
  5
98
330
1F
100
AcDbEntity
  8
0
  6
DOT
 62
     7
100
AcDbCircle
 10
639.3342374713378
 20
127.1110683647559
 30
0.0
 40
0.299999999999967
100
AcDbArc
 50
180.0000000000014
 51
270.0
  0
LINE
  5
99
330
1F
100
AcDbEntity
  8
0
  6
DOT
 62
     7
100
AcDbLine
 10
675.5342374713377
 20
126.8110683647559
 30
0.0
 11
639.3342374713378
 21
126.8110683647559
 31
0.0
  0
ARC
  5
9A
330
1F
100
AcDbEntity
  8
0
  6
DOT
 62
     7
100
AcDbCircle
 10
675.5342374713377
 20
127.1110683647559
 30
0.0
 40
0.299999999999967
100
AcDbArc
 50
270.0
 51
359.9999999999986
  0
LINE
  5
9B
330
1F
100
AcDbEntity
  8
0
  6
DOT
 62
     7
100
AcDbLine
 10
675.8342374713377
 20
153.3110683647559
 30
0.0
 11
675.8342374713377
 21
127.1110683647559
 31
0.0
  0
ARC
  5
9C
330
1F
100
AcDbEntity
  8
0
  6
DOT
 62
     7
100
AcDbCircle
 10
675.5342374713377
 20
153.3110683647559
 30
0.0
 40
0.3000000000000225
100
AcDbArc
 50
0.0
 51
89.9999999999987
  0
LINE
  5
9D
330
1F
100
AcDbEntity
  8
0
  6
DOT
 62
     7
100
AcDbLine
 10
669.5842374713377
 20
153.6110683647559
 30
0.0
 11
675.5342374713376
 21
153.6110683647559
 31
0.0
  0
ARC
  5
9E
330
1F
100
AcDbEntity
  8
0
  6
DOT
 62
     7
100
AcDbCircle
 10
669.5842374713377
 20
153.3110683647559
 30
0.0
 40
0.299999999999967
100
AcDbArc
 50
90.0
 51
180.0
  0
LINE
  5
9F
330
1F
100
AcDbEntity
  8
0
  6
DOT
 62
     7
100
AcDbLine
 10
669.2842374713376
 20
151.4110683647559
 30
0.0
 11
669.2842374713376
 21
153.3110683647559
 31
0.0
  0
LINE
  5
A0
330
1F
100
AcDbEntity
  8
0
  6
DOT
 62
     7
100
AcDbLine
 10
637.4342374713377
 20
127.3110683647559
 30
0.0
 11
637.4342374713377
 21
153.1110683647559
 31
0.0
  0
LINE
  5
A1
330
1F
100
AcDbEntity
  8
0
  6
DOT
 62
     7
100
AcDbLine
 10
677.4342374713378
 20
127.3110683647559
 30
0.0
 11
677.4342374713378
 21
153.1110683647559
 31
0.0
  0
ARC
  5
A2
330
1F
100
AcDbEntity
  8
0
  6
DOT
 62
     7
100
AcDbCircle
 10
639.5342374713377
 20
153.1110683647559
 30
0.0
 40
2.099999999999991
100
AcDbArc
 50
90.0
 51
180.0000000000003
  0
ARC
  5
A3
330
1F
100
AcDbEntity
  8
0
  6
DOT
 62
     7
100
AcDbCircle
 10
675.3342374713378
 20
153.1110683647559
 30
0.0
 40
2.099999999999991
100
AcDbArc
 50
359.9999999999997
 51
90.0
  0
LINE
  5
A4
330
1F
100
AcDbEntity
  8
0
  6
DOT
 62
     7
100
AcDbLine
 10
647.1842374713377
 20
153.1110683647559
 30
0.0
 11
647.1842374713377
 21
151.4110683647559
 31
0.0
  0
LINE
  5
A5
330
1F
100
AcDbEntity
  8
0
  6
DOT
 62
     7
100
AcDbLine
 10
667.6842374713376
 20
153.1110683647559
 30
0.0
 11
667.6842374713376
 21
151.4110683647559
 31
0.0
  0
ARC
  5
A6
330
1F
100
AcDbEntity
  8
0
  6
DOT
 62
     7
100
AcDbCircle
 10
657.4342374713377
 20
234.7110683647559
 30
0.0
 40
7.500000000000005
100
AcDbArc
 50
36.86989764584403
 51
143.130102354156
  0
LINE
  5
A7
330
1F
100
AcDbEntity
  8
0
  6
DOT
 62
     7
100
AcDbLine
 10
651.4342374713377
 20
239.2110683647559
 30
0.0
 11
639.9342374713378
 21
239.2110683647559
 31
0.0
  0
LINE
  5
A8
330
1F
100
AcDbEntity
  8
0
  6
DOT
 62
     7
100
AcDbLine
 10
674.9342374713376
 20
239.2110683647559
 30
0.0
 11
663.4342374713376
 21
239.2110683647559
 31
0.0
  0
LINE
  5
A9
330
1F
100
AcDbEntity
  8
0
  6
CONTINUOUS
 62
     7
100
AcDbLine
 10
365.6000000001233
 20
325.9999999959127
 30
0.0
 11
365.6000000001236
 21
322.9999999959127
 31
0.0
  0
LINE
  5
AA
330
1F
100
AcDbEntity
  8
0
  6
CONTINUOUS
 62
     7
100
AcDbLine
 10
365.6000000001236
 20
322.9999999959127
 30
0.0
 11
365.3000000000915
 21
322.9999999959127
 31
0.0
  0
LINE
  5
AB
330
1F
100
AcDbEntity
  8
0
  6
CONTINUOUS
 62
     7
100
AcDbLine
 10
365.3000000000915
 20
322.9999999959127
 30
0.0
 11
365.3000000000912
 21
325.9999999959127
 31
0.0
  0
LINE
  5
AC
330
1F
100
AcDbEntity
  8
0
  6
CONTINUOUS
 62
     7
100
AcDbLine
 10
365.3000000000912
 20
325.9999999959127
 30
0.0
 11
365.6000000001233
 21
325.9999999959127
 31
0.0
  0
LINE
  5
AD
330
1F
100
AcDbEntity
  8
0
  6
CONTINUOUS
 62
     7
100
AcDbLine
 10
379.400000000091
 20
327.5000505065246
 30
0.0
 11
379.400000000091
 21
328.0794355654789
 31
0.0
  0
LINE
  5
AE
330
1F
100
AcDbEntity
  8
0
  6
CONTINUOUS
 62
     7
100
AcDbLine
 10
365.6000000001236
 20
322.9999999959127
 30
0.0
 11
365.6000000001236
 21
322.760102047343
 31
0.0
  0
LINE
  5
AF
330
1F
100
AcDbEntity
  8
0
  6
CONTINUOUS
 62
     7
100
AcDbLine
 10
365.6000000001233
 20
326.2398979444824
 30
0.0
 11
365.6000000001233
 21
325.9999999959127
 31
0.0
  0
LINE
  5
B0
330
1F
100
AcDbEntity
  8
0
  6
CONTINUOUS
 62
     7
100
AcDbLine
 10
365.6000000000921
 20
317.4999494913408
 30
0.0
 11
365.6000000000922
 21
316.9205644263478
 31
0.0
  0
LINE
  5
B1
330
1F
100
AcDbEntity
  8
0
  6
CONTINUOUS
 62
     7
100
AcDbLine
 10
379.4000000001236
 20
322.2398979444577
 30
0.0
 11
379.4000000001237
 21
321.9999999959142
 31
0.0
  0
LINE
  5
B2
330
1F
100
AcDbEntity
  8
0
  6
CONTINUOUS
 62
     7
100
AcDbLine
 10
379.400000000124
 20
318.9999999959141
 30
0.0
 11
379.4000000001237
 21
321.9999999959141
 31
0.0
  0
LINE
  5
B3
330
1F
100
AcDbEntity
  8
0
  6
CONTINUOUS
 62
     7
100
AcDbLine
 10
379.400000000124
 20
318.9999999959141
 30
0.0
 11
379.400000000124
 21
318.7601020473706
 31
0.0
  0
LINE
  5
B4
330
1F
100
AcDbEntity
  8
0
  6
CONTINUOUS
 62
     7
100
AcDbLine
 10
379.7000000000916
 20
321.9999999959142
 30
0.0
 11
379.700000000092
 21
318.9999999959142
 31
0.0
  0
LINE
  5
B5
330
1F
100
AcDbEntity
  8
0
  6
CONTINUOUS
 62
     7
100
AcDbLine
 10
379.700000000092
 20
318.9999999959142
 30
0.0
 11
379.400000000124
 21
318.9999999959141
 31
0.0
  0
LINE
  5
B6
330
1F
100
AcDbEntity
  8
0
  6
CONTINUOUS
 62
     7
100
AcDbLine
 10
379.4000000001237
 20
321.9999999959141
 30
0.0
 11
379.7000000000916
 21
321.9999999959141
 31
0.0
  0
LINE
  5
B7
330
1F
100
AcDbEntity
  8
0
  6
CONTINUOUS
 62
     7
100
AcDbLine
 10
379.4000000001093
 20
328.0794355654789
 30
0.0
 11
379.3999999998042
 21
334.7322601464422
 31
0.0
  0
LINE
  5
B8
330
1F
100
AcDbEntity
  8
0
  6
CONTINUOUS
 62
     7
100
AcDbLine
 10
365.5999999999112
 20
332.3999999959127
 30
0.0
 11
365.5999999998042
 21
334.7322601464408
 31
0.0
  0
LINE
  5
B9
330
1F
100
AcDbEntity
  8
0
  6
CONTINUOUS
 62
     7
100
AcDbLine
 10
379.3999999999132
 20
312.5999999959141
 30
0.0
 11
379.3999999998068
 21
310.267739845386
 31
0.0
  0
LINE
  5
BA
330
1F
100
AcDbEntity
  8
0
  6
CONTINUOUS
 62
     7
100
AcDbLine
 10
365.6000000001105
 20
316.9205644263479
 30
0.0
 11
365.5999999998068
 21
310.2677398453846
 31
0.0
  0
LINE
  5
BB
330
1F
100
AcDbEntity
  8
0
  6
CONTINUOUS
 62
     7
100
AcDbLine
 10
379.399999999773
 20
334.7322601464422
 30
0.0
 11
379.3999999997729
 21
335.4972812653434
 31
0.0
  0
LINE
  5
BC
330
1F
100
AcDbEntity
  8
0
  6
CONTINUOUS
 62
     7
100
AcDbLine
 10
365.599999999773
 20
334.7322601464408
 30
0.0
 11
365.5999999997729
 21
335.497281265342
 31
0.0
  0
LINE
  5
BD
330
1F
100
AcDbEntity
  8
0
  6
CONTINUOUS
 62
     7
100
AcDbLine
 10
379.3999999997756
 20
310.267739845386
 30
0.0
 11
379.3999999997757
 21
309.5027187264848
 31
0.0
  0
LINE
  5
BE
330
1F
100
AcDbEntity
  8
0
  6
CONTINUOUS
 62
     7
100
AcDbLine
 10
365.5999999997756
 20
310.2677398453846
 30
0.0
 11
365.5999999997757
 21
309.5027187264834
 31
0.0
  0
LINE
  5
BF
330
1F
100
AcDbEntity
  8
0
  6
CONTINUOUS
 62
     7
100
AcDbLine
 10
363.500000000136
 20
326.2499999959124
 30
0.0
 11
363.5000000001354
 21
332.3999999959125
 31
0.0
  0
LINE
  5
C0
330
1F
100
AcDbEntity
  8
0
  6
CONTINUOUS
 62
     7
100
AcDbLine
 10
365.1000000001866
 20
332.3999999959127
 30
0.0
 11
363.5000000001354
 21
332.3999999959125
 31
0.0
  0
LINE
  5
C1
330
1F
100
AcDbEntity
  8
0
  6
CONTINUOUS
 62
     7
100
AcDbLine
 10
365.1000000001873
 20
326.2499999959126
 30
0.0
 11
363.500000000136
 21
326.2499999959124
 31
0.0
  0
LINE
  5
C2
330
1F
100
AcDbEntity
  8
0
  6
CONTINUOUS
 62
     7
100
AcDbLine
 10
363.5000000001369
 20
317.4999999959125
 30
0.0
 11
363.5000000001364
 21
322.7499999959124
 31
0.0
  0
LINE
  5
C3
330
1F
100
AcDbEntity
  8
0
  6
CONTINUOUS
 62
     7
100
AcDbLine
 10
363.5000000001364
 20
322.7499999959124
 30
0.0
 11
365.1000000001877
 21
322.7499999959126
 31
0.0
  0
LINE
  5
C4
330
1F
100
AcDbEntity
  8
0
  6
CONTINUOUS
 62
     7
100
AcDbLine
 10
363.500000000137
 20
317.4999999959125
 30
0.0
 11
365.1000000001883
 21
317.4999999959127
 31
0.0
  0
ARC
  5
C5
330
1F
100
AcDbEntity
  8
0
  6
CONTINUOUS
 62
     7
100
AcDbCircle
 10
365.5000000001876
 20
323.2499999959127
 30
0.0
 40
0.5000000000000004
100
AcDbArc
 50
270.0000000000064
 51
0.0000000000058549
  0
LINE
  5
C6
330
1F
100
AcDbEntity
  8
0
  6
CONTINUOUS
 62
     7
100
AcDbLine
 10
366.0000000001874
 20
325.7499999959127
 30
0.0
 11
366.0000000001876
 21
323.2499999959127
 31
0.0
  0
ARC
  5
C7
330
1F
100
AcDbEntity
  8
0
  6
CONTINUOUS
 62
     7
100
AcDbCircle
 10
365.5000000001874
 20
325.7499999959127
 30
0.0
 40
0.4999999999999449
100
AcDbArc
 50
0.0000000000059686
 51
90.00000000000477
  0
ARC
  5
C8
330
1F
100
AcDbEntity
  8
0
  6
CONTINUOUS
 62
     7
100
AcDbCircle
 10
373.0573593130677
 20
329.3999999959134
 30
0.0
 40
3.000000000000028
100
AcDbArc
 50
45.00000000000615
 51
90.00000000000611
  0
LINE
  5
C9
330
1F
100
AcDbEntity
  8
0
  6
CONTINUOUS
 62
     7
100
AcDbLine
 10
375.1786796566271
 20
331.5213203394733
 30
0.0
 11
379.0535533907805
 21
327.6464466053208
 31
0.0
  0
ARC
  5
CA
330
1F
100
AcDbEntity
  8
0
  6
CONTINUOUS
 62
     7
100
AcDbCircle
 10
379.4071067813737
 20
327.9999999959141
 30
0.0
 40
0.5000000000000004
100
AcDbArc
 50
225.000000000006
 51
270.0000000000056
  0
LINE
  5
CB
330
1F
100
AcDbEntity
  8
0
  6
CONTINUOUS
 62
     7
100
AcDbLine
 10
379.4071067813738
 20
327.4999999959141
 30
0.0
 11
379.9000000001872
 21
327.4999999959142
 31
0.0
  0
LINE
  5
CC
330
1F
100
AcDbEntity
  8
0
  6
CONTINUOUS
 62
     7
100
AcDbLine
 10
379.9000000001877
 20
322.2499999959142
 30
0.0
 11
379.5000000001878
 21
322.2499999959142
 31
0.0
  0
ARC
  5
CD
330
1F
100
AcDbEntity
  8
0
  6
CONTINUOUS
 62
     7
100
AcDbCircle
 10
379.5000000001879
 20
321.7499999959142
 30
0.0
 40
0.5000000000000004
100
AcDbArc
 50
90.0000000000064
 51
180.0000000000062
  0
LINE
  5
CE
330
1F
100
AcDbEntity
  8
0
  6
CONTINUOUS
 62
     7
100
AcDbLine
 10
379.0000000001879
 20
321.7499999959142
 30
0.0
 11
379.0000000001881
 21
319.2499999959141
 31
0.0
  0
ARC
  5
CF
330
1F
100
AcDbEntity
  8
0
  6
CONTINUOUS
 62
     7
100
AcDbCircle
 10
379.5000000001882
 20
319.2499999959142
 30
0.0
 40
0.5000000000000004
100
AcDbArc
 50
180.000000000007
 51
270.0000000000056
  0
LINE
  5
D0
330
1F
100
AcDbEntity
  8
0
  6
CONTINUOUS
 62
     7
100
AcDbLine
 10
379.9000000001881
 20
318.7499999959142
 30
0.0
 11
379.5000000001882
 21
318.7499999959142
 31
0.0
  0
LINE
  5
D1
330
1F
100
AcDbEntity
  8
0
  6
CONTINUOUS
 62
     7
100
AcDbLine
 10
371.942640687308
 20
312.5999999959133
 30
0.0
 11
379.9000000001888
 21
312.5999999959142
 31
0.0
  0
ARC
  5
D2
330
1F
100
AcDbEntity
  8
0
  6
CONTINUOUS
 62
     7
100
AcDbCircle
 10
371.9426406873077
 20
315.5999999959134
 30
0.0
 40
3.000000000000009
100
AcDbArc
 50
225.0000000000059
 51
270.0000000000061
  0
LINE
  5
D3
330
1F
100
AcDbEntity
  8
0
  6
CONTINUOUS
 62
     7
100
AcDbLine
 10
369.8213203437483
 20
313.4786796523535
 30
0.0
 11
365.9464466095949
 21
317.353553386506
 31
0.0
  0
ARC
  5
D4
330
1F
100
AcDbEntity
  8
0
  6
CONTINUOUS
 62
     7
100
AcDbCircle
 10
365.5928932190017
 20
316.9999999959127
 30
0.0
 40
0.5000000000000004
100
AcDbArc
 50
45.00000000000539
 51
90.00000000000477
  0
LINE
  5
D5
330
1F
100
AcDbEntity
  8
0
  6
CONTINUOUS
 62
     7
100
AcDbLine
 10
365.1000000001877
 20
322.7499999959126
 30
0.0
 11
365.5000000001876
 21
322.7499999959127
 31
0.0
  0
LINE
  5
D6
330
1F
100
AcDbEntity
  8
0
  6
CONTINUOUS
 62
     7
100
AcDbLine
 10
365.1000000001866
 20
332.3999999959127
 30
0.0
 11
373.0573593130674
 21
332.3999999959134
 31
0.0
  0
LINE
  5
D7
330
1F
100
AcDbEntity
  8
0
  6
CONTINUOUS
 62
     7
100
AcDbLine
 10
365.1000000001873
 20
326.2499999959126
 30
0.0
 11
365.5000000001874
 21
326.2499999959126
 31
0.0
  0
LINE
  5
D8
330
1F
100
AcDbEntity
  8
0
  6
CONTINUOUS
 62
     7
100
AcDbLine
 10
365.5928932190017
 20
317.4999999959127
 30
0.0
 11
365.1000000001883
 21
317.4999999959126
 31
0.0
  0
LINE
  5
D9
330
1F
100
AcDbEntity
  8
0
  6
CONTINUOUS
 62
     7
100
AcDbLine
 10
381.5000000001365
 20
322.2499999959144
 30
0.0
 11
381.500000000136
 21
327.4999999959144
 31
0.0
  0
LINE
  5
DA
330
1F
100
AcDbEntity
  8
0
  6
CONTINUOUS
 62
     7
100
AcDbLine
 10
379.9000000001877
 20
322.2499999959142
 30
0.0
 11
381.5000000001365
 21
322.2499999959144
 31
0.0
  0
LINE
  5
DB
330
1F
100
AcDbEntity
  8
0
  6
CONTINUOUS
 62
     7
100
AcDbLine
 10
381.500000000136
 20
327.4999999959143
 30
0.0
 11
379.9000000001872
 21
327.4999999959142
 31
0.0
  0
LINE
  5
DC
330
1F
100
AcDbEntity
  8
0
  6
CONTINUOUS
 62
     7
100
AcDbLine
 10
381.5000000001375
 20
312.5999999959143
 30
0.0
 11
381.5000000001369
 21
318.7499999959143
 31
0.0
  0
LINE
  5
DD
330
1F
100
AcDbEntity
  8
0
  6
CONTINUOUS
 62
     7
100
AcDbLine
 10
381.5000000001368
 20
318.7499999959143
 30
0.0
 11
379.9000000001881
 21
318.7499999959142
 31
0.0
  0
LINE
  5
DE
330
1F
100
AcDbEntity
  8
0
  6
CONTINUOUS
 62
     7
100
AcDbLine
 10
379.9000000001888
 20
312.5999999959142
 30
0.0
 11
381.5000000001375
 21
312.5999999959143
 31
0.0
  0
LINE
  5
DF
330
1F
100
AcDbEntity
  8
0
  6
CONTINUOUS
 62
     7
100
AcDbLine
 10
365.5000000001183
 20
316.6999600079087
 30
0.0
 11
365.5000000001183
 21
317.4999999959127
 31
0.0
  0
LINE
  5
E0
330
1F
100
AcDbEntity
  8
0
  6
CONTINUOUS
 62
     7
100
AcDbLine
 10
363.5000000001183
 20
317.4999999959125
 30
0.0
 11
363.5000000001183
 21
316.6999600079085
 31
0.0
  0
LINE
  5
E1
330
1F
100
AcDbEntity
  8
0
  6
CONTINUOUS
 62
     7
100
AcDbLine
 10
379.5000000001171
 20
328.3000399839182
 30
0.0
 11
379.5000000001172
 21
327.4999999959141
 31
0.0
  0
LINE
  5
E2
330
1F
100
AcDbEntity
  8
0
  6
CONTINUOUS
 62
     7
100
AcDbLine
 10
381.5000000001172
 20
327.4999999959143
 30
0.0
 11
381.5000000001172
 21
328.3000399839183
 31
0.0
  0
LINE
  5
E3
330
1F
100
AcDbEntity
  8
0
  6
CONTINUOUS
 62
     7
100
AcDbLine
 10
365.500000000087
 20
316.6999600079087
 30
0.0
 11
365.5000000000605
 21
312.5999999959127
 31
0.0
  0
LINE
  5
E4
330
1F
100
AcDbEntity
  8
0
  6
CONTINUOUS
 62
     7
100
AcDbLine
 10
363.5000000000605
 20
312.5999999959124
 30
0.0
 11
363.500000000087
 21
316.6999600079084
 31
0.0
  0
LINE
  5
E5
330
1F
100
AcDbEntity
  8
0
  6
CONTINUOUS
 62
     7
100
AcDbLine
 10
379.5000000000858
 20
328.3000399839182
 30
0.0
 11
379.5000000000585
 21
332.3999999959142
 31
0.0
  0
LINE
  5
E6
330
1F
100
AcDbEntity
  8
0
  6
CONTINUOUS
 62
     7
100
AcDbLine
 10
381.5000000000585
 20
332.3999999959144
 30
0.0
 11
381.5000000000858
 21
328.3000399839183
 31
0.0
  0
LINE
  5
E7
330
1F
100
AcDbEntity
  8
0
  6
CONTINUOUS
 62
     7
100
AcDbLine
 10
363.5000000000514
 20
337.7499999959125
 30
0.0
 11
365.5000000000514
 21
337.7499999959127
 31
0.0
  0
LINE
  5
E8
330
1F
100
AcDbEntity
  8
0
  6
CONTINUOUS
 62
     7
100
AcDbLine
 10
365.5000000000515
 20
336.5662661583967
 30
0.0
 11
365.5000000000514
 21
337.7499999959127
 31
0.0
  0
LINE
  5
E9
330
1F
100
AcDbEntity
  8
0
  6
CONTINUOUS
 62
     7
100
AcDbLine
 10
363.5000000000515
 20
336.5662661583964
 30
0.0
 11
363.5000000000514
 21
337.7499999959125
 31
0.0
  0
LINE
  5
EA
330
1F
100
AcDbEntity
  8
0
  6
CONTINUOUS
 62
     7
100
AcDbLine
 10
363.5000000000546
 20
307.2499999959124
 30
0.0
 11
365.5000000000546
 21
307.2499999959127
 31
0.0
  0
LINE
  5
EB
330
1F
100
AcDbEntity
  8
0
  6
CONTINUOUS
 62
     7
100
AcDbLine
 10
365.5000000000545
 20
308.4337338334286
 30
0.0
 11
365.5000000000546
 21
307.2499999959126
 31
0.0
  0
LINE
  5
EC
330
1F
100
AcDbEntity
  8
0
  6
CONTINUOUS
 62
     7
100
AcDbLine
 10
363.5000000000545
 20
308.4337338334284
 30
0.0
 11
363.5000000000546
 21
307.2499999959124
 31
0.0
  0
LINE
  5
ED
330
1F
100
AcDbEntity
  8
0
  6
CONTINUOUS
 62
     7
100
AcDbLine
 10
381.5000000000514
 20
337.7499999959143
 30
0.0
 11
379.5000000000514
 21
337.7499999959142
 31
0.0
  0
LINE
  5
EE
330
1F
100
AcDbEntity
  8
0
  6
CONTINUOUS
 62
     7
100
AcDbLine
 10
379.5000000000515
 20
336.5662661583982
 30
0.0
 11
379.5000000000514
 21
337.7499999959142
 31
0.0
  0
LINE
  5
EF
330
1F
100
AcDbEntity
  8
0
  6
CONTINUOUS
 62
     7
100
AcDbLine
 10
381.5000000000515
 20
336.5662661583983
 30
0.0
 11
381.5000000000514
 21
337.7499999959144
 31
0.0
  0
LINE
  5
F0
330
1F
100
AcDbEntity
  8
0
  6
CONTINUOUS
 62
     7
100
AcDbLine
 10
381.5000000000546
 20
307.2499999959144
 30
0.0
 11
379.5000000000546
 21
307.2499999959142
 31
0.0
  0
LINE
  5
F1
330
1F
100
AcDbEntity
  8
0
  6
CONTINUOUS
 62
     7
100
AcDbLine
 10
379.5000000000545
 20
308.4337338334302
 30
0.0
 11
379.5000000000546
 21
307.2499999959142
 31
0.0
  0
LINE
  5
F2
330
1F
100
AcDbEntity
  8
0
  6
CONTINUOUS
 62
     7
100
AcDbLine
 10
381.5000000000545
 20
308.4337338334304
 30
0.0
 11
381.5000000000546
 21
307.2499999959144
 31
0.0
  0
LINE
  5
F3
330
1F
100
AcDbEntity
  8
0
  6
CONTINUOUS
 62
     7
100
AcDbLine
 10
365.500000000062
 20
332.9918669146707
 30
0.0
 11
365.500000000083
 21
336.5662661583967
 31
0.0
  0
LINE
  5
F4
330
1F
100
AcDbEntity
  8
0
  6
CONTINUOUS
 62
     7
100
AcDbLine
 10
363.500000000062
 20
332.9918669146705
 30
0.0
 11
363.500000000083
 21
336.5662661583964
 31
0.0
  0
LINE
  5
F5
330
1F
100
AcDbEntity
  8
0
  6
CONTINUOUS
 62
     7
100
AcDbLine
 10
365.5000000000605
 20
312.5999999959127
 30
0.0
 11
365.5000000000859
 21
308.4337338334287
 31
0.0
  0
LINE
  5
F6
330
1F
100
AcDbEntity
  8
0
  6
CONTINUOUS
 62
     7
100
AcDbLine
 10
363.5000000000605
 20
312.5999999959124
 30
0.0
 11
363.5000000000859
 21
308.4337338334284
 31
0.0
  0
LINE
  5
F7
330
1F
100
AcDbEntity
  8
0
  6
CONTINUOUS
 62
     7
100
AcDbLine
 10
379.5000000000585
 20
332.3999999959142
 30
0.0
 11
379.500000000083
 21
336.5662661583982
 31
0.0
  0
LINE
  5
F8
330
1F
100
AcDbEntity
  8
0
  6
CONTINUOUS
 62
     7
100
AcDbLine
 10
381.5000000000585
 20
332.3999999959144
 30
0.0
 11
381.500000000083
 21
336.5662661583983
 31
0.0
  0
LINE
  5
F9
330
1F
100
AcDbEntity
  8
0
  6
CONTINUOUS
 62
     7
100
AcDbLine
 10
379.5000000000642
 20
312.0081330771561
 30
0.0
 11
379.500000000086
 21
308.4337338334302
 31
0.0
  0
LINE
  5
FA
330
1F
100
AcDbEntity
  8
0
  6
CONTINUOUS
 62
     7
100
AcDbLine
 10
381.5000000000642
 20
312.0081330771563
 30
0.0
 11
381.500000000086
 21
308.4337338334304
 31
0.0
  0
LINE
  5
FB
330
1F
100
AcDbEntity
  8
0
  6
CONTINUOUS
 62
     7
100
AcDbLine
 10
365.5000000000778
 20
332.3999999959127
 30
0.0
 11
365.5000000000777
 21
332.9918669146707
 31
0.0
  0
LINE
  5
FC
330
1F
100
AcDbEntity
  8
0
  6
CONTINUOUS
 62
     7
100
AcDbLine
 10
363.5000000000777
 20
332.9918669146705
 30
0.0
 11
363.5000000000778
 21
332.3999999959125
 31
0.0
  0
LINE
  5
FD
330
1F
100
AcDbEntity
  8
0
  6
CONTINUOUS
 62
     7
100
AcDbLine
 10
379.5000000000799
 20
312.5999999959141
 30
0.0
 11
379.5000000000799
 21
312.0081330771561
 31
0.0
  0
LINE
  5
FE
330
1F
100
AcDbEntity
  8
0
  6
CONTINUOUS
 62
     7
100
AcDbLine
 10
381.5000000000799
 20
312.0081330771563
 30
0.0
 11
381.5000000000799
 21
312.5999999959143
 31
0.0
  0
LINE
  5
FF
330
1F
100
AcDbEntity
  8
0
  6
CONTINUOUS
 62
   253
100
AcDbLine
 10
363.5000000000595
 20
323.2499999959124
 30
0.0
 11
365.3000000000915
 21
323.2499999959126
 31
0.0
  0
LINE
  5
100
330
1F
100
AcDbEntity
  8
0
  6
CONTINUOUS
 62
     7
100
AcDbLine
 10
365.5000000000755
 20
322.7499999959127
 30
0.0
 11
365.5000000000755
 21
322.9999999959127
 31
0.0
  0
LINE
  5
101
330
1F
100
AcDbEntity
  8
0
  6
CONTINUOUS
 62
     7
100
AcDbLine
 10
363.5000000000755
 20
323.2499999959124
 30
0.0
 11
363.5000000000755
 21
322.7499999959124
 31
0.0
  0
LINE
  5
102
330
1F
100
AcDbEntity
  8
0
  6
CONTINUOUS
 62
   253
100
AcDbLine
 10
365.3000000000912
 20
325.7499999959126
 30
0.0
 11
363.5000000000592
 21
325.7499999959124
 31
0.0
  0
LINE
  5
103
330
1F
100
AcDbEntity
  8
0
  6
CONTINUOUS
 62
     7
100
AcDbLine
 10
365.5000000000752
 20
325.9999999959127
 30
0.0
 11
365.5000000000751
 21
326.2499999959127
 31
0.0
  0
LINE
  5
104
330
1F
100
AcDbEntity
  8
0
  6
CONTINUOUS
 62
     7
100
AcDbLine
 10
363.5000000000751
 20
326.2499999959124
 30
0.0
 11
363.5000000000752
 21
325.7499999959124
 31
0.0
  0
LINE
  5
105
330
1F
100
AcDbEntity
  8
0
  6
CONTINUOUS
 62
   253
100
AcDbLine
 10
379.7000000000919
 20
319.2499999959142
 30
0.0
 11
381.50000000006
 21
319.2499999959144
 31
0.0
  0
LINE
  5
106
330
1F
100
AcDbEntity
  8
0
  6
CONTINUOUS
 62
     7
100
AcDbLine
 10
379.5000000000759
 20
318.9999999959141
 30
0.0
 11
379.5000000000759
 21
318.7499999959142
 31
0.0
  0
LINE
  5
107
330
1F
100
AcDbEntity
  8
0
  6
CONTINUOUS
 62
     7
100
AcDbLine
 10
381.5000000000759
 20
318.7499999959143
 30
0.0
 11
381.5000000000759
 21
319.2499999959144
 31
0.0
  0
LINE
  5
108
330
1F
100
AcDbEntity
  8
0
  6
CONTINUOUS
 62
   253
100
AcDbLine
 10
381.5000000000597
 20
321.7499999959144
 30
0.0
 11
379.7000000000917
 21
321.7499999959142
 31
0.0
  0
LINE
  5
109
330
1F
100
AcDbEntity
  8
0
  6
CONTINUOUS
 62
     7
100
AcDbLine
 10
379.5000000000756
 20
322.2499999959142
 30
0.0
 11
379.5000000000756
 21
321.9999999959142
 31
0.0
  0
LINE
  5
10A
330
1F
100
AcDbEntity
  8
0
  6
CONTINUOUS
 62
     7
100
AcDbLine
 10
381.5000000000757
 20
321.7499999959144
 30
0.0
 11
381.5000000000757
 21
322.2499999959144
 31
0.0
  0
LINE
  5
10B
330
1F
100
AcDbEntity
  8
0
  6
CONTINUOUS
 62
     7
100
AcDbLine
 10
363.5000000000595
 20
323.2499999959124
 30
0.0
 11
363.5000000000592
 21
325.7499999959124
 31
0.0
  0
LINE
  5
10C
330
1F
100
AcDbEntity
  8
0
  6
CONTINUOUS
 62
     7
100
AcDbLine
 10
381.50000000006
 20
319.2499999959144
 30
0.0
 11
381.5000000000597
 21
321.7499999959144
 31
0.0
  0
LINE
  5
10D
330
1F
100
AcDbEntity
  8
0
  6
CONTINUOUS
 62
     7
100
AcDbLine
 10
371.8999999999591
 20
320.1246052918698
 30
0.0
 11
371.8999999999591
 21
321.8999999959131
 31
0.0
  0
ARC
  5
10E
330
1F
100
AcDbEntity
  8
0
  6
CONTINUOUS
 62
     7
100
AcDbCircle
 10
372.500000000447
 20
322.4999999959133
 30
0.0
 40
2.449999999999994
100
AcDbArc
 50
255.8241964841336
 51
284.1758035158662
  0
LINE
  5
10F
330
1F
100
AcDbEntity
  8
0
  6
CONTINUOUS
 62
     7
100
AcDbLine
 10
373.0999999999588
 20
321.8999999959134
 30
0.0
 11
373.0999999999588
 21
320.1246052918701
 31
0.0
  0
LINE
  5
110
330
1F
100
AcDbEntity
  8
0
  6
CONTINUOUS
 62
     7
100
AcDbLine
 10
374.8753947044907
 20
321.8999999959133
 30
0.0
 11
373.1000000004689
 21
321.8999999959133
 31
0.0
  0
ARC
  5
111
330
1F
100
AcDbEntity
  8
0
  6
CONTINUOUS
 62
     7
100
AcDbCircle
 10
372.500000000447
 20
322.4999999959133
 30
0.0
 40
2.450000000000034
100
AcDbArc
 50
345.8241964841322
 51
14.17580351586781
  0
LINE
  5
112
330
1F
100
AcDbEntity
  8
0
  6
CONTINUOUS
 62
     7
100
AcDbLine
 10
373.1000000004687
 20
323.0999999959132
 30
0.0
 11
374.8753947044905
 21
323.0999999959132
 31
0.0
  0
LINE
  5
113
330
1F
100
AcDbEntity
  8
0
  6
CONTINUOUS
 62
     7
100
AcDbLine
 10
373.0999999999588
 20
324.8753946999568
 30
0.0
 11
373.0999999999588
 21
323.0999999959135
 31
0.0
  0
ARC
  5
114
330
1F
100
AcDbEntity
  8
0
  6
CONTINUOUS
 62
     7
100
AcDbCircle
 10
372.500000000447
 20
322.4999999959133
 30
0.0
 40
2.450000000000007
100
AcDbArc
 50
75.82419648413395
 51
104.1758035158664
  0
LINE
  5
115
330
1F
100
AcDbEntity
  8
0
  6
CONTINUOUS
 62
     7
100
AcDbLine
 10
371.8999999999591
 20
323.0999999959132
 30
0.0
 11
371.8999999999591
 21
324.8753946999565
 31
0.0
  0
LINE
  5
116
330
1F
100
AcDbEntity
  8
0
  6
CONTINUOUS
 62
     7
100
AcDbLine
 10
370.1246052964034
 20
323.0999999959132
 30
0.0
 11
371.9000000004687
 21
323.0999999959132
 31
0.0
  0
ARC
  5
117
330
1F
100
AcDbEntity
  8
0
  6
CONTINUOUS
 62
     7
100
AcDbCircle
 10
372.500000000447
 20
322.4999999959133
 30
0.0
 40
2.449999999999974
100
AcDbArc
 50
165.8241964841322
 51
194.1758035158677
  0
LINE
  5
118
330
1F
100
AcDbEntity
  8
0
  6
CONTINUOUS
 62
     7
100
AcDbLine
 10
371.9000000004688
 20
321.8999999959133
 30
0.0
 11
370.1246052964036
 21
321.8999999959133
 31
0.0
  0
CIRCLE
  5
119
330
1F
100
AcDbEntity
  8
0
  6
CONTINUOUS
 62
     7
100
AcDbCircle
 10
372.5000000003715
 20
322.4999999959133
 30
0.0
 40
4.750000000000032
  0
ARC
  5
11A
330
1F
100
AcDbEntity
  8
0
  6
CONTINUOUS
 62
     7
100
AcDbCircle
 10
372.5000000002858
 20
322.4999999959133
 30
0.0
 40
1.223055524728274
100
AcDbArc
 50
150.6216432830855
 51
209.3783567169145
  0
ARC
  5
11B
330
1F
100
AcDbEntity
  8
0
  6
CONTINUOUS
 62
     7
100
AcDbCircle
 10
372.5000000002858
 20
322.4999999959133
 30
0.0
 40
1.22305552472827
100
AcDbArc
 50
240.6216432830886
 51
299.3783567169119
  0
ARC
  5
11C
330
1F
100
AcDbEntity
  8
0
  6
CONTINUOUS
 62
     7
100
AcDbCircle
 10
372.5000000002858
 20
322.4999999959133
 30
0.0
 40
1.223055524728267
100
AcDbArc
 50
60.6216432830881
 51
119.3783567169113
  0
ARC
  5
11D
330
1F
100
AcDbEntity
  8
0
  6
CONTINUOUS
 62
     7
100
AcDbCircle
 10
372.5000000002858
 20
322.4999999959133
 30
0.0
 40
1.22305552472826
100
AcDbArc
 50
330.6216432830857
 51
29.3783567169142
  0
CIRCLE
  5
11E
330
1F
100
AcDbEntity
  8
0
  6
CONTINUOUS
 62
     7
100
AcDbCircle
 10
372.5000000001384
 20
322.4999999959133
 30
0.0
 40
5.000000000000004
  0
LINE
  5
11F
330
1F
100
AcDbEntity
  8
0
  6
CONTINUOUS
 62
     7
100
AcDbLine
 10
495.6000000001204
 20
326.0000000040869
 30
0.0
 11
495.6000000001206
 21
323.0000000040869
 31
0.0
  0
LINE
  5
120
330
1F
100
AcDbEntity
  8
0
  6
CONTINUOUS
 62
     7
100
AcDbLine
 10
495.6000000001206
 20
323.0000000040869
 30
0.0
 11
495.3000000000886
 21
323.0000000040869
 31
0.0
  0
LINE
  5
121
330
1F
100
AcDbEntity
  8
0
  6
CONTINUOUS
 62
     7
100
AcDbLine
 10
495.3000000000886
 20
323.0000000040869
 30
0.0
 11
495.3000000000883
 21
326.0000000040869
 31
0.0
  0
LINE
  5
122
330
1F
100
AcDbEntity
  8
0
  6
CONTINUOUS
 62
     7
100
AcDbLine
 10
495.3000000000883
 20
326.0000000040869
 30
0.0
 11
495.6000000001204
 21
326.0000000040869
 31
0.0
  0
LINE
  5
123
330
1F
100
AcDbEntity
  8
0
  6
CONTINUOUS
 62
     7
100
AcDbLine
 10
495.600000000089
 20
317.4999494955534
 30
0.0
 11
495.600000000089
 21
316.9205644345221
 31
0.0
  0
LINE
  5
124
330
1F
100
AcDbEntity
  8
0
  6
CONTINUOUS
 62
     7
100
AcDbLine
 10
495.6000000001206
 20
323.0000000040869
 30
0.0
 11
495.6000000001206
 21
322.7601020555172
 31
0.0
  0
LINE
  5
125
330
1F
100
AcDbEntity
  8
0
  6
CONTINUOUS
 62
     7
100
AcDbLine
 10
495.6000000001203
 20
326.2398979526567
 30
0.0
 11
495.6000000001204
 21
326.0000000040869
 31
0.0
  0
LINE
  5
126
330
1F
100
AcDbEntity
  8
0
  6
CONTINUOUS
 62
     7
100
AcDbLine
 10
509.4000000000882
 20
327.5000505068827
 30
0.0
 11
509.4000000000882
 21
328.0794355736528
 31
0.0
  0
LINE
  5
127
330
1F
100
AcDbEntity
  8
0
  6
CONTINUOUS
 62
     7
100
AcDbLine
 10
509.4000000001208
 20
322.2398979526315
 30
0.0
 11
509.4000000001208
 21
322.000000004088
 31
0.0
  0
LINE
  5
128
330
1F
100
AcDbEntity
  8
0
  6
CONTINUOUS
 62
     7
100
AcDbLine
 10
509.4000000001209
 20
319.000000004088
 30
0.0
 11
509.4000000001208
 21
322.000000004088
 31
0.0
  0
LINE
  5
129
330
1F
100
AcDbEntity
  8
0
  6
CONTINUOUS
 62
     7
100
AcDbLine
 10
509.4000000001209
 20
319.000000004088
 30
0.0
 11
509.4000000001209
 21
318.7601020555445
 31
0.0
  0
LINE
  5
12A
330
1F
100
AcDbEntity
  8
0
  6
CONTINUOUS
 62
     7
100
AcDbLine
 10
509.7000000000886
 20
322.000000004088
 30
0.0
 11
509.7000000000887
 21
319.000000004088
 31
0.0
  0
LINE
  5
12B
330
1F
100
AcDbEntity
  8
0
  6
CONTINUOUS
 62
     7
100
AcDbLine
 10
509.7000000000887
 20
319.000000004088
 30
0.0
 11
509.4000000001209
 21
319.000000004088
 31
0.0
  0
LINE
  5
12C
330
1F
100
AcDbEntity
  8
0
  6
CONTINUOUS
 62
     7
100
AcDbLine
 10
509.4000000001208
 20
322.000000004088
 30
0.0
 11
509.7000000000886
 21
322.000000004088
 31
0.0
  0
LINE
  5
12D
330
1F
100
AcDbEntity
  8
0
  6
CONTINUOUS
 62
     7
100
AcDbLine
 10
509.3999999998035
 20
310.2677398535598
 30
0.0
 11
495.5999999998033
 21
310.2677398535587
 31
0.0
  0
LINE
  5
12E
330
1F
100
AcDbEntity
  8
0
  6
CONTINUOUS
 62
     7
100
AcDbLine
 10
509.3999999999099
 20
312.6000000040879
 30
0.0
 11
509.3999999998035
 21
310.2677398535598
 31
0.0
  0
LINE
  5
12F
330
1F
100
AcDbEntity
  8
0
  6
CONTINUOUS
 62
     7
100
AcDbLine
 10
495.6000000001074
 20
316.9205644345221
 30
0.0
 11
495.5999999998033
 21
310.2677398535588
 31
0.0
  0
LINE
  5
130
330
1F
100
AcDbEntity
  8
0
  6
CONTINUOUS
 62
     7
100
AcDbLine
 10
509.4000000001067
 20
328.0794355736528
 30
0.0
 11
509.3999999998014
 21
334.7322601546161
 31
0.0
  0
LINE
  5
131
330
1F
100
AcDbEntity
  8
0
  6
CONTINUOUS
 62
     7
100
AcDbLine
 10
495.5999999999084
 20
332.400000004087
 30
0.0
 11
495.5999999998015
 21
334.7322601546151
 31
0.0
  0
LINE
  5
132
330
1F
100
AcDbEntity
  8
0
  6
CONTINUOUS
 62
     7
100
AcDbLine
 10
509.3999999997724
 20
310.2677398535599
 30
0.0
 11
509.3999999997724
 21
309.5027187346587
 31
0.0
  0
LINE
  5
133
330
1F
100
AcDbEntity
  8
0
  6
CONTINUOUS
 62
     7
100
AcDbLine
 10
495.5999999997722
 20
310.2677398535588
 30
0.0
 11
495.5999999997723
 21
309.5027187346576
 31
0.0
  0
LINE
  5
134
330
1F
100
AcDbEntity
  8
0
  6
CONTINUOUS
 62
     7
100
AcDbLine
 10
509.3999999997704
 20
334.7322601546161
 30
0.0
 11
509.3999999997703
 21
335.4972812735173
 31
0.0
  0
LINE
  5
135
330
1F
100
AcDbEntity
  8
0
  6
CONTINUOUS
 62
     7
100
AcDbLine
 10
495.5999999997703
 20
334.7322601546151
 30
0.0
 11
495.5999999997703
 21
335.4972812735163
 31
0.0
  0
LINE
  5
136
330
1F
100
AcDbEntity
  8
0
  6
CONTINUOUS
 62
     7
100
AcDbLine
 10
493.5000000001338
 20
317.5000000040868
 30
0.0
 11
493.5000000001334
 21
322.7500000040868
 31
0.0
  0
LINE
  5
137
330
1F
100
AcDbEntity
  8
0
  6
CONTINUOUS
 62
     7
100
AcDbLine
 10
493.5000000001334
 20
322.7500000040868
 30
0.0
 11
495.1000000001847
 21
322.7500000040869
 31
0.0
  0
LINE
  5
138
330
1F
100
AcDbEntity
  8
0
  6
CONTINUOUS
 62
     7
100
AcDbLine
 10
493.5000000001338
 20
317.5000000040868
 30
0.0
 11
495.1000000001851
 21
317.5000000040869
 31
0.0
  0
LINE
  5
139
330
1F
100
AcDbEntity
  8
0
  6
CONTINUOUS
 62
     7
100
AcDbLine
 10
493.5000000001331
 20
326.2500000040868
 30
0.0
 11
493.5000000001327
 21
332.4000000040867
 31
0.0
  0
LINE
  5
13A
330
1F
100
AcDbEntity
  8
0
  6
CONTINUOUS
 62
     7
100
AcDbLine
 10
495.100000000184
 20
332.4000000040868
 30
0.0
 11
493.5000000001327
 21
332.4000000040867
 31
0.0
  0
LINE
  5
13B
330
1F
100
AcDbEntity
  8
0
  6
CONTINUOUS
 62
     7
100
AcDbLine
 10
495.1000000001844
 20
326.2500000040869
 30
0.0
 11
493.5000000001331
 21
326.2500000040868
 31
0.0
  0
ARC
  5
13C
330
1F
100
AcDbEntity
  8
0
  6
CONTINUOUS
 62
     7
100
AcDbCircle
 10
495.5000000001847
 20
323.2500000040869
 30
0.0
 40
0.5000000000000004
100
AcDbArc
 50
270.0000000000048
 51
0.0000000000041496
  0
LINE
  5
13D
330
1F
100
AcDbEntity
  8
0
  6
CONTINUOUS
 62
     7
100
AcDbLine
 10
496.0000000001845
 20
325.7500000040869
 30
0.0
 11
496.0000000001847
 21
323.2500000040869
 31
0.0
  0
ARC
  5
13E
330
1F
100
AcDbEntity
  8
0
  6
CONTINUOUS
 62
     7
100
AcDbCircle
 10
495.5000000001845
 20
325.7500000040869
 30
0.0
 40
0.5000000000000004
100
AcDbArc
 50
0.0000000000042064
 51
90.00000000000398
  0
ARC
  5
13F
330
1F
100
AcDbEntity
  8
0
  6
CONTINUOUS
 62
     7
100
AcDbCircle
 10
503.0573593130649
 20
329.4000000040875
 30
0.0
 40
3.000000000000028
100
AcDbArc
 50
45.00000000000435
 51
90.00000000000426
  0
LINE
  5
140
330
1F
100
AcDbEntity
  8
0
  6
CONTINUOUS
 62
     7
100
AcDbLine
 10
505.1786796566244
 20
331.5213203476473
 30
0.0
 11
509.0535533907776
 21
327.6464466134947
 31
0.0
  0
ARC
  5
141
330
1F
100
AcDbEntity
  8
0
  6
CONTINUOUS
 62
     7
100
AcDbCircle
 10
509.4071067813709
 20
328.000000004088
 30
0.0
 40
0.5000000000000004
100
AcDbArc
 50
225.0000000000045
 51
270.0000000000048
  0
LINE
  5
142
330
1F
100
AcDbEntity
  8
0
  6
CONTINUOUS
 62
     7
100
AcDbLine
 10
509.4071067813709
 20
327.500000004088
 30
0.0
 11
509.9000000001843
 21
327.500000004088
 31
0.0
  0
LINE
  5
143
330
1F
100
AcDbEntity
  8
0
  6
CONTINUOUS
 62
     7
100
AcDbLine
 10
509.9000000001848
 20
322.2500000040881
 30
0.0
 11
509.5000000001848
 21
322.2500000040881
 31
0.0
  0
ARC
  5
144
330
1F
100
AcDbEntity
  8
0
  6
CONTINUOUS
 62
     7
100
AcDbCircle
 10
509.5000000001848
 20
321.7500000040881
 30
0.0
 40
0.4999999999999449
100
AcDbArc
 50
90.00000000000477
 51
180.0000000000045
  0
LINE
  5
145
330
1F
100
AcDbEntity
  8
0
  6
CONTINUOUS
 62
     7
100
AcDbLine
 10
509.000000000185
 20
321.750000004088
 30
0.0
 11
509.0000000001851
 21
319.250000004088
 31
0.0
  0
ARC
  5
146
330
1F
100
AcDbEntity
  8
0
  6
CONTINUOUS
 62
     7
100
AcDbCircle
 10
509.500000000185
 20
319.250000004088
 30
0.0
 40
0.5000000000000004
100
AcDbArc
 50
180.0000000000052
 51
270.0000000000032
  0
LINE
  5
147
330
1F
100
AcDbEntity
  8
0
  6
CONTINUOUS
 62
     7
100
AcDbLine
 10
509.9000000001849
 20
318.750000004088
 30
0.0
 11
509.500000000185
 21
318.750000004088
 31
0.0
  0
LINE
  5
148
330
1F
100
AcDbEntity
  8
0
  6
CONTINUOUS
 62
     7
100
AcDbLine
 10
501.9426406873046
 20
312.6000000040874
 30
0.0
 11
509.9000000001855
 21
312.600000004088
 31
0.0
  0
ARC
  5
149
330
1F
100
AcDbEntity
  8
0
  6
CONTINUOUS
 62
     7
100
AcDbCircle
 10
501.9426406873045
 20
315.6000000040874
 30
0.0
 40
3.000000000000048
100
AcDbArc
 50
225.0000000000043
 51
270.0000000000043
  0
LINE
  5
14A
330
1F
100
AcDbEntity
  8
0
  6
CONTINUOUS
 62
     7
100
AcDbLine
 10
499.821320343745
 20
313.4786796605276
 30
0.0
 11
495.9464466095918
 21
317.3535533946803
 31
0.0
  0
ARC
  5
14B
330
1F
100
AcDbEntity
  8
0
  6
CONTINUOUS
 62
     7
100
AcDbCircle
 10
495.5928932189985
 20
317.0000000040869
 30
0.0
 40
0.5000000000000004
100
AcDbArc
 50
45.00000000000448
 51
90.00000000000477
  0
LINE
  5
14C
330
1F
100
AcDbEntity
  8
0
  6
CONTINUOUS
 62
     7
100
AcDbLine
 10
495.1000000001847
 20
322.7500000040869
 30
0.0
 11
495.5000000001847
 21
322.7500000040869
 31
0.0
  0
LINE
  5
14D
330
1F
100
AcDbEntity
  8
0
  6
CONTINUOUS
 62
     7
100
AcDbLine
 10
495.100000000184
 20
332.4000000040869
 30
0.0
 11
503.0573593130647
 21
332.4000000040875
 31
0.0
  0
LINE
  5
14E
330
1F
100
AcDbEntity
  8
0
  6
CONTINUOUS
 62
     7
100
AcDbLine
 10
495.1000000001844
 20
326.2500000040869
 30
0.0
 11
495.5000000001845
 21
326.2500000040869
 31
0.0
  0
LINE
  5
14F
330
1F
100
AcDbEntity
  8
0
  6
CONTINUOUS
 62
     7
100
AcDbLine
 10
495.5928932189985
 20
317.5000000040869
 30
0.0
 11
495.1000000001851
 21
317.5000000040869
 31
0.0
  0
LINE
  5
150
330
1F
100
AcDbEntity
  8
0
  6
CONTINUOUS
 62
     7
100
AcDbLine
 10
511.5000000001342
 20
312.6000000040881
 30
0.0
 11
511.5000000001338
 21
318.7500000040881
 31
0.0
  0
LINE
  5
151
330
1F
100
AcDbEntity
  8
0
  6
CONTINUOUS
 62
     7
100
AcDbLine
 10
511.5000000001338
 20
318.7500000040881
 30
0.0
 11
509.9000000001849
 21
318.750000004088
 31
0.0
  0
LINE
  5
152
330
1F
100
AcDbEntity
  8
0
  6
CONTINUOUS
 62
     7
100
AcDbLine
 10
509.9000000001855
 20
312.600000004088
 30
0.0
 11
511.5000000001342
 21
312.6000000040881
 31
0.0
  0
LINE
  5
153
330
1F
100
AcDbEntity
  8
0
  6
CONTINUOUS
 62
     7
100
AcDbLine
 10
511.5000000001335
 20
322.2500000040881
 30
0.0
 11
511.5000000001332
 21
327.5000000040881
 31
0.0
  0
LINE
  5
154
330
1F
100
AcDbEntity
  8
0
  6
CONTINUOUS
 62
     7
100
AcDbLine
 10
509.9000000001848
 20
322.2500000040881
 30
0.0
 11
511.5000000001335
 21
322.2500000040881
 31
0.0
  0
LINE
  5
155
330
1F
100
AcDbEntity
  8
0
  6
CONTINUOUS
 62
     7
100
AcDbLine
 10
511.5000000001332
 20
327.5000000040881
 30
0.0
 11
509.9000000001843
 21
327.500000004088
 31
0.0
  0
LINE
  5
156
330
1F
100
AcDbEntity
  8
0
  6
CONTINUOUS
 62
     7
100
AcDbLine
 10
495.5000000001152
 20
316.6999600160829
 30
0.0
 11
495.5000000001151
 21
317.5000000040869
 31
0.0
  0
LINE
  5
157
330
1F
100
AcDbEntity
  8
0
  6
CONTINUOUS
 62
     7
100
AcDbLine
 10
493.5000000001151
 20
317.5000000040868
 30
0.0
 11
493.5000000001152
 21
316.6999600160828
 31
0.0
  0
LINE
  5
158
330
1F
100
AcDbEntity
  8
0
  6
CONTINUOUS
 62
     7
100
AcDbLine
 10
509.5000000001143
 20
328.300039992092
 30
0.0
 11
509.5000000001144
 21
327.500000004088
 31
0.0
  0
LINE
  5
159
330
1F
100
AcDbEntity
  8
0
  6
CONTINUOUS
 62
     7
100
AcDbLine
 10
511.5000000001144
 20
327.5000000040881
 30
0.0
 11
511.5000000001143
 21
328.3000399920921
 31
0.0
  0
LINE
  5
15A
330
1F
100
AcDbEntity
  8
0
  6
CONTINUOUS
 62
     7
100
AcDbLine
 10
495.5000000000837
 20
316.6999600160829
 30
0.0
 11
495.5000000000573
 21
312.600000004087
 31
0.0
  0
LINE
  5
15B
330
1F
100
AcDbEntity
  8
0
  6
CONTINUOUS
 62
     7
100
AcDbLine
 10
493.5000000000573
 20
312.6000000040867
 30
0.0
 11
493.5000000000837
 21
316.6999600160828
 31
0.0
  0
LINE
  5
15C
330
1F
100
AcDbEntity
  8
0
  6
CONTINUOUS
 62
     7
100
AcDbLine
 10
509.5000000000829
 20
328.300039992092
 30
0.0
 11
509.5000000000558
 21
332.400000004088
 31
0.0
  0
LINE
  5
15D
330
1F
100
AcDbEntity
  8
0
  6
CONTINUOUS
 62
     7
100
AcDbLine
 10
511.5000000000558
 20
332.4000000040882
 30
0.0
 11
511.5000000000829
 21
328.3000399920921
 31
0.0
  0
LINE
  5
15E
330
1F
100
AcDbEntity
  8
0
  6
CONTINUOUS
 62
     7
100
AcDbLine
 10
493.5000000000511
 20
307.2500000040868
 30
0.0
 11
495.5000000000511
 21
307.2500000040869
 31
0.0
  0
LINE
  5
15F
330
1F
100
AcDbEntity
  8
0
  6
CONTINUOUS
 62
     7
100
AcDbLine
 10
495.500000000051
 20
308.4337338416029
 30
0.0
 11
495.5000000000511
 21
307.2500000040869
 31
0.0
  0
LINE
  5
160
330
1F
100
AcDbEntity
  8
0
  6
CONTINUOUS
 62
     7
100
AcDbLine
 10
493.500000000051
 20
308.4337338416028
 30
0.0
 11
493.5000000000511
 21
307.2500000040868
 31
0.0
  0
LINE
  5
161
330
1F
100
AcDbEntity
  8
0
  6
CONTINUOUS
 62
     7
100
AcDbLine
 10
493.5000000000488
 20
337.7500000040868
 30
0.0
 11
495.5000000000488
 21
337.7500000040869
 31
0.0
  0
LINE
  5
162
330
1F
100
AcDbEntity
  8
0
  6
CONTINUOUS
 62
     7
100
AcDbLine
 10
495.5000000000489
 20
336.5662661665709
 30
0.0
 11
495.5000000000488
 21
337.7500000040869
 31
0.0
  0
LINE
  5
163
330
1F
100
AcDbEntity
  8
0
  6
CONTINUOUS
 62
     7
100
AcDbLine
 10
493.5000000000489
 20
336.5662661665708
 30
0.0
 11
493.5000000000488
 21
337.7500000040868
 31
0.0
  0
LINE
  5
164
330
1F
100
AcDbEntity
  8
0
  6
CONTINUOUS
 62
     7
100
AcDbLine
 10
511.5000000000511
 20
307.2500000040881
 30
0.0
 11
509.5000000000511
 21
307.250000004088
 31
0.0
  0
LINE
  5
165
330
1F
100
AcDbEntity
  8
0
  6
CONTINUOUS
 62
     7
100
AcDbLine
 10
509.500000000051
 20
308.433733841604
 30
0.0
 11
509.5000000000511
 21
307.250000004088
 31
0.0
  0
LINE
  5
166
330
1F
100
AcDbEntity
  8
0
  6
CONTINUOUS
 62
     7
100
AcDbLine
 10
511.500000000051
 20
308.4337338416042
 30
0.0
 11
511.5000000000511
 21
307.2500000040881
 31
0.0
  0
LINE
  5
167
330
1F
100
AcDbEntity
  8
0
  6
CONTINUOUS
 62
     7
100
AcDbLine
 10
511.5000000000488
 20
337.7500000040881
 30
0.0
 11
509.5000000000488
 21
337.750000004088
 31
0.0
  0
LINE
  5
168
330
1F
100
AcDbEntity
  8
0
  6
CONTINUOUS
 62
     7
100
AcDbLine
 10
509.5000000000489
 20
336.5662661665719
 30
0.0
 11
509.5000000000488
 21
337.750000004088
 31
0.0
  0
LINE
  5
169
330
1F
100
AcDbEntity
  8
0
  6
CONTINUOUS
 62
     7
100
AcDbLine
 10
511.5000000000489
 20
336.5662661665721
 30
0.0
 11
511.5000000000488
 21
337.7500000040881
 31
0.0
  0
LINE
  5
16A
330
1F
100
AcDbEntity
  8
0
  6
CONTINUOUS
 62
     7
100
AcDbLine
 10
495.5000000000573
 20
312.600000004087
 30
0.0
 11
495.5000000000825
 21
308.4337338416029
 31
0.0
  0
LINE
  5
16B
330
1F
100
AcDbEntity
  8
0
  6
CONTINUOUS
 62
     7
100
AcDbLine
 10
493.5000000000573
 20
312.6000000040867
 30
0.0
 11
493.5000000000825
 21
308.4337338416028
 31
0.0
  0
LINE
  5
16C
330
1F
100
AcDbEntity
  8
0
  6
CONTINUOUS
 62
     7
100
AcDbLine
 10
495.5000000000593
 20
332.9918669228449
 30
0.0
 11
495.5000000000804
 21
336.5662661665709
 31
0.0
  0
LINE
  5
16D
330
1F
100
AcDbEntity
  8
0
  6
CONTINUOUS
 62
     7
100
AcDbLine
 10
493.5000000000593
 20
332.9918669228447
 30
0.0
 11
493.5000000000804
 21
336.5662661665708
 31
0.0
  0
LINE
  5
16E
330
1F
100
AcDbEntity
  8
0
  6
CONTINUOUS
 62
     7
100
AcDbLine
 10
509.5000000000609
 20
312.00813308533
 30
0.0
 11
509.5000000000824
 21
308.433733841604
 31
0.0
  0
LINE
  5
16F
330
1F
100
AcDbEntity
  8
0
  6
CONTINUOUS
 62
     7
100
AcDbLine
 10
511.5000000000609
 20
312.0081330853301
 30
0.0
 11
511.5000000000824
 21
308.4337338416042
 31
0.0
  0
LINE
  5
170
330
1F
100
AcDbEntity
  8
0
  6
CONTINUOUS
 62
     7
100
AcDbLine
 10
509.5000000000558
 20
332.400000004088
 30
0.0
 11
509.5000000000803
 21
336.5662661665719
 31
0.0
  0
LINE
  5
171
330
1F
100
AcDbEntity
  8
0
  6
CONTINUOUS
 62
     7
100
AcDbLine
 10
511.5000000000558
 20
332.4000000040882
 30
0.0
 11
511.5000000000803
 21
336.5662661665721
 31
0.0
  0
LINE
  5
172
330
1F
100
AcDbEntity
  8
0
  6
CONTINUOUS
 62
     7
100
AcDbLine
 10
495.5000000000751
 20
332.4000000040869
 30
0.0
 11
495.500000000075
 21
332.9918669228449
 31
0.0
  0
LINE
  5
173
330
1F
100
AcDbEntity
  8
0
  6
CONTINUOUS
 62
     7
100
AcDbLine
 10
493.500000000075
 20
332.9918669228447
 30
0.0
 11
493.5000000000751
 21
332.4000000040867
 31
0.0
  0
LINE
  5
174
330
1F
100
AcDbEntity
  8
0
  6
CONTINUOUS
 62
     7
100
AcDbLine
 10
509.5000000000767
 20
312.600000004088
 30
0.0
 11
509.5000000000767
 21
312.00813308533
 31
0.0
  0
LINE
  5
175
330
1F
100
AcDbEntity
  8
0
  6
CONTINUOUS
 62
     7
100
AcDbLine
 10
511.5000000000767
 20
312.0081330853301
 30
0.0
 11
511.5000000000767
 21
312.6000000040881
 31
0.0
  0
LINE
  5
176
330
1F
100
AcDbEntity
  8
0
  6
CONTINUOUS
 62
   253
100
AcDbLine
 10
493.5000000000564
 20
323.2500000040868
 30
0.0
 11
495.3000000000885
 21
323.2500000040869
 31
0.0
  0
LINE
  5
177
330
1F
100
AcDbEntity
  8
0
  6
CONTINUOUS
 62
     7
100
AcDbLine
 10
495.5000000000725
 20
322.7500000040869
 30
0.0
 11
495.5000000000725
 21
323.0000000040869
 31
0.0
  0
LINE
  5
178
330
1F
100
AcDbEntity
  8
0
  6
CONTINUOUS
 62
     7
100
AcDbLine
 10
493.5000000000725
 20
323.2500000040868
 30
0.0
 11
493.5000000000725
 21
322.7500000040868
 31
0.0
  0
LINE
  5
179
330
1F
100
AcDbEntity
  8
0
  6
CONTINUOUS
 62
   253
100
AcDbLine
 10
495.3000000000883
 20
325.7500000040869
 30
0.0
 11
493.5000000000563
 21
325.7500000040868
 31
0.0
  0
LINE
  5
17A
330
1F
100
AcDbEntity
  8
0
  6
CONTINUOUS
 62
     7
100
AcDbLine
 10
495.5000000000722
 20
326.0000000040869
 30
0.0
 11
495.5000000000722
 21
326.2500000040869
 31
0.0
  0
LINE
  5
17B
330
1F
100
AcDbEntity
  8
0
  6
CONTINUOUS
 62
     7
100
AcDbLine
 10
493.5000000000722
 20
326.2500000040868
 30
0.0
 11
493.5000000000723
 21
325.7500000040868
 31
0.0
  0
LINE
  5
17C
330
1F
100
AcDbEntity
  8
0
  6
CONTINUOUS
 62
   253
100
AcDbLine
 10
509.7000000000887
 20
319.250000004088
 30
0.0
 11
511.5000000000568
 21
319.2500000040881
 31
0.0
  0
LINE
  5
17D
330
1F
100
AcDbEntity
  8
0
  6
CONTINUOUS
 62
     7
100
AcDbLine
 10
509.5000000000728
 20
319.000000004088
 30
0.0
 11
509.5000000000729
 21
318.750000004088
 31
0.0
  0
LINE
  5
17E
330
1F
100
AcDbEntity
  8
0
  6
CONTINUOUS
 62
     7
100
AcDbLine
 10
511.5000000000729
 20
318.7500000040881
 30
0.0
 11
511.5000000000728
 21
319.2500000040881
 31
0.0
  0
LINE
  5
17F
330
1F
100
AcDbEntity
  8
0
  6
CONTINUOUS
 62
   253
100
AcDbLine
 10
511.5000000000567
 20
321.7500000040881
 30
0.0
 11
509.7000000000886
 21
321.7500000040881
 31
0.0
  0
LINE
  5
180
330
1F
100
AcDbEntity
  8
0
  6
CONTINUOUS
 62
     7
100
AcDbLine
 10
509.5000000000724
 20
322.250000004088
 30
0.0
 11
509.5000000000724
 21
322.000000004088
 31
0.0
  0
LINE
  5
181
330
1F
100
AcDbEntity
  8
0
  6
CONTINUOUS
 62
     7
100
AcDbLine
 10
511.5000000000725
 20
321.7500000040881
 30
0.0
 11
511.5000000000725
 21
322.2500000040881
 31
0.0
  0
LINE
  5
182
330
1F
100
AcDbEntity
  8
0
  6
CONTINUOUS
 62
     7
100
AcDbLine
 10
493.5000000000564
 20
323.2500000040868
 30
0.0
 11
493.5000000000563
 21
325.7500000040868
 31
0.0
  0
LINE
  5
183
330
1F
100
AcDbEntity
  8
0
  6
CONTINUOUS
 62
     7
100
AcDbLine
 10
511.5000000000568
 20
319.2500000040881
 30
0.0
 11
511.5000000000567
 21
321.7500000040881
 31
0.0
  0
LINE
  5
184
330
1F
100
AcDbEntity
  8
0
  6
CONTINUOUS
 62
     7
100
AcDbLine
 10
504.8753947044897
 20
321.9000000040867
 30
0.0
 11
503.1000000004676
 21
321.9000000040867
 31
0.0
  0
ARC
  5
185
330
1F
100
AcDbEntity
  8
0
  6
CONTINUOUS
 62
     7
100
AcDbCircle
 10
502.5000000004458
 20
322.5000000040868
 30
0.0
 40
2.450000000000035
100
AcDbArc
 50
345.8241964841271
 51
14.17580351587293
  0
LINE
  5
186
330
1F
100
AcDbEntity
  8
0
  6
CONTINUOUS
 62
     7
100
AcDbLine
 10
503.1000000004676
 20
323.1000000040867
 30
0.0
 11
504.8753947044897
 21
323.1000000040867
 31
0.0
  0
LINE
  5
187
330
1F
100
AcDbEntity
  8
0
  6
CONTINUOUS
 62
     7
100
AcDbLine
 10
503.0999999999572
 20
324.8753947081295
 30
0.0
 11
503.0999999999572
 21
323.1000000040872
 31
0.0
  0
ARC
  5
188
330
1F
100
AcDbEntity
  8
0
  6
CONTINUOUS
 62
     7
100
AcDbCircle
 10
502.5000000004458
 20
322.5000000040868
 30
0.0
 40
2.450000000000007
100
AcDbArc
 50
75.8241964841389
 51
104.1758035158609
  0
LINE
  5
189
330
1F
100
AcDbEntity
  8
0
  6
CONTINUOUS
 62
     7
100
AcDbLine
 10
501.8999999999579
 20
323.1000000040864
 30
0.0
 11
501.8999999999579
 21
324.8753947081287
 31
0.0
  0
LINE
  5
18A
330
1F
100
AcDbEntity
  8
0
  6
CONTINUOUS
 62
     7
100
AcDbLine
 10
500.1246052964019
 20
323.1000000040867
 30
0.0
 11
501.9000000004676
 21
323.1000000040867
 31
0.0
  0
ARC
  5
18B
330
1F
100
AcDbEntity
  8
0
  6
CONTINUOUS
 62
     7
100
AcDbCircle
 10
502.5000000004458
 20
322.5000000040868
 30
0.0
 40
2.450000000000028
100
AcDbArc
 50
165.824196484127
 51
194.175803515873
  0
LINE
  5
18C
330
1F
100
AcDbEntity
  8
0
  6
CONTINUOUS
 62
     7
100
AcDbLine
 10
501.9000000004675
 20
321.9000000040867
 30
0.0
 11
500.1246052964019
 21
321.9000000040867
 31
0.0
  0
LINE
  5
18D
330
1F
100
AcDbEntity
  8
0
  6
CONTINUOUS
 62
     7
100
AcDbLine
 10
501.8999999999579
 20
320.1246053000439
 30
0.0
 11
501.8999999999579
 21
321.9000000040862
 31
0.0
  0
ARC
  5
18E
330
1F
100
AcDbEntity
  8
0
  6
CONTINUOUS
 62
     7
100
AcDbCircle
 10
502.5000000004458
 20
322.5000000040868
 30
0.0
 40
2.44999999999998
100
AcDbArc
 50
255.8241964841391
 51
284.1758035158612
  0
LINE
  5
18F
330
1F
100
AcDbEntity
  8
0
  6
CONTINUOUS
 62
     7
100
AcDbLine
 10
503.0999999999572
 20
321.900000004087
 30
0.0
 11
503.0999999999572
 21
320.1246053000447
 31
0.0
  0
CIRCLE
  5
190
330
1F
100
AcDbEntity
  8
0
  6
CONTINUOUS
 62
     7
100
AcDbCircle
 10
502.5000000003703
 20
322.5000000040868
 30
0.0
 40
4.749999999999976
  0
ARC
  5
191
330
1F
100
AcDbEntity
  8
0
  6
CONTINUOUS
 62
     7
100
AcDbCircle
 10
502.5000000002846
 20
322.5000000040868
 30
0.0
 40
1.223055524728355
100
AcDbArc
 50
150.6216432830765
 51
209.3783567169236
  0
ARC
  5
192
330
1F
100
AcDbEntity
  8
0
  6
CONTINUOUS
 62
     7
100
AcDbCircle
 10
502.5000000002846
 20
322.5000000040868
 30
0.0
 40
1.223055524728285
100
AcDbArc
 50
240.6216432830974
 51
299.3783567169018
  0
ARC
  5
193
330
1F
100
AcDbEntity
  8
0
  6
CONTINUOUS
 62
     7
100
AcDbCircle
 10
502.5000000002846
 20
322.5000000040868
 30
0.0
 40
1.223055524728255
100
AcDbArc
 50
60.62164328309825
 51
119.3783567169026
  0
ARC
  5
194
330
1F
100
AcDbEntity
  8
0
  6
CONTINUOUS
 62
     7
100
AcDbCircle
 10
502.5000000002846
 20
322.5000000040868
 30
0.0
 40
1.223055524728258
100
AcDbArc
 50
330.6216432830763
 51
29.37835671692374
  0
CIRCLE
  5
195
330
1F
100
AcDbEntity
  8
0
  6
CONTINUOUS
 62
     7
100
AcDbCircle
 10
502.5000000001373
 20
322.5000000040868
 30
0.0
 40
5.000000000000004
  0
LINE
  5
196
330
1F
100
AcDbEntity
  8
0
  6
CONTINUOUS
 62
     7
100
AcDbLine
 10
476.6573423986559
 20
300.5
 30
0.0
 11
396.6573423986559
 21
300.5
 31
0.0
  0
LINE
  5
197
330
1F
100
AcDbEntity
  8
0
  6
CONTINUOUS
 62
     7
100
AcDbLine
 10
476.6573423986559
 20
300.5
 30
0.0
 11
476.6573423986559
 21
302.5
 31
0.0
  0
LINE
  5
198
330
1F
100
AcDbEntity
  8
0
  6
CONTINUOUS
 62
     7
100
AcDbLine
 10
396.6573423986559
 20
300.5
 30
0.0
 11
396.6573423986559
 21
302.5
 31
0.0
  0
LINE
  5
199
330
1F
100
AcDbEntity
  8
0
  6
CONTINUOUS
 62
     7
100
AcDbLine
 10
476.6573423986559
 20
302.5
 30
0.0
 11
476.6573423986559
 21
342.5
 31
0.0
  0
LINE
  5
19A
330
1F
100
AcDbEntity
  8
0
  6
CONTINUOUS
 62
     7
100
AcDbLine
 10
396.6573423986559
 20
302.5
 30
0.0
 11
396.6573423986559
 21
342.5
 31
0.0
  0
LINE
  5
19B
330
1F
100
AcDbEntity
  8
0
  6
CONTINUOUS
 62
     7
100
AcDbLine
 10
476.6573423986559
 20
344.5
 30
0.0
 11
396.6573423986559
 21
344.5
 31
0.0
  0
LINE
  5
19C
330
1F
100
AcDbEntity
  8
0
  6
CONTINUOUS
 62
     7
100
AcDbLine
 10
476.6573423986559
 20
344.5
 30
0.0
 11
476.6573423986559
 21
342.5
 31
0.0
  0
LINE
  5
19D
330
1F
100
AcDbEntity
  8
0
  6
CONTINUOUS
 62
     7
100
AcDbLine
 10
396.6573423986559
 20
344.5
 30
0.0
 11
396.6573423986559
 21
342.5
 31
0.0
  0
LINE
  5
19E
330
1F
100
AcDbEntity
  8
0
  6
CONTINUOUS
 62
     7
100
AcDbLine
 10
379.3999999997729
 20
335.4972812653434
 30
0.0
 11
365.599999999773
 21
335.497281265342
 31
0.0
  0
LINE
  5
19F
330
1F
100
AcDbEntity
  8
0
  6
CONTINUOUS
 62
     7
100
AcDbLine
 10
365.5999999997757
 20
309.5027187264834
 30
0.0
 11
379.3999999997757
 21
309.5027187264849
 31
0.0
  0
LINE
  5
1A0
330
1F
100
AcDbEntity
  8
0
  6
CONTINUOUS
 62
     7
100
AcDbLine
 10
495.5999999997723
 20
309.5027187346576
 30
0.0
 11
509.3999999997724
 21
309.5027187346587
 31
0.0
  0
LINE
  5
1A1
330
1F
100
AcDbEntity
  8
0
  6
CONTINUOUS
 62
     7
100
AcDbLine
 10
509.3999999997703
 20
335.4972812735173
 30
0.0
 11
495.5999999997703
 21
335.4972812735163
 31
0.0
  0
ARC
  5
1A2
330
1F
100
AcDbEntity
  8
0
  6
DOT
 62
     7
100
AcDbCircle
 10
478.0239160277191
 20
322.4904275844669
 30
0.0
 40
7.499999999999979
100
AcDbArc
 50
306.8698976494464
 51
53.13010235775835
  0
LINE
  5
1A3
330
1F
100
AcDbEntity
  8
0
  6
DOT
 62
     7
100
AcDbLine
 10
482.5239160280962
 20
316.4904275847498
 30
0.0
 11
393.0239160280963
 21
316.4904275791227
 31
0.0
  0
ARC
  5
1A4
330
1F
100
AcDbEntity
  8
0
  6
DOT
 62
     7
100
AcDbCircle
 10
397.523916027719
 20
322.4904275794056
 30
0.0
 40
7.500000000000006
100
AcDbArc
 50
126.8698976494462
 51
233.1301023577585
  0
LINE
  5
1A5
330
1F
100
AcDbEntity
  8
0
  6
DOT
 62
     7
100
AcDbLine
 10
482.5239160273418
 20
328.4904275847499
 30
0.0
 11
393.0239160273418
 21
328.4904275791227
 31
0.0
  0
LINE
  5
1A6
330
1F
100
AcDbEntity
  8
0
  6
DOT
 62
     7
100
AcDbLine
 10
393.0239160280963
 20
316.4904275791227
 30
0.0
 11
393.0239160288193
 21
304.9904275791227
 31
0.0
  0
LINE
  5
1A7
330
1F
100
AcDbEntity
  8
0
  6
DOT
 62
     7
100
AcDbLine
 10
482.5239160280963
 20
316.4904275847498
 30
0.0
 11
482.5239160288193
 21
304.9904275847498
 31
0.0
  0
LINE
  5
1A8
330
1F
100
AcDbEntity
  8
0
  6
DOT
 62
     7
100
AcDbLine
 10
482.5239160288191
 20
304.9904275847498
 30
0.0
 11
393.0239160288194
 21
304.9904275791227
 31
0.0
  0
LINE
  5
1A9
330
1F
100
AcDbEntity
  8
0
  6
DOT
 62
     7
100
AcDbLine
 10
393.0239160266188
 20
339.9904275791227
 30
0.0
 11
393.0239160273418
 21
328.4904275791226
 31
0.0
  0
LINE
  5
1AA
330
1F
100
AcDbEntity
  8
0
  6
DOT
 62
     7
100
AcDbLine
 10
482.5239160266188
 20
339.9904275847498
 30
0.0
 11
482.5239160273418
 21
328.4904275847498
 31
0.0
  0
LINE
  5
1AB
330
1F
100
AcDbEntity
  8
0
  6
DOT
 62
     7
100
AcDbLine
 10
482.5239160266187
 20
339.9904275847498
 30
0.0
 11
393.0239160266188
 21
339.9904275791227
 31
0.0
  0
ARC
  5
1AC
330
1F
100
AcDbEntity
  8
0
  6
DOT
 62
     7
100
AcDbCircle
 10
479.539699065085
 20
313.1783338298187
 30
0.0
 40
15.60018480818662
100
AcDbArc
 50
52.55818684015223
 51
78.97170772608767
  0
LINE
  5
1AD
330
1F
100
AcDbEntity
  8
0
  6
DOT
 62
     7
100
AcDbLine
 10
492.0239160301387
 20
322.4904275853471
 30
0.0
 11
489.0239160299454
 21
325.564430657029
 31
0.0
  0
LINE
  5
1AE
330
1F
100
AcDbEntity
  8
0
  6
DOT
 62
     7
100
AcDbLine
 10
489.023916030332
 20
319.4164245132882
 30
0.0
 11
492.0239160301387
 21
322.490427585347
 31
0.0
  0
ARC
  5
1AF
330
1F
100
AcDbEntity
  8
0
  6
DOT
 62
     7
100
AcDbCircle
 10
479.424773086388
 20
332.0578253851362
 30
0.0
 40
15.87288761571223
100
AcDbArc
 50
281.2591870667629
 51
307.2109183814099
  0
LINE
  5
1B0
330
1F
100
AcDbEntity
  8
0
  6
DOT
 62
     7
100
AcDbLine
 10
482.5239160308223
 20
304.9904275847498
 30
0.0
 11
489.023916031239
 21
304.9904275851585
 31
0.0
  0
ARC
  5
1B1
330
1F
100
AcDbEntity
  8
0
  6
DOT
 62
     7
100
AcDbCircle
 10
396.0430367817902
 20
331.880058876299
 30
0.0
 40
15.6829793590477
100
AcDbArc
 50
232.6291601008041
 51
258.9007344599389
  0
LINE
  5
1B2
330
1F
100
AcDbEntity
  8
0
  6
DOT
 62
     7
100
AcDbLine
 10
383.5239160301387
 20
322.4904275785253
 30
0.0
 11
386.5239160303319
 21
319.4164245068434
 31
0.0
  0
LINE
  5
1B3
330
1F
100
AcDbEntity
  8
0
  6
DOT
 62
     7
100
AcDbLine
 10
386.5239160299454
 20
325.5644306505843
 30
0.0
 11
383.5239160301387
 21
322.4904275785253
 31
0.0
  0
ARC
  5
1B4
330
1F
100
AcDbEntity
  8
0
  6
DOT
 62
     7
100
AcDbCircle
 10
396.1230589749291
 20
312.9230297773095
 30
0.0
 40
15.87288761747731
100
AcDbArc
 50
101.2591870723875
 51
127.2109183812838
  0
LINE
  5
1B5
330
1F
100
AcDbEntity
  8
0
  6
DOT
 62
     7
100
AcDbLine
 10
386.5239160290384
 20
339.990427578714
 30
0.0
 11
393.0239160286217
 21
339.9904275791227
 31
0.0
  0
LINE
  5
1B6
330
1F
100
AcDbEntity
  8
0
  6
DOT
 62
     7
100
AcDbLine
 10
482.5239160286218
 20
339.9904275847498
 30
0.0
 11
489.0239160290384
 21
339.9904275851584
 31
0.0
  0
LINE
  5
1B7
330
1F
100
AcDbEntity
  8
0
  6
DOT
 62
     7
100
AcDbLine
 10
386.5239160312389
 20
304.990427578714
 30
0.0
 11
393.0239160308223
 21
304.9904275791227
 31
0.0
  0
LINE
  5
1B8
330
1F
100
AcDbEntity
  8
0
  6
DOT
 62
     7
100
AcDbLine
 10
498.7739160299344
 20
325.7404275857715
 30
0.0
 11
502.7739160299345
 21
325.7404275860229
 31
0.0
  0
ARC
  5
1B9
330
1F
100
AcDbEntity
  8
0
  6
DOT
 62
     7
100
AcDbCircle
 10
498.7739160301387
 20
322.4904275857715
 30
0.0
 40
3.250000000000003
100
AcDbArc
 50
90.00000000360234
 51
270.0000000036023
  0
LINE
  5
1BA
330
1F
100
AcDbEntity
  8
0
  6
DOT
 62
     7
100
AcDbLine
 10
502.7739160303432
 20
319.240427586023
 30
0.0
 11
498.7739160303431
 21
319.2404275857716
 31
0.0
  0
ARC
  5
1BB
330
1F
100
AcDbEntity
  8
0
  6
DOT
 62
     7
100
AcDbCircle
 10
502.7739160301389
 20
322.490427586023
 30
0.0
 40
3.250000000000003
100
AcDbArc
 50
270.0000000036023
 51
90.00000000360234
  0
ARC
  5
1BC
330
1F
100
AcDbEntity
  8
0
  6
DOT
 62
     7
100
AcDbCircle
 10
485.7739160301388
 20
322.4904275849541
 30
0.0
 40
27.99999999999999
100
AcDbArc
 50
321.317812550113
 51
38.6821874570918
  0
LINE
  5
1BD
330
1F
100
AcDbEntity
  8
0
  6
DOT
 62
     7
100
AcDbLine
 10
507.6314090234328
 20
339.9904275863284
 30
0.0
 11
489.0239160290384
 21
339.9904275851585
 31
0.0
  0
LINE
  5
1BE
330
1F
100
AcDbEntity
  8
0
  6
DOT
 62
     7
100
AcDbLine
 10
507.6314090256335
 20
304.9904275863284
 30
0.0
 11
489.0239160312391
 21
304.9904275851585
 31
0.0
  0
LINE
  5
1BF
330
1F
100
AcDbEntity
  8
0
  6
DOT
 62
     7
100
AcDbLine
 10
372.7739160299344
 20
325.7404275778495
 30
0.0
 11
376.7739160299344
 21
325.7404275781009
 31
0.0
  0
ARC
  5
1C0
330
1F
100
AcDbEntity
  8
0
  6
DOT
 62
     7
100
AcDbCircle
 10
372.7739160301387
 20
322.4904275778495
 30
0.0
 40
3.250000000000003
100
AcDbArc
 50
90.00000000360234
 51
270.0000000036023
  0
LINE
  5
1C1
330
1F
100
AcDbEntity
  8
0
  6
DOT
 62
     7
100
AcDbLine
 10
376.7739160303431
 20
319.240427578101
 30
0.0
 11
372.7739160303431
 21
319.2404275778495
 31
0.0
  0
ARC
  5
1C2
330
1F
100
AcDbEntity
  8
0
  6
DOT
 62
     7
100
AcDbCircle
 10
376.7739160301387
 20
322.490427578101
 30
0.0
 40
3.249999999999996
100
AcDbArc
 50
270.0000000036023
 51
90.00000000360234
  0
ARC
  5
1C3
330
1F
100
AcDbEntity
  8
0
  6
DOT
 62
     7
100
AcDbCircle
 10
389.7739160301387
 20
322.4904275789183
 30
0.0
 40
28.00000000000006
100
AcDbArc
 50
141.3178125501129
 51
218.6821874570917
  0
LINE
  5
1C4
330
1F
100
AcDbEntity
  8
0
  6
DOT
 62
     7
100
AcDbLine
 10
386.5239160290384
 20
339.990427578714
 30
0.0
 11
367.9164230346439
 21
339.9904275775441
 31
0.0
  0
LINE
  5
1C5
330
1F
100
AcDbEntity
  8
0
  6
DOT
 62
     7
100
AcDbLine
 10
386.5239160312389
 20
304.990427578714
 30
0.0
 11
367.9164230368444
 21
304.9904275775442
 31
0.0
  0
LINE
  5
1C6
330
1F
100
AcDbEntity
  8
0
  6
DOT
 62
     7
100
AcDbLine
 10
585.395925346377
 20
340.3904275819363
 30
0.0
 11
585.395925346377
 21
334.8404275819362
 31
0.0
  0
LINE
  5
1C7
330
1F
100
AcDbEntity
  8
0
  6
DOT
 62
     7
100
AcDbLine
 10
285.3959253463769
 20
340.3904275819362
 30
0.0
 11
285.3959253463769
 21
334.8404275819362
 31
0.0
  0
LINE
  5
1C8
330
1F
100
AcDbEntity
  8
0
  6
DOT
 62
     7
100
AcDbLine
 10
285.3959253463769
 20
302.4904275819362
 30
0.0
 11
585.3959253463771
 21
302.4904275819362
 31
0.0
  0
LINE
  5
1C9
330
1F
100
AcDbEntity
  8
0
  6
DOT
 62
     7
100
AcDbLine
 10
585.3959253463772
 20
302.4904275819363
 30
0.0
 11
585.3959253463771
 21
304.5904275819362
 31
0.0
  0
LINE
  5
1CA
330
1F
100
AcDbEntity
  8
0
  6
DOT
 62
     7
100
AcDbLine
 10
285.3959253463769
 20
302.4904275819362
 30
0.0
 11
285.3959253463769
 21
304.5904275819362
 31
0.0
  0
LINE
  5
1CB
330
1F
100
AcDbEntity
  8
0
  6
DOT
 62
     7
100
AcDbLine
 10
285.3959253463769
 20
342.4904275819363
 30
0.0
 11
585.3959253463771
 21
342.4904275819363
 31
0.0
  0
LINE
  5
1CC
330
1F
100
AcDbEntity
  8
0
  6
DOT
 62
     7
100
AcDbLine
 10
585.3959253463772
 20
342.4904275819363
 30
0.0
 11
585.3959253463771
 21
340.3904275819363
 31
0.0
  0
LINE
  5
1CD
330
1F
100
AcDbEntity
  8
0
  6
DOT
 62
     7
100
AcDbLine
 10
285.3959253463769
 20
342.4904275819363
 30
0.0
 11
285.3959253463769
 21
340.3904275819363
 31
0.0
  0
LINE
  5
1CE
330
1F
100
AcDbEntity
  8
0
  6
DOT
 62
     7
100
AcDbLine
 10
585.395925346377
 20
304.5904275819362
 30
0.0
 11
585.395925346377
 21
310.1404275819363
 31
0.0
  0
LINE
  5
1CF
330
1F
100
AcDbEntity
  8
0
  6
DOT
 62
     7
100
AcDbLine
 10
285.3959253463769
 20
304.5904275819362
 30
0.0
 11
285.3959253463769
 21
310.1404275819362
 31
0.0
  0
LINE
  5
1D0
330
1F
100
AcDbEntity
  8
0
  6
DOT
 62
     7
100
AcDbLine
 10
285.3959253463769
 20
332.7404275819362
 30
0.0
 11
363.7174868822654
 21
332.7404275819362
 31
0.0
  0
LINE
  5
1D1
330
1F
100
AcDbEntity
  8
0
  6
DOT
 62
     7
100
AcDbLine
 10
511.8303451803861
 20
332.7404275819363
 30
0.0
 11
585.395925346377
 21
332.7404275819363
 31
0.0
  0
LINE
  5
1D2
330
1F
100
AcDbEntity
  8
0
  6
DOT
 62
     7
100
AcDbLine
 10
585.395925346377
 20
334.8404275819362
 30
0.0
 11
585.395925346377
 21
332.7404275819363
 31
0.0
  0
LINE
  5
1D3
330
1F
100
AcDbEntity
  8
0
  6
DOT
 62
     7
100
AcDbLine
 10
285.3959253463769
 20
334.8404275819362
 30
0.0
 11
285.3959253463769
 21
332.7404275819363
 31
0.0
  0
LINE
  5
1D4
330
1F
100
AcDbEntity
  8
0
  6
DOT
 62
     7
100
AcDbLine
 10
285.3959253463769
 20
312.2404275819362
 30
0.0
 11
363.7174868798911
 21
312.2404275819362
 31
0.0
  0
LINE
  5
1D5
330
1F
100
AcDbEntity
  8
0
  6
DOT
 62
     7
100
AcDbLine
 10
511.8303451780117
 20
312.2404275819362
 30
0.0
 11
585.395925346377
 21
312.2404275819362
 31
0.0
  0
LINE
  5
1D6
330
1F
100
AcDbEntity
  8
0
  6
DOT
 62
     7
100
AcDbLine
 10
585.395925346377
 20
310.1404275819362
 30
0.0
 11
585.395925346377
 21
312.2404275819362
 31
0.0
  0
LINE
  5
1D7
330
1F
100
AcDbEntity
  8
0
  6
DOT
 62
     7
100
AcDbLine
 10
285.3959253463769
 20
310.1404275819362
 30
0.0
 11
285.3959253463769
 21
312.2404275819362
 31
0.0
  0
CIRCLE
  5
1D8
330
1F
100
AcDbEntity
  8
0
  6
DOT
 62
     7
100
AcDbCircle
 10
520.395925346377
 20
322.4904275819362
 30
0.0
 40
5.250000000000004
  0
CIRCLE
  5
1D9
330
1F
100
AcDbEntity
  8
0
  6
DOT
 62
     7
100
AcDbCircle
 10
350.3959253463771
 20
322.4904275819362
 30
0.0
 40
5.250000000000004
  0
ARC
  5
1DA
330
1F
100
AcDbEntity
  8
0
  6
DOT
 62
     7
100
AcDbCircle
 10
310.3959253463771
 20
322.4904275819362
 30
0.0
 40
5.250000000000004
100
AcDbArc
 50
270.0000000000001
 51
90.0
  0
LINE
  5
1DB
330
1F
100
AcDbEntity
  8
0
  6
DOT
 62
     7
100
AcDbLine
 10
300.3959253463771
 20
327.7404275819362
 30
0.0
 11
310.3959253463771
 21
327.7404275819362
 31
0.0
  0
ARC
  5
1DC
330
1F
100
AcDbEntity
  8
0
  6
DOT
 62
     7
100
AcDbCircle
 10
300.3959253463771
 20
322.4904275819362
 30
0.0
 40
5.250000000000004
100
AcDbArc
 50
90.00000000000011
 51
270.0
  0
LINE
  5
1DD
330
1F
100
AcDbEntity
  8
0
  6
DOT
 62
     7
100
AcDbLine
 10
300.3959253463771
 20
317.2404275819362
 30
0.0
 11
310.3959253463771
 21
317.2404275819362
 31
0.0
  0
CIRCLE
  5
1DE
330
1F
100
AcDbEntity
  8
0
  6
DOT
 62
     7
100
AcDbCircle
 10
325.3959253463771
 20
322.4904275819362
 30
0.0
 40
2.750000000000002
  0
ARC
  5
1DF
330
1F
100
AcDbEntity
  8
0
  6
DOT
 62
     7
100
AcDbCircle
 10
384.395925346377
 20
322.4904275819362
 30
0.0
 40
5.249999999999962
100
AcDbArc
 50
159.7718196545534
 51
200.2281804031068
  0
ARC
  5
1E0
330
1F
100
AcDbEntity
  8
0
  6
DOT
 62
     7
100
AcDbCircle
 10
570.3959253463769
 20
322.4904275819362
 30
0.0
 40
5.249999999999997
100
AcDbArc
 50
270.0
 51
89.9999999999999
  0
LINE
  5
1E1
330
1F
100
AcDbEntity
  8
0
  6
DOT
 62
     7
100
AcDbLine
 10
570.3959253463769
 20
327.7404275819363
 30
0.0
 11
560.3959253463769
 21
327.7404275819363
 31
0.0
  0
ARC
  5
1E2
330
1F
100
AcDbEntity
  8
0
  6
DOT
 62
     7
100
AcDbCircle
 10
560.395925346377
 20
322.4904275819362
 30
0.0
 40
5.250000000000004
100
AcDbArc
 50
90.00000000000001
 51
269.9999999999999
  0
LINE
  5
1E3
330
1F
100
AcDbEntity
  8
0
  6
DOT
 62
     7
100
AcDbLine
 10
570.3959253463769
 20
317.2404275819363
 30
0.0
 11
560.3959253463769
 21
317.2404275819363
 31
0.0
  0
CIRCLE
  5
1E4
330
1F
100
AcDbEntity
  8
0
  6
DOT
 62
     7
100
AcDbCircle
 10
545.3959253463769
 20
322.4904275819363
 30
0.0
 40
2.750000000000002
  0
LINE
  5
1E5
330
1F
100
AcDbEntity
  8
0
  6
DOT
 62
     7
100
AcDbLine
 10
585.395925346377
 20
332.7404275819363
 30
0.0
 11
585.395925346377
 21
312.2404275819363
 31
0.0
  0
LINE
  5
1E6
330
1F
100
AcDbEntity
  8
0
  6
DOT
 62
     7
100
AcDbLine
 10
285.395925346377
 20
332.7404275819362
 30
0.0
 11
285.3959253463769
 21
312.2404275819362
 31
0.0
  0
LINE
  5
1E7
330
1F
100
AcDbEntity
  8
0
  6
DOT
 62
     7
100
AcDbLine
 10
361.7739160301387
 20
156.7110683598846
 30
0.0
 11
367.9164230368444
 21
156.7110683602783
 31
0.0
  0
LINE
  5
1E8
330
1F
100
AcDbEntity
  8
0
  6
DOT
 62
     7
100
AcDbLine
 10
367.9164230368444
 20
156.7110683602783
 30
0.0
 11
367.9164230369406
 21
155.2110683602783
 31
0.0
  0
ARC
  5
1E9
330
1F
100
AcDbEntity
  8
0
  6
DOT
 62
     7
100
AcDbCircle
 10
386.5239160308223
 20
163.211068361471
 30
0.0
 40
6.499999999999992
100
AcDbArc
 50
270.0000000036725
 51
0.0000000036724259
  0
LINE
  5
1EA
330
1F
100
AcDbEntity
  8
0
  6
DOT
 62
     7
100
AcDbLine
 10
393.0239160288193
 20
194.4610683618876
 30
0.0
 11
393.0239160308223
 21
163.2110683618876
 31
0.0
  0
ARC
  5
1EB
330
1F
100
AcDbEntity
  8
0
  6
DOT
 62
     7
100
AcDbCircle
 10
437.7739160288193
 20
194.4610683647559
 30
0.0
 40
44.74999999999999
100
AcDbArc
 50
0.0000000036724657
 51
180.0000000036725
  0
LINE
  5
1EC
330
1F
100
AcDbEntity
  8
0
  6
DOT
 62
     7
100
AcDbLine
 10
482.5239160308223
 20
163.2110683676243
 30
0.0
 11
482.5239160288193
 21
194.4610683676243
 31
0.0
  0
ARC
  5
1ED
330
1F
100
AcDbEntity
  8
0
  6
DOT
 62
     7
100
AcDbCircle
 10
489.0239160308223
 20
163.2110683680409
 30
0.0
 40
6.499999999999999
100
AcDbArc
 50
180.0000000036725
 51
270.0000000036725
  0
LINE
  5
1EE
330
1F
100
AcDbEntity
  8
0
  6
DOT
 62
     7
100
AcDbLine
 10
507.6314090256335
 20
156.7110683692336
 30
0.0
 11
489.0239160312391
 21
156.7110683680409
 31
0.0
  0
LINE
  5
1EF
330
1F
100
AcDbEntity
  8
0
  6
DOT
 62
     7
100
AcDbLine
 10
507.6314090257297
 20
155.2110683692336
 30
0.0
 11
507.6314090256335
 21
156.7110683692336
 31
0.0
  0
ARC
  5
1F0
330
1F
100
AcDbEntity
  8
0
  6
DOT
 62
     7
100
AcDbCircle
 10
489.0239160308223
 20
163.2110683680409
 30
0.0
 40
7.99999999999998
100
AcDbArc
 50
180.0000000036725
 51
270.0000000036725
  0
LINE
  5
1F1
330
1F
100
AcDbEntity
  8
0
  6
DOT
 62
     7
100
AcDbLine
 10
481.0239160288193
 20
194.4610683675281
 30
0.0
 11
481.0239160308223
 21
163.2110683675281
 31
0.0
  0
ARC
  5
1F2
330
1F
100
AcDbEntity
  8
0
  6
DOT
 62
     7
100
AcDbCircle
 10
437.7739160288193
 20
194.4610683647559
 30
0.0
 40
43.25
100
AcDbArc
 50
0.0000000036724259
 51
180.0000000036725
  0
LINE
  5
1F3
330
1F
100
AcDbEntity
  8
0
  6
DOT
 62
     7
100
AcDbLine
 10
394.5239160308224
 20
163.2110683619838
 30
0.0
 11
394.5239160288193
 21
194.4610683619838
 31
0.0
  0
ARC
  5
1F4
330
1F
100
AcDbEntity
  8
0
  6
DOT
 62
     7
100
AcDbCircle
 10
386.5239160308224
 20
163.211068361471
 30
0.0
 40
8.0
100
AcDbArc
 50
270.0000000036724
 51
0.0000000036724259
  0
LINE
  5
1F5
330
1F
100
AcDbEntity
  8
0
  6
DOT
 62
     7
100
AcDbLine
 10
386.5239160312389
 20
156.711068361471
 30
0.0
 11
367.9164230368444
 21
156.7110683602783
 31
0.0
  0
LINE
  5
1F6
330
1F
100
AcDbEntity
  8
0
  6
DOT
 62
     7
100
AcDbLine
 10
507.6314090256335
 20
156.7110683692336
 30
0.0
 11
513.7739160301388
 21
156.7110683696273
 31
0.0
  0
LINE
  5
1F7
330
1F
100
AcDbEntity
  8
0
  6
DOT
 62
     7
100
AcDbLine
 10
585.395925346377
 20
125.2110683647559
 30
0.0
 11
585.395925346377
 21
127.3110683647559
 31
0.0
  0
LINE
  5
1F8
330
1F
100
AcDbEntity
  8
0
  6
DOT
 62
     7
100
AcDbLine
 10
285.3959253463769
 20
125.2110683647559
 30
0.0
 11
585.395925346377
 21
125.2110683647559
 31
0.0
  0
LINE
  5
1F9
330
1F
100
AcDbEntity
  8
0
  6
DOT
 62
     7
100
AcDbLine
 10
285.3959253463769
 20
125.2110683647559
 30
0.0
 11
285.3959253463769
 21
127.3110683647559
 31
0.0
  0
CIRCLE
  5
1FA
330
1F
100
AcDbEntity
  8
0
  6
DOT
 62
     7
100
AcDbCircle
 10
575.395925346377
 20
140.2110683647559
 30
0.0
 40
5.249999999999997
  0
CIRCLE
  5
1FB
330
1F
100
AcDbEntity
  8
0
  6
DOT
 62
     7
100
AcDbCircle
 10
295.3959253463769
 20
140.2110683647559
 30
0.0
 40
5.250000000000004
  0
LINE
  5
1FC
330
1F
100
AcDbEntity
  8
0
  6
DOT
 62
     7
100
AcDbLine
 10
585.395925346377
 20
127.3110683647559
 30
0.0
 11
585.395925346377
 21
153.1110683647559
 31
0.0
  0
LINE
  5
1FD
330
1F
100
AcDbEntity
  8
0
  6
DOT
 62
     7
100
AcDbLine
 10
285.3959253463769
 20
127.3110683647559
 30
0.0
 11
285.3959253463769
 21
153.1110683647559
 31
0.0
  0
LINE
  5
1FE
330
1F
100
AcDbEntity
  8
0
  6
DOT
 62
     7
100
AcDbLine
 10
285.3959253463769
 20
155.2110683647559
 30
0.0
 11
585.395925346377
 21
155.2110683647559
 31
0.0
  0
LINE
  5
1FF
330
1F
100
AcDbEntity
  8
0
  6
DOT
 62
     7
100
AcDbLine
 10
585.395925346377
 20
153.1110683647559
 30
0.0
 11
585.395925346377
 21
155.2110683647559
 31
0.0
  0
LINE
  5
200
330
1F
100
AcDbEntity
  8
0
  6
DOT
 62
     7
100
AcDbLine
 10
285.3959253463769
 20
153.1110683647559
 30
0.0
 11
285.3959253463769
 21
155.2110683647559
 31
0.0
  0
LINE
  5
201
330
1F
100
AcDbEntity
  8
0
  6
DOT
 62
     7
100
AcDbLine
 10
361.7739160301387
 20
156.7110683598845
 30
0.0
 11
361.7739160302348
 21
155.2110683598845
 31
0.0
  0
LINE
  5
202
330
1F
100
AcDbEntity
  8
0
  6
DOT
 62
     7
100
AcDbLine
 10
513.773916030235
 20
155.2110683696272
 30
0.0
 11
513.7739160301388
 21
156.7110683696272
 31
0.0
  0
ARC
  5
203
330
1F
100
AcDbEntity
  8
0
  6
DOT
 62
     7
100
AcDbCircle
 10
492.023916029722
 20
163.2110683682332
 30
0.0
 40
6.500000000000065
100
AcDbArc
 50
180.0000000036725
 51
270.0000000036727
  0
ARC
  5
204
330
1F
100
AcDbEntity
  8
0
  6
DOT
 62
     7
100
AcDbCircle
 10
383.523916029722
 20
163.2110683612787
 30
0.0
 40
6.500000000000061
100
AcDbArc
 50
270.0000000036725
 51
0.0000000036723691
  0
ARC
  5
205
330
1F
100
AcDbEntity
  8
0
  6
DOT
 62
     7
100
AcDbCircle
 10
437.7739160277191
 20
194.4610683647559
 30
0.0
 40
47.75000000000001
100
AcDbArc
 50
0.0000000036724499
 51
180.0000000036725
  0
LINE
  5
206
330
1F
100
AcDbEntity
  8
0
  6
DOT
 62
     7
100
AcDbLine
 10
390.0239160277191
 20
194.4610683616953
 30
0.0
 11
390.0239160297221
 21
163.2110683616953
 31
0.0
  0
LINE
  5
207
330
1F
100
AcDbEntity
  8
0
  6
DOT
 62
     7
100
AcDbLine
 10
485.523916029722
 20
163.2110683678166
 30
0.0
 11
485.523916027719
 21
194.4610683678166
 31
0.0
  0
LINE
  5
208
330
1F
100
AcDbEntity
  8
0
  6
CONTINUOUS
 62
     7
100
AcDbLine
 10
379.3999999998068
 20
143.1283783478476
 30
0.0
 11
379.3999999997436
 21
141.1563778717996
 31
0.0
  0
LINE
  5
209
330
1F
100
AcDbEntity
  8
0
  6
CONTINUOUS
 62
     7
100
AcDbLine
 10
365.5999999998068
 20
143.1283783482899
 30
0.0
 11
365.5999999997435
 21
141.1563778722418
 31
0.0
  0
LINE
  5
20A
330
1F
100
AcDbEntity
  8
0
  6
CONTINUOUS
 62
     7
100
AcDbLine
 10
379.4000000001106
 20
152.6295965123552
 30
0.0
 11
379.3999999998068
 21
143.1283783478476
 31
0.0
  0
LINE
  5
20B
330
1F
100
AcDbEntity
  8
0
  6
CONTINUOUS
 62
     7
100
AcDbLine
 10
365.6000000001105
 20
152.6295965127975
 30
0.0
 11
365.5999999998068
 21
143.1283783482899
 31
0.0
  0
LINE
  5
20C
330
1F
100
AcDbEntity
  8
0
  6
CONTINUOUS
 62
     7
100
AcDbLine
 10
369.284467770486
 20
153.0560200763283
 30
0.0
 11
369.3993798694321
 21
153.0201317013901
 31
0.0
  0
ARC
  5
20D
330
1F
100
AcDbEntity
  8
0
  6
CONTINUOUS
 62
     7
100
AcDbCircle
 10
370.8160960001583
 20
155.5251260882409
 30
0.0
 40
2.877860572233094
100
AcDbArc
 50
240.5093831880771
 51
254.7467497547275
  0
LWPOLYLINE
  5
20E
330
1F
100
AcDbEntity
  8
0
  6
CONTINUOUS
 62
     7
100
AcDbPolyline
 90
        3
 70
     0
 43
0.0
 10
370.0589713348413
 20
152.7486456337117
 10
370.1706549808584
 20
152.7323882693403
 10
370.2500000001137
 20
152.7289387467337
  0
LINE
  5
20F
330
1F
100
AcDbEntity
  8
0
  6
CONTINUOUS
 62
     7
100
AcDbLine
 10
370.2500000001137
 20
152.7289387467337
 30
0.0
 11
374.7500000001137
 21
152.7289387465894
 31
0.0
  0
LINE
  5
210
330
1F
100
AcDbEntity
  8
0
  6
CONTINUOUS
 62
     7
100
AcDbLine
 10
374.7500000001137
 20
152.7289387465894
 30
0.0
 11
374.8555846639642
 21
152.7350431383682
 31
0.0
  0
ARC
  5
211
330
1F
100
AcDbEntity
  8
0
  6
CONTINUOUS
 62
     7
100
AcDbCircle
 10
374.4163388782294
 20
155.0112369467947
 30
0.0
 40
2.318187894413422
100
AcDbArc
 50
280.9223269784905
 51
301.0393040652286
  0
LWPOLYLINE
  5
212
330
1F
100
AcDbEntity
  8
0
  6
CONTINUOUS
 62
     7
100
AcDbPolyline
 90
        3
 70
     0
 43
0.0
 10
-375.6116567318564
 20
153.0249815899472
 10
-375.7096603526639
 20
153.0558020373275
 10
-375.7155322297623
 20
153.0560200761223
210
0.0
220
0.0
230
-1.0
  0
LINE
  5
213
330
1F
100
AcDbEntity
  8
0
  6
CONTINUOUS
 62
     7
100
AcDbLine
 10
379.4000000001241
 20
153.0560200760042
 30
0.0
 11
379.4000000001105
 21
152.6295965123552
 31
0.0
  0
LINE
  5
214
330
1F
100
AcDbEntity
  8
0
  6
CONTINUOUS
 62
     7
100
AcDbLine
 10
365.6000000001242
 20
153.0560200764465
 30
0.0
 11
365.6000000001105
 21
152.6295965127975
 31
0.0
  0
LINE
  5
215
330
1F
100
AcDbEntity
  8
0
  6
CONTINUOUS
 62
     7
100
AcDbLine
 10
379.500000000114
 20
152.7226867426654
 30
0.0
 11
379.400000000124
 21
153.0560200760042
 31
0.0
  0
LINE
  5
216
330
1F
100
AcDbEntity
  8
0
  6
CONTINUOUS
 62
   253
100
AcDbLine
 10
379.400000000092
 20
152.0560200760042
 30
0.0
 11
379.5000000000927
 21
152.056020076001
 31
0.0
  0
LINE
  5
217
330
1F
100
AcDbEntity
  8
0
  6
CONTINUOUS
 62
     7
100
AcDbLine
 10
379.4000000000759
 20
151.5560200760042
 30
0.0
 11
379.5000000000756
 21
151.556020076001
 31
0.0
  0
LINE
  5
218
330
1F
100
AcDbEntity
  8
0
  6
CONTINUOUS
 62
   253
100
AcDbLine
 10
365.6000000000915
 20
152.0560200764464
 30
0.0
 11
365.5000000000921
 21
152.0560200764496
 31
0.0
  0
LINE
  5
219
330
1F
100
AcDbEntity
  8
0
  6
CONTINUOUS
 62
     7
100
AcDbLine
 10
365.6000000001236
 20
153.0560200764464
 30
0.0
 11
365.5000000001135
 21
152.7226867431182
 31
0.0
  0
LINE
  5
21A
330
1F
100
AcDbEntity
  8
0
  6
CONTINUOUS
 62
     7
100
AcDbLine
 10
365.6000000000755
 20
151.5560200764464
 30
0.0
 11
365.5000000000752
 21
151.5560200764496
 31
0.0
  0
LINE
  5
21B
330
1F
100
AcDbEntity
  8
0
  6
CONTINUOUS
 62
     7
100
AcDbLine
 10
363.5000000000865
 20
151.8517853845852
 30
0.0
 11
363.5000000000545
 21
150.8517853845852
 31
0.0
  0
LINE
  5
21C
330
1F
100
AcDbEntity
  8
0
  6
CONTINUOUS
 62
     7
100
AcDbLine
 10
365.5000000000865
 20
151.851785384521
 30
0.0
 11
365.5000000000545
 21
150.851785384521
 31
0.0
  0
LINE
  5
21D
330
1F
100
AcDbEntity
  8
0
  6
CONTINUOUS
 62
     7
100
AcDbLine
 10
365.5000000000546
 20
150.851785384521
 30
0.0
 11
365.4999999999009
 21
146.0560200764496
 31
0.0
  0
LINE
  5
21E
330
1F
100
AcDbEntity
  8
0
  6
CONTINUOUS
 62
     7
100
AcDbLine
 10
363.5000000000546
 20
150.8517853845852
 30
0.0
 11
363.4999999999009
 21
146.0560200765137
 31
0.0
  0
LINE
  5
21F
330
1F
100
AcDbEntity
  8
0
  6
CONTINUOUS
 62
     7
100
AcDbLine
 10
363.4999999998688
 20
145.0560200765137
 30
0.0
 11
365.4999999998688
 21
145.0560200764497
 31
0.0
  0
LINE
  5
220
330
1F
100
AcDbEntity
  8
0
  6
CONTINUOUS
 62
     7
100
AcDbLine
 10
365.4999999999008
 20
146.0560200764496
 30
0.0
 11
365.4999999998687
 21
145.0560200764496
 31
0.0
  0
LINE
  5
221
330
1F
100
AcDbEntity
  8
0
  6
CONTINUOUS
 62
     7
100
AcDbLine
 10
363.4999999999008
 20
146.0560200765137
 30
0.0
 11
363.4999999998687
 21
145.0560200765137
 31
0.0
  0
LINE
  5
222
330
1F
100
AcDbEntity
  8
0
  6
CONTINUOUS
 62
     7
100
AcDbLine
 10
381.5000000000865
 20
151.8517853840083
 30
0.0
 11
381.5000000000545
 21
150.8517853840083
 31
0.0
  0
LINE
  5
223
330
1F
100
AcDbEntity
  8
0
  6
CONTINUOUS
 62
     7
100
AcDbLine
 10
379.5000000000865
 20
151.8517853840724
 30
0.0
 11
379.5000000000545
 21
150.8517853840724
 31
0.0
  0
LINE
  5
224
330
1F
100
AcDbEntity
  8
0
  6
CONTINUOUS
 62
     7
100
AcDbLine
 10
381.5000000000546
 20
150.8517853840083
 30
0.0
 11
381.4999999999009
 21
146.0560200759369
 31
0.0
  0
LINE
  5
225
330
1F
100
AcDbEntity
  8
0
  6
CONTINUOUS
 62
     7
100
AcDbLine
 10
379.5000000000546
 20
150.8517853840724
 30
0.0
 11
379.4999999999009
 21
146.056020076001
 31
0.0
  0
LINE
  5
226
330
1F
100
AcDbEntity
  8
0
  6
CONTINUOUS
 62
     7
100
AcDbLine
 10
381.4999999999008
 20
146.0560200759369
 30
0.0
 11
381.4999999998687
 21
145.0560200759369
 31
0.0
  0
LINE
  5
227
330
1F
100
AcDbEntity
  8
0
  6
CONTINUOUS
 62
     7
100
AcDbLine
 10
381.4999999998687
 20
145.0560200759369
 30
0.0
 11
379.4999999998687
 21
145.056020076001
 31
0.0
  0
LINE
  5
228
330
1F
100
AcDbEntity
  8
0
  6
CONTINUOUS
 62
     7
100
AcDbLine
 10
379.4999999999008
 20
146.056020076001
 30
0.0
 11
379.4999999998687
 21
145.056020076001
 31
0.0
  0
LINE
  5
229
330
1F
100
AcDbEntity
  8
0
  6
CONTINUOUS
 62
     7
100
AcDbLine
 10
365.500000000087
 20
151.8927466095101
 30
0.0
 11
365.5000000000857
 21
151.8517853845211
 31
0.0
  0
LINE
  5
22A
330
1F
100
AcDbEntity
  8
0
  6
CONTINUOUS
 62
     7
100
AcDbLine
 10
363.5000000000861
 20
151.8517853845852
 30
0.0
 11
363.5000000000869
 21
151.8927466095742
 31
0.0
  0
LINE
  5
22B
330
1F
100
AcDbEntity
  8
0
  6
CONTINUOUS
 62
     7
100
AcDbLine
 10
371.9426406872439
 20
153.0560200762432
 30
0.0
 11
369.8213203436842
 21
153.0560200763111
 31
0.0
  0
LINE
  5
22C
330
1F
100
AcDbEntity
  8
0
  6
CONTINUOUS
 62
     7
100
AcDbLine
 10
369.8213203437483
 20
155.0560200763112
 30
0.0
 11
371.942640687308
 21
155.0560200762432
 31
0.0
  0
ARC
  5
22D
330
1F
100
AcDbEntity
  8
0
  6
CONTINUOUS
 62
     7
100
AcDbCircle
 10
379.9000000001375
 20
153.4560200759882
 30
0.0
 40
1.6
100
AcDbArc
 50
359.9999999981638
 51
89.99999999816374
  0
LINE
  5
22E
330
1F
100
AcDbEntity
  8
0
  6
CONTINUOUS
 62
     7
100
AcDbLine
 10
371.9426406872439
 20
153.0560200762432
 30
0.0
 11
379.5000000001247
 21
153.056020076001
 31
0.0
  0
LINE
  5
22F
330
1F
100
AcDbEntity
  8
0
  6
CONTINUOUS
 62
     7
100
AcDbLine
 10
371.942640687308
 20
155.0560200762432
 30
0.0
 11
379.9000000001888
 21
155.0560200759882
 31
0.0
  0
LINE
  5
230
330
1F
100
AcDbEntity
  8
0
  6
CONTINUOUS
 62
     7
100
AcDbLine
 10
381.5000000001375
 20
153.4560200759369
 30
0.0
 11
381.5000000000861
 21
151.8517853840083
 31
0.0
  0
LINE
  5
231
330
1F
100
AcDbEntity
  8
0
  6
CONTINUOUS
 62
     7
100
AcDbLine
 10
379.5000000001247
 20
153.056020076001
 30
0.0
 11
379.5000000000863
 21
151.8517853840724
 31
0.0
  0
LINE
  5
232
330
1F
100
AcDbEntity
  8
0
  6
CONTINUOUS
 62
     7
100
AcDbLine
 10
369.8213203436842
 20
153.0560200763111
 30
0.0
 11
365.9464466095308
 21
153.0560200764353
 31
0.0
  0
LINE
  5
233
330
1F
100
AcDbEntity
  8
0
  6
CONTINUOUS
 62
     7
100
AcDbLine
 10
369.8213203437483
 20
155.0560200763112
 30
0.0
 11
365.9464466095949
 21
155.0560200764353
 31
0.0
  0
LINE
  5
234
330
1F
100
AcDbEntity
  8
0
  6
CONTINUOUS
 62
     7
100
AcDbLine
 10
365.500000000087
 20
151.8927466095101
 30
0.0
 11
365.5000000001184
 21
152.8725506682904
 31
0.0
  0
LINE
  5
235
330
1F
100
AcDbEntity
  8
0
  6
CONTINUOUS
 62
     7
100
AcDbLine
 10
363.5000000001184
 20
152.8725506683546
 30
0.0
 11
363.500000000087
 21
151.8927466095742
 31
0.0
  0
LINE
  5
236
330
1F
100
AcDbEntity
  8
0
  6
CONTINUOUS
 62
     7
100
AcDbLine
 10
365.5928932189375
 20
153.0560200764467
 30
0.0
 11
365.9464466095308
 21
153.0560200764353
 31
0.0
  0
LINE
  5
237
330
1F
100
AcDbEntity
  8
0
  6
CONTINUOUS
 62
     7
100
AcDbLine
 10
365.9464466095949
 20
155.0560200764353
 30
0.0
 11
365.5928932190017
 21
155.0560200764467
 31
0.0
  0
ARC
  5
238
330
1F
100
AcDbEntity
  8
0
  6
CONTINUOUS
 62
     7
100
AcDbCircle
 10
365.100000000137
 20
153.4560200764625
 30
0.0
 40
1.600000000000018
100
AcDbArc
 50
89.99999999816418
 51
179.9999999981638
  0
LINE
  5
239
330
1F
100
AcDbEntity
  8
0
  6
CONTINUOUS
 62
     7
100
AcDbLine
 10
365.5928932189375
 20
153.0560200764467
 30
0.0
 11
365.5000000001241
 21
153.0560200764496
 31
0.0
  0
LINE
  5
23A
330
1F
100
AcDbEntity
  8
0
  6
CONTINUOUS
 62
     7
100
AcDbLine
 10
365.5928932190017
 20
155.0560200764467
 30
0.0
 11
365.1000000001883
 21
155.0560200764625
 31
0.0
  0
LINE
  5
23B
330
1F
100
AcDbEntity
  8
0
  6
CONTINUOUS
 62
     7
100
AcDbLine
 10
365.5000000001241
 20
153.0560200764496
 30
0.0
 11
365.5000000001183
 21
152.8725506682905
 31
0.0
  0
LINE
  5
23C
330
1F
100
AcDbEntity
  8
0
  6
CONTINUOUS
 62
     7
100
AcDbLine
 10
363.500000000137
 20
153.4560200765137
 30
0.0
 11
363.5000000001183
 21
152.8725506683546
 31
0.0
  0
LINE
  5
23D
330
1F
100
AcDbEntity
  8
0
  6
CONTINUOUS
 62
     7
100
AcDbLine
 10
377.2500000002319
 20
160.188749407318
 30
0.0
 11
372.5000000002345
 21
160.1887494076224
 31
0.0
  0
LINE
  5
23E
330
1F
100
AcDbEntity
  8
0
  6
CONTINUOUS
 62
     7
100
AcDbLine
 10
377.2500000003689
 20
162.3259460021092
 30
0.0
 11
372.5000000003715
 21
162.3259460024137
 31
0.0
  0
LINE
  5
23F
330
1F
100
AcDbEntity
  8
0
  6
CONTINUOUS
 62
     7
100
AcDbLine
 10
372.5000000002345
 20
160.1887494076224
 30
0.0
 11
367.7500000002386
 21
160.1887494079269
 31
0.0
  0
LINE
  5
240
330
1F
100
AcDbEntity
  8
0
  6
CONTINUOUS
 62
     7
100
AcDbLine
 10
372.5000000003715
 20
162.3259460024137
 30
0.0
 11
367.7500000003756
 21
162.3259460027181
 31
0.0
  0
LINE
  5
241
330
1F
100
AcDbEntity
  8
0
  6
CONTINUOUS
 62
     7
100
AcDbLine
 10
374.9500000004457
 20
163.5043583785186
 30
0.0
 11
374.8753947044897
 21
163.5043583785233
 31
0.0
  0
LINE
  5
242
330
1F
100
AcDbEntity
  8
0
  6
CONTINUOUS
 62
     7
100
AcDbLine
 10
371.9000000004472
 20
163.5043583787135
 30
0.0
 11
371.9000000004689
 21
163.8436221281998
 31
0.0
  0
LINE
  5
243
330
1F
100
AcDbEntity
  8
0
  6
CONTINUOUS
 62
     7
100
AcDbLine
 10
373.1000000004467
 20
163.5043583786371
 30
0.0
 11
371.9000000004477
 21
163.504358378714
 31
0.0
  0
LINE
  5
244
330
1F
100
AcDbEntity
  8
0
  6
CONTINUOUS
 62
     7
100
AcDbLine
 10
373.1000000004687
 20
163.843622128123
 30
0.0
 11
373.100000000447
 21
163.5043583786366
 31
0.0
  0
ARC
  5
245
330
1F
100
AcDbEntity
  8
0
  6
CONTINUOUS
 62
     7
100
AcDbCircle
 10
372.499999999959
 20
155.8887494076236
 30
0.0
 40
7.977468270071657
100
AcDbArc
 50
72.67670820464494
 51
85.68660625841048
  0
LINE
  5
246
330
1F
100
AcDbEntity
  8
0
  6
CONTINUOUS
 62
     7
100
AcDbLine
 10
370.1246052964045
 20
163.5043583788278
 30
0.0
 11
370.0500000004484
 21
163.5043583788326
 31
0.0
  0
ARC
  5
247
330
1F
100
AcDbEntity
  8
0
  6
CONTINUOUS
 62
     7
100
AcDbCircle
 10
372.499999999959
 20
155.8887494076236
 30
0.0
 40
7.977468270071652
100
AcDbArc
 50
94.31339373424483
 51
107.3232917880104
  0
LINE
  5
248
330
1F
100
AcDbEntity
  8
0
  6
CONTINUOUS
 62
     7
100
AcDbLine
 10
367.5000000000771
 20
157.6887494079436
 30
0.0
 11
377.5000000000715
 21
157.6887494073027
 31
0.0
  0
LINE
  5
249
330
1F
100
AcDbEntity
  8
0
  6
CONTINUOUS
 62
     7
100
AcDbLine
 10
367.5000000001413
 20
158.6887494079433
 30
0.0
 11
377.5000000001356
 21
158.6887494073024
 31
0.0
  0
LINE
  5
24A
330
1F
100
AcDbEntity
  8
0
  6
CONTINUOUS
 62
     7
100
AcDbLine
 10
509.3999999998035
 20
143.1464959414086
 30
0.0
 11
509.39999999974
 21
141.1744954653606
 31
0.0
  0
LINE
  5
24B
330
1F
100
AcDbEntity
  8
0
  6
CONTINUOUS
 62
     7
100
AcDbLine
 10
495.5999999998033
 20
143.1464959418509
 30
0.0
 11
495.5999999997402
 21
141.1744954658029
 31
0.0
  0
LINE
  5
24C
330
1F
100
AcDbEntity
  8
0
  6
CONTINUOUS
 62
   253
100
AcDbLine
 10
509.4000000001074
 20
152.6477141059162
 30
0.0
 11
495.6000000001075
 21
152.6477141063585
 31
0.0
  0
LINE
  5
24D
330
1F
100
AcDbEntity
  8
0
  6
CONTINUOUS
 62
     7
100
AcDbLine
 10
509.4000000001074
 20
152.6477141059162
 30
0.0
 11
509.3999999998036
 21
143.1464959414086
 31
0.0
  0
LINE
  5
24E
330
1F
100
AcDbEntity
  8
0
  6
CONTINUOUS
 62
     7
100
AcDbLine
 10
495.6000000001074
 20
152.6477141063585
 30
0.0
 11
495.5999999998033
 21
143.1464959418509
 31
0.0
  0
LINE
  5
24F
330
1F
100
AcDbEntity
  8
0
  6
CONTINUOUS
 62
     7
100
AcDbLine
 10
499.2844677704828
 20
153.0741376698894
 30
0.0
 11
499.3993798694289
 21
153.0382492949511
 31
0.0
  0
ARC
  5
250
330
1F
100
AcDbEntity
  8
0
  6
CONTINUOUS
 62
     7
100
AcDbCircle
 10
500.8160960001553
 20
155.5432436818021
 30
0.0
 40
2.877860572233375
100
AcDbArc
 50
240.5093831880771
 51
254.7467497547258
  0
LWPOLYLINE
  5
251
330
1F
100
AcDbEntity
  8
0
  6
CONTINUOUS
 62
     7
100
AcDbPolyline
 90
        3
 70
     0
 43
0.0
 10
500.0589713348382
 20
152.7667632272727
 10
500.1706549808552
 20
152.7505058629013
 10
500.2500000001107
 20
152.7470563402947
  0
LINE
  5
252
330
1F
100
AcDbEntity
  8
0
  6
CONTINUOUS
 62
     7
100
AcDbLine
 10
500.2500000001107
 20
152.7470563402947
 30
0.0
 11
504.7500000001106
 21
152.7470563401504
 31
0.0
  0
LINE
  5
253
330
1F
100
AcDbEntity
  8
0
  6
CONTINUOUS
 62
     7
100
AcDbLine
 10
504.7500000001106
 20
152.7470563401504
 30
0.0
 11
504.8555846639611
 21
152.7531607319291
 31
0.0
  0
ARC
  5
254
330
1F
100
AcDbEntity
  8
0
  6
CONTINUOUS
 62
     7
100
AcDbCircle
 10
504.4163388782262
 20
155.0293545403559
 30
0.0
 40
2.318187894413613
100
AcDbArc
 50
280.9223269784907
 51
301.0393040652276
  0
LWPOLYLINE
  5
255
330
1F
100
AcDbEntity
  8
0
  6
CONTINUOUS
 62
     7
100
AcDbPolyline
 90
        3
 70
     0
 43
0.0
 10
-505.6116567318534
 20
153.0430991835082
 10
-505.7096603526608
 20
153.0739196308885
 10
-505.7155322297592
 20
153.0741376696832
210
0.0
220
0.0
230
-1.0
  0
LINE
  5
256
330
1F
100
AcDbEntity
  8
0
  6
CONTINUOUS
 62
     7
100
AcDbLine
 10
509.4000000001209
 20
153.0741376695651
 30
0.0
 11
509.4000000001073
 21
152.6477141059162
 31
0.0
  0
LINE
  5
257
330
1F
100
AcDbEntity
  8
0
  6
CONTINUOUS
 62
     7
100
AcDbLine
 10
495.600000000121
 20
153.0741376700075
 30
0.0
 11
495.6000000001073
 21
152.6477141063585
 31
0.0
  0
LINE
  5
258
330
1F
100
AcDbEntity
  8
0
  6
CONTINUOUS
 62
     7
100
AcDbLine
 10
509.4000000000728
 20
151.5741376695651
 30
0.0
 11
509.5000000000725
 21
151.5741376695619
 31
0.0
  0
LINE
  5
259
330
1F
100
AcDbEntity
  8
0
  6
CONTINUOUS
 62
     7
100
AcDbLine
 10
509.50000000011
 20
152.7408043362294
 30
0.0
 11
509.4000000001209
 21
153.0741376695651
 31
0.0
  0
LINE
  5
25A
330
1F
100
AcDbEntity
  8
0
  6
CONTINUOUS
 62
   253
100
AcDbLine
 10
509.4000000000889
 20
152.0741376695651
 30
0.0
 11
509.5000000000893
 21
152.0741376695619
 31
0.0
  0
LINE
  5
25B
330
1F
100
AcDbEntity
  8
0
  6
CONTINUOUS
 62
     7
100
AcDbLine
 10
495.6000000000725
 20
151.5741376700074
 30
0.0
 11
495.5000000000722
 21
151.5741376700106
 31
0.0
  0
LINE
  5
25C
330
1F
100
AcDbEntity
  8
0
  6
CONTINUOUS
 62
   253
100
AcDbLine
 10
495.6000000000886
 20
152.0741376700074
 30
0.0
 11
495.500000000089
 21
152.0741376700106
 31
0.0
  0
LINE
  5
25D
330
1F
100
AcDbEntity
  8
0
  6
CONTINUOUS
 62
     7
100
AcDbLine
 10
495.6000000001206
 20
153.0741376700074
 30
0.0
 11
495.5000000001097
 21
152.7408043366765
 31
0.0
  0
LINE
  5
25E
330
1F
100
AcDbEntity
  8
0
  6
CONTINUOUS
 62
     7
100
AcDbLine
 10
493.4999999998653
 20
145.0741376700748
 30
0.0
 11
495.4999999998653
 21
145.0741376700107
 31
0.0
  0
LINE
  5
25F
330
1F
100
AcDbEntity
  8
0
  6
CONTINUOUS
 62
     7
100
AcDbLine
 10
495.4999999998973
 20
146.0741376700107
 30
0.0
 11
495.4999999998653
 21
145.0741376700107
 31
0.0
  0
LINE
  5
260
330
1F
100
AcDbEntity
  8
0
  6
CONTINUOUS
 62
     7
100
AcDbLine
 10
493.4999999998973
 20
146.0741376700748
 30
0.0
 11
493.4999999998653
 21
145.0741376700748
 31
0.0
  0
LINE
  5
261
330
1F
100
AcDbEntity
  8
0
  6
CONTINUOUS
 62
     7
100
AcDbLine
 10
495.5000000000512
 20
150.8699029780821
 30
0.0
 11
495.4999999998975
 21
146.0741376700107
 31
0.0
  0
LINE
  5
262
330
1F
100
AcDbEntity
  8
0
  6
CONTINUOUS
 62
     7
100
AcDbLine
 10
493.5000000000512
 20
150.8699029781462
 30
0.0
 11
493.4999999998975
 21
146.0741376700748
 31
0.0
  0
LINE
  5
263
330
1F
100
AcDbEntity
  8
0
  6
CONTINUOUS
 62
     7
100
AcDbLine
 10
493.5000000000832
 20
151.8699029781462
 30
0.0
 11
493.5000000000511
 21
150.8699029781462
 31
0.0
  0
LINE
  5
264
330
1F
100
AcDbEntity
  8
0
  6
CONTINUOUS
 62
     7
100
AcDbLine
 10
495.5000000000832
 20
151.8699029780821
 30
0.0
 11
495.5000000000511
 21
150.8699029780821
 31
0.0
  0
LINE
  5
265
330
1F
100
AcDbEntity
  8
0
  6
CONTINUOUS
 62
     7
100
AcDbLine
 10
511.5000000000831
 20
151.8699029775693
 30
0.0
 11
511.5000000000511
 21
150.8699029775693
 31
0.0
  0
LINE
  5
266
330
1F
100
AcDbEntity
  8
0
  6
CONTINUOUS
 62
     7
100
AcDbLine
 10
509.5000000000831
 20
151.8699029776334
 30
0.0
 11
509.500000000051
 21
150.8699029776334
 31
0.0
  0
LINE
  5
267
330
1F
100
AcDbEntity
  8
0
  6
CONTINUOUS
 62
     7
100
AcDbLine
 10
511.4999999998972
 20
146.0741376694978
 30
0.0
 11
511.4999999998653
 21
145.0741376694978
 31
0.0
  0
LINE
  5
268
330
1F
100
AcDbEntity
  8
0
  6
CONTINUOUS
 62
     7
100
AcDbLine
 10
511.4999999998653
 20
145.0741376694978
 30
0.0
 11
509.4999999998653
 21
145.0741376695619
 31
0.0
  0
LINE
  5
269
330
1F
100
AcDbEntity
  8
0
  6
CONTINUOUS
 62
     7
100
AcDbLine
 10
509.4999999998972
 20
146.074137669562
 30
0.0
 11
509.4999999998653
 21
145.074137669562
 31
0.0
  0
LINE
  5
26A
330
1F
100
AcDbEntity
  8
0
  6
CONTINUOUS
 62
     7
100
AcDbLine
 10
511.5000000000511
 20
150.8699029775693
 30
0.0
 11
511.4999999998975
 21
146.0741376694979
 31
0.0
  0
LINE
  5
26B
330
1F
100
AcDbEntity
  8
0
  6
CONTINUOUS
 62
     7
100
AcDbLine
 10
509.5000000000511
 20
150.8699029776334
 30
0.0
 11
509.4999999998975
 21
146.074137669562
 31
0.0
  0
LINE
  5
26C
330
1F
100
AcDbEntity
  8
0
  6
CONTINUOUS
 62
     7
100
AcDbLine
 10
495.5000000000838
 20
151.9108642030711
 30
0.0
 11
495.5000000000825
 21
151.8699029780821
 31
0.0
  0
LINE
  5
26D
330
1F
100
AcDbEntity
  8
0
  6
CONTINUOUS
 62
     7
100
AcDbLine
 10
493.5000000000825
 20
151.8699029781462
 30
0.0
 11
493.5000000000838
 21
151.9108642031352
 31
0.0
  0
LINE
  5
26E
330
1F
100
AcDbEntity
  8
0
  6
CONTINUOUS
 62
     7
100
AcDbLine
 10
501.9426406872407
 20
153.0741376698041
 30
0.0
 11
499.821320343681
 21
153.0741376698722
 31
0.0
  0
LINE
  5
26F
330
1F
100
AcDbEntity
  8
0
  6
CONTINUOUS
 62
     7
100
AcDbLine
 10
499.821320343745
 20
155.0741376698722
 30
0.0
 11
501.9426406873046
 21
155.0741376698041
 31
0.0
  0
ARC
  5
270
330
1F
100
AcDbEntity
  8
0
  6
CONTINUOUS
 62
     7
100
AcDbCircle
 10
509.9000000001342
 20
153.4741376695491
 30
0.0
 40
1.6
100
AcDbArc
 50
359.9999999981637
 51
89.99999999816323
  0
LINE
  5
271
330
1F
100
AcDbEntity
  8
0
  6
CONTINUOUS
 62
     7
100
AcDbLine
 10
501.9426406872407
 20
153.0741376698041
 30
0.0
 11
509.5000000001215
 21
153.074137669562
 31
0.0
  0
LINE
  5
272
330
1F
100
AcDbEntity
  8
0
  6
CONTINUOUS
 62
     7
100
AcDbLine
 10
501.9426406873046
 20
155.0741376698041
 30
0.0
 11
509.9000000001855
 21
155.0741376695491
 31
0.0
  0
LINE
  5
273
330
1F
100
AcDbEntity
  8
0
  6
CONTINUOUS
 62
     7
100
AcDbLine
 10
511.5000000001342
 20
153.4741376694978
 30
0.0
 11
511.5000000000828
 21
151.8699029775692
 31
0.0
  0
LINE
  5
274
330
1F
100
AcDbEntity
  8
0
  6
CONTINUOUS
 62
     7
100
AcDbLine
 10
509.5000000001214
 20
153.074137669562
 30
0.0
 11
509.5000000000829
 21
151.8699029776334
 31
0.0
  0
LINE
  5
275
330
1F
100
AcDbEntity
  8
0
  6
CONTINUOUS
 62
     7
100
AcDbLine
 10
499.8213203436809
 20
153.0741376698722
 30
0.0
 11
495.9464466095277
 21
153.0741376699963
 31
0.0
  0
LINE
  5
276
330
1F
100
AcDbEntity
  8
0
  6
CONTINUOUS
 62
     7
100
AcDbLine
 10
499.821320343745
 20
155.0741376698722
 30
0.0
 11
495.9464466095918
 21
155.0741376699963
 31
0.0
  0
LINE
  5
277
330
1F
100
AcDbEntity
  8
0
  6
CONTINUOUS
 62
     7
100
AcDbLine
 10
495.5000000000838
 20
151.9108642030711
 30
0.0
 11
495.5000000001152
 21
152.8906682618515
 31
0.0
  0
LINE
  5
278
330
1F
100
AcDbEntity
  8
0
  6
CONTINUOUS
 62
     7
100
AcDbLine
 10
493.5000000001152
 20
152.8906682619156
 30
0.0
 11
493.5000000000838
 21
151.9108642031352
 31
0.0
  0
LINE
  5
279
330
1F
100
AcDbEntity
  8
0
  6
CONTINUOUS
 62
     7
100
AcDbLine
 10
495.5928932189344
 20
153.0741376700077
 30
0.0
 11
495.9464466095277
 21
153.0741376699964
 31
0.0
  0
LINE
  5
27A
330
1F
100
AcDbEntity
  8
0
  6
CONTINUOUS
 62
     7
100
AcDbLine
 10
495.9464466095918
 20
155.0741376699963
 30
0.0
 11
495.5928932189985
 21
155.0741376700076
 31
0.0
  0
ARC
  5
27B
330
1F
100
AcDbEntity
  8
0
  6
CONTINUOUS
 62
     7
100
AcDbCircle
 10
495.1000000001339
 20
153.4741376700235
 30
0.0
 40
1.599999999999997
100
AcDbArc
 50
89.9999999981635
 51
179.9999999981637
  0
LINE
  5
27C
330
1F
100
AcDbEntity
  8
0
  6
CONTINUOUS
 62
     7
100
AcDbLine
 10
495.5928932189344
 20
153.0741376700077
 30
0.0
 11
495.500000000121
 21
153.0741376700107
 31
0.0
  0
LINE
  5
27D
330
1F
100
AcDbEntity
  8
0
  6
CONTINUOUS
 62
     7
100
AcDbLine
 10
495.5928932189985
 20
155.0741376700077
 30
0.0
 11
495.1000000001851
 21
155.0741376700235
 31
0.0
  0
LINE
  5
27E
330
1F
100
AcDbEntity
  8
0
  6
CONTINUOUS
 62
     7
100
AcDbLine
 10
495.500000000121
 20
153.0741376700107
 30
0.0
 11
495.5000000001151
 21
152.8906682618515
 31
0.0
  0
LINE
  5
27F
330
1F
100
AcDbEntity
  8
0
  6
CONTINUOUS
 62
     7
100
AcDbLine
 10
493.5000000001338
 20
153.4741376700748
 30
0.0
 11
493.5000000001151
 21
152.8906682619156
 31
0.0
  0
LINE
  5
280
330
1F
100
AcDbEntity
  8
0
  6
CONTINUOUS
 62
     7
100
AcDbLine
 10
504.9500000004438
 20
163.5043583701892
 30
0.0
 11
504.8753947044876
 21
163.504358370194
 31
0.0
  0
ARC
  5
281
330
1F
100
AcDbEntity
  8
0
  6
CONTINUOUS
 62
     7
100
AcDbCircle
 10
502.4999999999578
 20
155.8887493992955
 30
0.0
 40
7.977468270071654
100
AcDbArc
 50
72.67670820464629
 51
85.68660625841056
  0
LINE
  5
282
330
1F
100
AcDbEntity
  8
0
  6
CONTINUOUS
 62
     7
100
AcDbLine
 10
500.124605296404
 20
163.5043583704986
 30
0.0
 11
500.0500000004478
 21
163.5043583705033
 31
0.0
  0
ARC
  5
283
330
1F
100
AcDbEntity
  8
0
  6
CONTINUOUS
 62
     7
100
AcDbCircle
 10
502.4999999999578
 20
155.8887493992955
 30
0.0
 40
7.977468270071652
100
AcDbArc
 50
94.31339373424385
 51
107.323291788008
  0
LINE
  5
284
330
1F
100
AcDbEntity
  8
0
  6
CONTINUOUS
 62
     7
100
AcDbLine
 10
501.9000000004461
 20
163.5043583703811
 30
0.0
 11
501.900000000468
 21
163.8436221198673
 31
0.0
  0
LINE
  5
285
330
1F
100
AcDbEntity
  8
0
  6
CONTINUOUS
 62
     7
100
AcDbLine
 10
503.1000000004449
 20
163.5043583703078
 30
0.0
 11
501.9000000004471
 21
163.5043583703847
 31
0.0
  0
LINE
  5
286
330
1F
100
AcDbEntity
  8
0
  6
CONTINUOUS
 62
     7
100
AcDbLine
 10
503.1000000004673
 20
163.8436221197906
 30
0.0
 11
503.1000000004455
 21
163.5043583703042
 31
0.0
  0
LINE
  5
287
330
1F
100
AcDbEntity
  8
0
  6
CONTINUOUS
 62
     7
100
AcDbLine
 10
507.2500000003661
 20
162.3259459937801
 30
0.0
 11
497.7500000003744
 21
162.325945994389
 31
0.0
  0
LINE
  5
288
330
1F
100
AcDbEntity
  8
0
  6
CONTINUOUS
 62
     7
100
AcDbLine
 10
507.2500000002291
 20
160.1887493989891
 30
0.0
 11
497.7500000002374
 21
160.1887493995981
 31
0.0
  0
LINE
  5
289
330
1F
100
AcDbEntity
  8
0
  6
CONTINUOUS
 62
     7
100
AcDbLine
 10
498.3500000001914
 20
159.5349032457138
 30
0.0
 11
498.3514580876093
 21
158.6887493995602
 31
0.0
  0
LINE
  5
28A
330
1F
100
AcDbEntity
  8
0
  6
CONTINUOUS
 62
     7
100
AcDbLine
 10
498.3508705734739
 20
160.1887493995596
 30
0.0
 11
498.3500000001914
 21
159.5349032457138
 31
0.0
  0
LINE
  5
28B
330
1F
100
AcDbEntity
  8
0
  6
CONTINUOUS
 62
     7
100
AcDbLine
 10
498.3612230069658
 20
160.1887493995589
 30
0.0
 11
498.3514580876093
 21
158.6887493995602
 31
0.0
  0
LINE
  5
28C
330
1F
100
AcDbEntity
  8
0
  6
CONTINUOUS
 62
     7
100
AcDbLine
 10
497.5000000000774
 20
157.6887493996152
 30
0.0
 11
507.5000000000688
 21
157.6887493989742
 31
0.0
  0
LINE
  5
28D
330
1F
100
AcDbEntity
  8
0
  6
CONTINUOUS
 62
     7
100
AcDbLine
 10
497.5000000001415
 20
158.6887493996148
 30
0.0
 11
507.5000000001328
 21
158.6887493989738
 31
0.0
  0
LINE
  5
28E
330
1F
100
AcDbEntity
  8
0
  6
CONTINUOUS
 62
     7
100
AcDbLine
 10
396.6573423986559
 20
151.188749403461
 30
0.0
 11
396.6573423986559
 21
155.188749403461
 31
0.0
  0
LINE
  5
28F
330
1F
100
AcDbEntity
  8
0
  6
CONTINUOUS
 62
     7
100
AcDbLine
 10
476.6573423986559
 20
151.188749403461
 30
0.0
 11
476.6573423986559
 21
155.188749403461
 31
0.0
  0
CIRCLE
  5
290
330
1F
100
AcDbEntity
  8
0
  6
CONTINUOUS
 62
     7
100
AcDbCircle
 10
461.6573423986559
 20
150.188749403461
 30
0.0
 40
0.7928932188134363
  0
LINE
  5
291
330
1F
100
AcDbEntity
  8
0
  6
CONTINUOUS
 62
     7
100
AcDbLine
 10
473.6573423986559
 20
145.188749403461
 30
0.0
 11
399.6573423986559
 21
145.188749403461
 31
0.0
  0
ARC
  5
292
330
1F
100
AcDbEntity
  8
0
  6
CONTINUOUS
 62
     7
100
AcDbCircle
 10
399.6573423986559
 20
148.188749403461
 30
0.0
 40
3.000000000000003
100
AcDbArc
 50
180.0
 51
270.0
  0
LINE
  5
293
330
1F
100
AcDbEntity
  8
0
  6
CONTINUOUS
 62
     7
100
AcDbLine
 10
396.6573423986559
 20
148.188749403461
 30
0.0
 11
396.6573423986559
 21
151.188749403461
 31
0.0
  0
CIRCLE
  5
294
330
1F
100
AcDbEntity
  8
0
  6
CONTINUOUS
 62
     7
100
AcDbCircle
 10
411.6573423986559
 20
150.188749403461
 30
0.0
 40
0.7928932188134363
  0
ARC
  5
295
330
1F
100
AcDbEntity
  8
0
  6
CONTINUOUS
 62
     7
100
AcDbCircle
 10
473.6573423986559
 20
148.188749403461
 30
0.0
 40
2.999999999999999
100
AcDbArc
 50
270.0
 51
0.0
  0
LINE
  5
296
330
1F
100
AcDbEntity
  8
0
  6
CONTINUOUS
 62
     7
100
AcDbLine
 10
476.6573423986559
 20
148.188749403461
 30
0.0
 11
476.6573423986559
 21
151.188749403461
 31
0.0
  0
LINE
  5
297
330
1F
100
AcDbEntity
  8
0
  6
CONTINUOUS
 62
     7
100
AcDbLine
 10
476.6573423986559
 20
157.188749403461
 30
0.0
 11
396.6573423986559
 21
157.188749403461
 31
0.0
  0
LINE
  5
298
330
1F
100
AcDbEntity
  8
0
  6
CONTINUOUS
 62
     7
100
AcDbLine
 10
396.6573423986559
 20
155.188749403461
 30
0.0
 11
396.6573423986559
 21
157.188749403461
 31
0.0
  0
LINE
  5
299
330
1F
100
AcDbEntity
  8
0
  6
CONTINUOUS
 62
     7
100
AcDbLine
 10
476.6573423986559
 20
155.188749403461
 30
0.0
 11
476.6573423986559
 21
157.188749403461
 31
0.0
  0
CIRCLE
  5
29A
330
1F
100
AcDbEntity
  8
0
  6
CONTINUOUS
 62
   253
100
AcDbCircle
 10
411.6573423986559
 20
150.188749403461
 30
0.0
 40
0.1414213562373106
  0
CIRCLE
  5
29B
330
1F
100
AcDbEntity
  8
0
  6
CONTINUOUS
 62
   253
100
AcDbCircle
 10
461.6573423986559
 20
150.188749403461
 30
0.0
 40
0.1414213562373106
  0
LINE
  5
29C
330
1F
100
AcDbEntity
  8
0
  6
CONTINUOUS
 62
     7
100
AcDbLine
 10
365.5999999997435
 20
141.1563778722418
 30
0.0
 11
379.3999999997436
 21
141.1563778717996
 31
0.0
  0
LINE
  5
29D
330
1F
100
AcDbEntity
  8
0
  6
CONTINUOUS
 62
     7
100
AcDbLine
 10
365.5000000000865
 20
151.851785384521
 30
0.0
 11
363.5000000000865
 21
151.8517853845851
 31
0.0
  0
LINE
  5
29E
330
1F
100
AcDbEntity
  8
0
  6
CONTINUOUS
 62
     7
100
AcDbLine
 10
381.5000000000865
 20
151.8517853840083
 30
0.0
 11
379.5000000000865
 21
151.8517853840724
 31
0.0
  0
LINE
  5
29F
330
1F
100
AcDbEntity
  8
0
  6
CONTINUOUS
 62
     7
100
AcDbLine
 10
377.2500000002337
 20
160.188749407318
 30
0.0
 11
377.2500000003707
 21
162.3259460021092
 31
0.0
  0
LINE
  5
2A0
330
1F
100
AcDbEntity
  8
0
  6
CONTINUOUS
 62
     7
100
AcDbLine
 10
367.7500000003724
 20
162.3259460027181
 30
0.0
 11
367.7500000002354
 21
160.1887494079269
 31
0.0
  0
ARC
  5
2A1
330
1F
100
AcDbEntity
  8
0
  6
CONTINUOUS
 62
     7
100
AcDbCircle
 10
372.499999999959
 20
155.8887494076236
 30
0.0
 40
7.999999999999995
100
AcDbArc
 50
107.8333827061334
 51
126.423573638659
  0
ARC
  5
2A2
330
1F
100
AcDbEntity
  8
0
  6
CONTINUOUS
 62
     7
100
AcDbCircle
 10
372.499999999959
 20
155.8887494076236
 30
0.0
 40
8.000000000000004
100
AcDbArc
 50
53.57642635399635
 51
72.16661728652191
  0
LINE
  5
2A3
330
1F
100
AcDbEntity
  8
0
  6
CONTINUOUS
 62
     7
100
AcDbLine
 10
374.9999999997581
 20
152.7623248980406
 30
0.0
 11
374.9999999997769
 21
153.0560200761452
 31
0.0
  0
LINE
  5
2A4
330
1F
100
AcDbEntity
  8
0
  6
CONTINUOUS
 62
     7
100
AcDbLine
 10
374.9999999999052
 20
155.0560200761452
 30
0.0
 11
375.000000000074
 21
157.6887494074664
 31
0.0
  0
LINE
  5
2A5
330
1F
100
AcDbEntity
  8
0
  6
CONTINUOUS
 62
     7
100
AcDbLine
 10
370.0000000000747
 20
157.6887494077869
 30
0.0
 11
369.999999999906
 21
155.0560200763104
 31
0.0
  0
LINE
  5
2A6
330
1F
100
AcDbEntity
  8
0
  6
CONTINUOUS
 62
     7
100
AcDbLine
 10
369.9999999997779
 20
153.0560200763116
 30
0.0
 11
369.999999999759
 21
152.762372339425
 31
0.0
  0
LINE
  5
2A7
330
1F
100
AcDbEntity
  8
0
  6
CONTINUOUS
 62
     7
100
AcDbLine
 10
376.6500000001377
 20
158.6887494073569
 30
0.0
 11
376.6500000002338
 21
160.1887494073565
 31
0.0
  0
LINE
  5
2A8
330
1F
100
AcDbEntity
  8
0
  6
CONTINUOUS
 62
     7
100
AcDbLine
 10
368.3500000002352
 20
160.1887494078884
 30
0.0
 11
368.3500000001391
 21
158.6887494078888
 31
0.0
  0
LINE
  5
2A9
330
1F
100
AcDbEntity
  8
0
  6
CONTINUOUS
 62
     7
100
AcDbLine
 10
377.5000000000734
 20
157.6887494073027
 30
0.0
 11
377.5000000001376
 21
158.6887494073024
 31
0.0
  0
LINE
  5
2AA
330
1F
100
AcDbEntity
  8
0
  6
CONTINUOUS
 62
     7
100
AcDbLine
 10
367.5000000001393
 20
158.6887494079433
 30
0.0
 11
367.5000000000752
 21
157.6887494079436
 31
0.0
  0
LINE
  5
2AB
330
1F
100
AcDbEntity
  8
0
  6
CONTINUOUS
 62
     7
100
AcDbLine
 10
495.5999999997402
 20
141.1744954658029
 30
0.0
 11
509.39999999974
 21
141.1744954653606
 31
0.0
  0
LINE
  5
2AC
330
1F
100
AcDbEntity
  8
0
  6
CONTINUOUS
 62
     7
100
AcDbLine
 10
495.5000000000832
 20
151.8699029780821
 30
0.0
 11
493.5000000000832
 21
151.8699029781462
 31
0.0
  0
LINE
  5
2AD
330
1F
100
AcDbEntity
  8
0
  6
CONTINUOUS
 62
     7
100
AcDbLine
 10
511.5000000000831
 20
151.8699029775693
 30
0.0
 11
509.5000000000831
 21
151.8699029776334
 31
0.0
  0
ARC
  5
2AE
330
1F
100
AcDbEntity
  8
0
  6
CONTINUOUS
 62
     7
100
AcDbCircle
 10
502.4999999999578
 20
155.8887493992955
 30
0.0
 40
8.000000000000004
100
AcDbArc
 50
107.8333827061402
 51
126.4235736386582
  0
ARC
  5
2AF
330
1F
100
AcDbEntity
  8
0
  6
CONTINUOUS
 62
     7
100
AcDbCircle
 10
502.4999999999578
 20
155.8887493992955
 30
0.0
 40
7.999999999999988
100
AcDbArc
 50
53.57642635399607
 51
72.16661728651418
  0
LINE
  5
2B0
330
1F
100
AcDbEntity
  8
0
  6
CONTINUOUS
 62
     7
100
AcDbLine
 10
507.2500000002312
 20
160.1887493989891
 30
0.0
 11
507.2500000003682
 21
162.3259459937801
 31
0.0
  0
LINE
  5
2B1
330
1F
100
AcDbEntity
  8
0
  6
CONTINUOUS
 62
     7
100
AcDbLine
 10
497.7500000003724
 20
162.325945994389
 30
0.0
 11
497.7500000002354
 21
160.1887493995981
 31
0.0
  0
LINE
  5
2B2
330
1F
100
AcDbEntity
  8
0
  6
CONTINUOUS
 62
     7
100
AcDbLine
 10
504.9999999997573
 20
152.7804424916022
 30
0.0
 11
504.9999999997759
 21
153.0741376697061
 31
0.0
  0
LINE
  5
2B3
330
1F
100
AcDbEntity
  8
0
  6
CONTINUOUS
 62
     7
100
AcDbLine
 10
504.9999999999044
 20
155.0741376697062
 30
0.0
 11
505.000000000072
 21
157.6887493991399
 31
0.0
  0
LINE
  5
2B4
330
1F
100
AcDbEntity
  8
0
  6
CONTINUOUS
 62
     7
100
AcDbLine
 10
500.0000000000742
 20
157.6887493994604
 30
0.0
 11
499.9999999999065
 21
155.0741376698741
 31
0.0
  0
LINE
  5
2B5
330
1F
100
AcDbEntity
  8
0
  6
CONTINUOUS
 62
     7
100
AcDbLine
 10
499.9999999997783
 20
153.0741376698759
 30
0.0
 11
499.9999999997595
 21
152.7804899329851
 31
0.0
  0
LINE
  5
2B6
330
1F
100
AcDbEntity
  8
0
  6
CONTINUOUS
 62
     7
100
AcDbLine
 10
506.6500000001354
 20
158.6887493990282
 30
0.0
 11
506.6500000002315
 21
160.1887493990276
 31
0.0
  0
LINE
  5
2B7
330
1F
100
AcDbEntity
  8
0
  6
CONTINUOUS
 62
     7
100
AcDbLine
 10
498.3500000002351
 20
160.1887493995596
 30
0.0
 11
498.3500000001932
 21
159.5349032457138
 31
0.0
  0
LINE
  5
2B8
330
1F
100
AcDbEntity
  8
0
  6
CONTINUOUS
 62
     7
100
AcDbLine
 10
507.5000000000709
 20
157.6887493989742
 30
0.0
 11
507.5000000001352
 21
158.6887493989738
 31
0.0
  0
LINE
  5
2B9
330
1F
100
AcDbEntity
  8
0
  6
CONTINUOUS
 62
     7
100
AcDbLine
 10
497.5000000001393
 20
158.6887493996148
 30
0.0
 11
497.5000000000752
 21
157.6887493996152
 31
0.0
  0
LINE
  5
2BA
330
1F
100
AcDbEntity
  8
0
  6
CONTINUOUS
 62
     7
100
AcDbLine
 10
646.4981128449168
 20
142.2703629012454
 30
0.0
 11
648.4486509975038
 21
145.0560200759369
 31
0.0
  0
ARC
  5
2BB
330
1F
100
AcDbEntity
  8
0
  6
CONTINUOUS
 62
     7
100
AcDbCircle
 10
645.5027187264848
 20
142.1563778717996
 30
0.0
 40
0.999999999999982
100
AcDbArc
 50
179.4809363129473
 51
0.519012012447888
  0
ARC
  5
2BC
330
1F
100
AcDbEntity
  8
0
  6
CONTINUOUS
 62
     7
100
AcDbCircle
 10
669.4972812653434
 20
142.1563778717996
 30
0.0
 40
0.9999999999999907
100
AcDbArc
 50
179.4809362933224
 51
0.5190119825275019
  0
LINE
  5
2BD
330
1F
100
AcDbEntity
  8
0
  6
CONTINUOUS
 62
     7
100
AcDbLine
 10
668.5018871612823
 20
142.2703628807214
 30
0.0
 11
666.5513489943244
 21
145.0560200759369
 31
0.0
  0
ARC
  5
2BE
330
1F
100
AcDbEntity
  8
0
  6
CONTINUOUS
 62
     7
100
AcDbCircle
 10
643.2499999959143
 20
146.0560200759369
 30
0.0
 40
1.000000000000001
100
AcDbArc
 50
180.0000000000002
 51
270.0
  0
ARC
  5
2BF
330
1F
100
AcDbEntity
  8
0
  6
CONTINUOUS
 62
     7
100
AcDbCircle
 10
671.7499999959143
 20
146.0560200759369
 30
0.0
 40
1.000000000000001
100
AcDbArc
 50
270.0
 51
359.9999999999998
  0
LINE
  5
2C0
330
1F
100
AcDbEntity
  8
0
  6
CONTINUOUS
 62
     7
100
AcDbLine
 10
671.7499999959143
 20
145.0560200759369
 30
0.0
 11
668.3951969612259
 21
145.0560200759369
 31
0.0
  0
LINE
  5
2C1
330
1F
100
AcDbEntity
  8
0
  6
CONTINUOUS
 62
     7
100
AcDbLine
 10
666.5640350780837
 20
145.0560200759369
 30
0.0
 11
663.5621778224054
 21
145.0560200759369
 31
0.0
  0
ARC
  5
2C2
330
1F
100
AcDbEntity
  8
0
  6
CONTINUOUS
 62
     7
100
AcDbCircle
 10
663.5621778224054
 20
146.0560200759369
 30
0.0
 40
1.000000000000023
100
AcDbArc
 50
242.2042275039721
 51
270.0000000000009
  0
ARC
  5
2C3
330
1F
100
AcDbEntity
  8
0
  6
CONTINUOUS
 62
     7
100
AcDbCircle
 10
657.4999999959143
 20
134.5560200759369
 30
0.0
 40
12.00000000000002
100
AcDbArc
 50
62.20422750397217
 51
117.7957724960279
  0
ARC
  5
2C4
330
1F
100
AcDbEntity
  8
0
  6
CONTINUOUS
 62
     7
100
AcDbCircle
 10
651.4378221694233
 20
146.0560200759369
 30
0.0
 40
1.000000000000001
100
AcDbArc
 50
269.9999999999992
 51
297.7957724960279
  0
LINE
  5
2C5
330
1F
100
AcDbEntity
  8
0
  6
CONTINUOUS
 62
     7
100
AcDbLine
 10
643.2499999959143
 20
145.0560200759369
 30
0.0
 11
646.6048030469499
 21
145.0560200759369
 31
0.0
  0
LINE
  5
2C6
330
1F
100
AcDbEntity
  8
0
  6
CONTINUOUS
 62
     7
100
AcDbLine
 10
648.4359649300922
 20
145.0560200759369
 30
0.0
 11
651.4378221694233
 21
145.0560200759369
 31
0.0
  0
LINE
  5
2C7
330
1F
100
AcDbEntity
  8
0
  6
CONTINUOUS
 62
     7
100
AcDbLine
 10
657.000000004088
 20
152.0741376695555
 30
0.0
 11
654.000000004088
 21
152.0741376695555
 31
0.0
  0
LINE
  5
2C8
330
1F
100
AcDbEntity
  8
0
  6
CONTINUOUS
 62
     7
100
AcDbLine
 10
654.000000004088
 20
153.0741376695651
 30
0.0
 11
657.000000004088
 21
153.0741376695651
 31
0.0
  0
LINE
  5
2C9
330
1F
100
AcDbEntity
  8
0
  6
CONTINUOUS
 62
     7
100
AcDbLine
 10
657.000000004088
 20
153.0741376695651
 30
0.0
 11
657.000000004088
 21
152.0741376695555
 31
0.0
  0
LINE
  5
2CA
330
1F
100
AcDbEntity
  8
0
  6
CONTINUOUS
 62
     7
100
AcDbLine
 10
654.000000004088
 20
152.0741376695555
 30
0.0
 11
654.000000004088
 21
153.0741376695651
 31
0.0
  0
LINE
  5
2CB
330
1F
100
AcDbEntity
  8
0
  6
CONTINUOUS
 62
     7
100
AcDbLine
 10
654.500000004088
 20
151.5741376695555
 30
0.0
 11
656.500000004088
 21
151.5741376695555
 31
0.0
  0
ARC
  5
2CC
330
1F
100
AcDbEntity
  8
0
  6
CONTINUOUS
 62
     7
100
AcDbCircle
 10
654.500000004088
 20
152.0741376695555
 30
0.0
 40
0.4999999999999449
100
AcDbArc
 50
180.0000000000016
 51
270.0
  0
ARC
  5
2CD
330
1F
100
AcDbEntity
  8
0
  6
CONTINUOUS
 62
     7
100
AcDbCircle
 10
656.500000004088
 20
152.0741376695555
 30
0.0
 40
0.5000000000000004
100
AcDbArc
 50
269.9999999999995
 51
0.0
  0
LINE
  5
2CE
330
1F
100
AcDbEntity
  8
0
  6
CONTINUOUS
 62
     7
100
AcDbLine
 10
646.4964679199933
 20
142.286131286882
 30
0.0
 11
648.4486510056777
 21
145.0741376694978
 31
0.0
  0
ARC
  5
2CF
330
1F
100
AcDbEntity
  8
0
  6
CONTINUOUS
 62
     7
100
AcDbCircle
 10
645.5027187346586
 20
142.1744954653606
 30
0.0
 40
0.9999999999999987
100
AcDbArc
 50
103.5903778907248
 51
6.409622109267616
  0
LINE
  5
2D0
330
1F
100
AcDbEntity
  8
0
  6
CONTINUOUS
 62
     7
100
AcDbLine
 10
646.6174891225354
 20
145.0741376694978
 30
0.0
 11
645.2677398535598
 21
143.1464959414086
 31
0.0
  0
LINE
  5
2D1
330
1F
100
AcDbEntity
  8
0
  6
CONTINUOUS
 62
     7
100
AcDbLine
 10
654.000000004088
 20
153.0741376695651
 30
0.0
 11
653.7601020555313
 21
153.0741376695651
 31
0.0
  0
LINE
  5
2D2
330
1F
100
AcDbEntity
  8
0
  6
CONTINUOUS
 62
     7
100
AcDbLine
 10
653.7500000040881
 20
151.5741376695651
 30
0.0
 11
654.500000004088
 21
151.5741376695651
 31
0.0
  0
ARC
  5
2D3
330
1F
100
AcDbEntity
  8
0
  6
CONTINUOUS
 62
     7
100
AcDbCircle
 10
662.2602835293638
 20
152.0741376695651
 30
0.0
 40
1.000000000000009
100
AcDbArc
 50
35.00000000000034
 51
76.50000000000114
  0
LINE
  5
2D4
330
1F
100
AcDbEntity
  8
0
  6
CONTINUOUS
 62
     7
100
AcDbLine
 10
663.0794355736527
 20
152.6477141059162
 30
0.0
 11
663.6446243641603
 21
151.8405408613198
 31
0.0
  0
LINE
  5
2D5
330
1F
100
AcDbEntity
  8
0
  6
CONTINUOUS
 62
     7
100
AcDbLine
 10
668.3825108856404
 20
145.0741376694978
 30
0.0
 11
669.732260154616
 21
143.1464959414086
 31
0.0
  0
ARC
  5
2D6
330
1F
100
AcDbEntity
  8
0
  6
CONTINUOUS
 62
     7
100
AcDbCircle
 10
669.4972812735173
 20
142.1744954653606
 30
0.0
 40
0.9999999999999987
100
AcDbArc
 50
173.5903778907324
 51
76.40962210927523
  0
LINE
  5
2D7
330
1F
100
AcDbEntity
  8
0
  6
CONTINUOUS
 62
     7
100
AcDbLine
 10
668.5035320881826
 20
142.2861312868819
 30
0.0
 11
666.5513490024982
 21
145.0741376694978
 31
0.0
  0
LINE
  5
2D8
330
1F
100
AcDbEntity
  8
0
  6
CONTINUOUS
 62
     7
100
AcDbLine
 10
657.2398979526446
 20
153.0741376695651
 30
0.0
 11
657.000000004088
 21
153.0741376695651
 31
0.0
  0
LINE
  5
2D9
330
1F
100
AcDbEntity
  8
0
  6
CONTINUOUS
 62
     7
100
AcDbLine
 10
656.500000004088
 20
151.5741376695651
 30
0.0
 11
657.2500000040882
 21
151.5741376695651
 31
0.0
  0
LINE
  5
2DA
330
1F
100
AcDbEntity
  8
0
  6
CONTINUOUS
 62
     7
100
AcDbLine
 10
647.600000004088
 20
155.0741376695491
 30
0.0
 11
647.600000004088
 21
153.4741376694978
 31
0.0
  0
LINE
  5
2DB
330
1F
100
AcDbEntity
  8
0
  6
CONTINUOUS
 62
     7
100
AcDbLine
 10
653.750000004088
 20
155.0741376695491
 30
0.0
 11
647.600000004088
 21
155.0741376695491
 31
0.0
  0
LINE
  5
2DC
330
1F
100
AcDbEntity
  8
0
  6
CONTINUOUS
 62
     7
100
AcDbLine
 10
653.750000004088
 20
153.4741376694978
 30
0.0
 11
653.750000004088
 21
155.0741376695491
 31
0.0
  0
LINE
  5
2DD
330
1F
100
AcDbEntity
  8
0
  6
CONTINUOUS
 62
   253
100
AcDbLine
 10
647.6000000040881
 20
153.4741376694978
 30
0.0
 11
653.7500000040881
 21
153.4741376694978
 31
0.0
  0
LINE
  5
2DE
330
1F
100
AcDbEntity
  8
0
  6
CONTINUOUS
 62
     7
100
AcDbLine
 10
662.500000004088
 20
153.4741376694978
 30
0.0
 11
662.500000004088
 21
155.0741376695491
 31
0.0
  0
LINE
  5
2DF
330
1F
100
AcDbEntity
  8
0
  6
CONTINUOUS
 62
   253
100
AcDbLine
 10
657.2500000040882
 20
153.4741376694978
 30
0.0
 11
662.5000000040882
 21
153.4741376694978
 31
0.0
  0
LINE
  5
2E0
330
1F
100
AcDbEntity
  8
0
  6
CONTINUOUS
 62
     7
100
AcDbLine
 10
662.500000004088
 20
155.0741376695491
 30
0.0
 11
657.2500000040881
 21
155.0741376695491
 31
0.0
  0
LINE
  5
2E1
330
1F
100
AcDbEntity
  8
0
  6
CONTINUOUS
 62
     7
100
AcDbLine
 10
657.2500000040881
 20
155.0741376695491
 30
0.0
 11
657.2500000040881
 21
153.4741376694978
 31
0.0
  0
ARC
  5
2E2
330
1F
100
AcDbEntity
  8
0
  6
CONTINUOUS
 62
     7
100
AcDbCircle
 10
643.2500000040882
 20
146.0741376694978
 30
0.0
 40
1.000000000000001
100
AcDbArc
 50
180.0000000000002
 51
270.0
  0
LINE
  5
2E3
330
1F
100
AcDbEntity
  8
0
  6
CONTINUOUS
 62
     7
100
AcDbLine
 10
642.2500000040882
 20
150.8699029775692
 30
0.0
 11
642.2500000040882
 21
146.0741376694978
 31
0.0
  0
ARC
  5
2E4
330
1F
100
AcDbEntity
  8
0
  6
CONTINUOUS
 62
     7
100
AcDbCircle
 10
643.2500000040882
 20
150.8699029775692
 30
0.0
 40
0.9999999999999963
100
AcDbArc
 50
79.4126786817629
 51
180.0
  0
LINE
  5
2E5
330
1F
100
AcDbEntity
  8
0
  6
CONTINUOUS
 62
     7
100
AcDbLine
 10
647.0081330853301
 20
151.1847670001068
 30
0.0
 11
643.4337338416041
 21
151.8528790082799
 31
0.0
  0
ARC
  5
2E6
330
1F
100
AcDbEntity
  8
0
  6
CONTINUOUS
 62
     7
100
AcDbCircle
 10
647.1000000040881
 20
151.6762550154621
 30
0.0
 40
0.500000000000056
100
AcDbArc
 50
259.4126786817631
 51
359.9999999999998
  0
ARC
  5
2E7
330
1F
100
AcDbEntity
  8
0
  6
CONTINUOUS
 62
     7
100
AcDbCircle
 10
654.2500000040881
 20
151.5741376694978
 30
0.0
 40
0.5000000000000004
100
AcDbArc
 50
179.9999999999978
 51
270.0000000000001
  0
LINE
  5
2E8
330
1F
100
AcDbEntity
  8
0
  6
CONTINUOUS
 62
     7
100
AcDbLine
 10
654.2500000040881
 20
151.0741376694978
 30
0.0
 11
656.7500000040881
 21
151.0741376694978
 31
0.0
  0
ARC
  5
2E9
330
1F
100
AcDbEntity
  8
0
  6
CONTINUOUS
 62
     7
100
AcDbCircle
 10
656.7500000040881
 20
151.5741376694978
 30
0.0
 40
0.500000000000056
100
AcDbArc
 50
270.0000000000009
 51
359.9999999999998
  0
ARC
  5
2EA
330
1F
100
AcDbEntity
  8
0
  6
CONTINUOUS
 62
     7
100
AcDbCircle
 10
663.5000000040882
 20
152.8906682613386
 30
0.0
 40
1.000000000000032
100
AcDbArc
 50
180.0
 51
258.4653793463553
  0
LINE
  5
2EB
330
1F
100
AcDbEntity
  8
0
  6
CONTINUOUS
 62
     7
100
AcDbLine
 10
667.400000004088
 20
151.0741376694978
 30
0.0
 11
663.300039992092
 21
151.9108642025582
 31
0.0
  0
LINE
  5
2EC
330
1F
100
AcDbEntity
  8
0
  6
CONTINUOUS
 62
     7
100
AcDbLine
 10
667.400000004088
 20
151.0741376694978
 30
0.0
 11
671.5662661665721
 21
151.8528790082799
 31
0.0
  0
ARC
  5
2ED
330
1F
100
AcDbEntity
  8
0
  6
CONTINUOUS
 62
     7
100
AcDbCircle
 10
671.7500000040881
 20
150.8699029775692
 30
0.0
 40
0.9999999999999893
100
AcDbArc
 50
0.0
 51
100.5873213182371
  0
LINE
  5
2EE
330
1F
100
AcDbEntity
  8
0
  6
CONTINUOUS
 62
     7
100
AcDbLine
 10
672.7500000040881
 20
150.8699029775692
 30
0.0
 11
672.7500000040881
 21
146.0741376694978
 31
0.0
  0
ARC
  5
2EF
330
1F
100
AcDbEntity
  8
0
  6
CONTINUOUS
 62
     7
100
AcDbCircle
 10
671.7500000040881
 20
146.0741376694978
 30
0.0
 40
1.000000000000001
100
AcDbArc
 50
270.0
 51
359.9999999999998
  0
LINE
  5
2F0
330
1F
100
AcDbEntity
  8
0
  6
CONTINUOUS
 62
     7
100
AcDbLine
 10
671.7500000040881
 20
145.0741376694978
 30
0.0
 11
663.5621778305791
 21
145.0741376694978
 31
0.0
  0
ARC
  5
2F1
330
1F
100
AcDbEntity
  8
0
  6
CONTINUOUS
 62
     7
100
AcDbCircle
 10
663.5621778305791
 20
146.0741376694978
 30
0.0
 40
0.9999999999999982
100
AcDbArc
 50
242.2042275039721
 51
270.0000000000009
  0
ARC
  5
2F2
330
1F
100
AcDbEntity
  8
0
  6
CONTINUOUS
 62
     7
100
AcDbCircle
 10
657.5000000040882
 20
134.5741376694978
 30
0.0
 40
12.00000000000002
100
AcDbArc
 50
62.2042275039721
 51
117.7957724960278
  0
ARC
  5
2F3
330
1F
100
AcDbEntity
  8
0
  6
CONTINUOUS
 62
     7
100
AcDbCircle
 10
651.437822177597
 20
146.0741376694978
 30
0.0
 40
1.000000000000001
100
AcDbArc
 50
269.9999999999992
 51
297.7957724960278
  0
LINE
  5
2F4
330
1F
100
AcDbEntity
  8
0
  6
CONTINUOUS
 62
     7
100
AcDbLine
 10
643.2500000040882
 20
145.0741376694978
 30
0.0
 11
651.437822177597
 21
145.0741376694978
 31
0.0
  0
LINE
  5
2F5
330
1F
100
AcDbEntity
  8
0
  6
CONTINUOUS
 62
     7
100
AcDbLine
 10
662.5000000040882
 20
153.4741376694978
 30
0.0
 11
662.5000000040882
 21
152.8906682613386
 31
0.0
  0
LINE
  5
2F6
330
1F
100
AcDbEntity
  8
0
  6
CONTINUOUS
 62
     7
100
AcDbLine
 10
657.2500000040882
 20
151.5741376694978
 30
0.0
 11
657.2500000040882
 21
153.4741376694978
 31
0.0
  0
LINE
  5
2F7
330
1F
100
AcDbEntity
  8
0
  6
CONTINUOUS
 62
     7
100
AcDbLine
 10
653.7500000040881
 20
153.4741376694978
 30
0.0
 11
653.7500000040881
 21
151.5741376694978
 31
0.0
  0
LINE
  5
2F8
330
1F
100
AcDbEntity
  8
0
  6
CONTINUOUS
 62
     7
100
AcDbLine
 10
647.6000000040881
 20
153.4741376694978
 30
0.0
 11
647.6000000040881
 21
151.6762550154621
 31
0.0
  0
LINE
  5
2F9
330
1F
100
AcDbEntity
  8
0
  6
CONTINUOUS
 62
   253
100
AcDbLine
 10
654.250000004088
 20
155.0741376695779
 30
0.0
 11
654.250000004088
 21
153.0741376695779
 31
0.0
  0
LINE
  5
2FA
330
1F
100
AcDbEntity
  8
0
  6
CONTINUOUS
 62
     7
100
AcDbLine
 10
653.750000004088
 20
153.0741376695619
 30
0.0
 11
653.7601020555313
 21
153.0741376695619
 31
0.0
  0
LINE
  5
2FB
330
1F
100
AcDbEntity
  8
0
  6
CONTINUOUS
 62
     7
100
AcDbLine
 10
654.250000004088
 20
155.0741376695619
 30
0.0
 11
653.750000004088
 21
155.0741376695619
 31
0.0
  0
LINE
  5
2FC
330
1F
100
AcDbEntity
  8
0
  6
CONTINUOUS
 62
   253
100
AcDbLine
 10
656.7500000040878
 20
153.0741376695779
 30
0.0
 11
656.7500000040878
 21
155.0741376695779
 31
0.0
  0
LINE
  5
2FD
330
1F
100
AcDbEntity
  8
0
  6
CONTINUOUS
 62
     7
100
AcDbLine
 10
657.2398979526446
 20
153.0741376695619
 30
0.0
 11
657.250000004088
 21
153.0741376695619
 31
0.0
  0
LINE
  5
2FE
330
1F
100
AcDbEntity
  8
0
  6
CONTINUOUS
 62
     7
100
AcDbLine
 10
657.250000004088
 20
155.0741376695619
 30
0.0
 11
656.7500000040878
 21
155.0741376695619
 31
0.0
  0
LINE
  5
2FF
330
1F
100
AcDbEntity
  8
0
  6
CONTINUOUS
 62
   253
100
AcDbLine
 10
662.6464466134946
 20
155.0741376695762
 30
0.0
 11
662.6464466134946
 21
153.0741376695762
 31
0.0
  0
LINE
  5
300
330
1F
100
AcDbEntity
  8
0
  6
CONTINUOUS
 62
     7
100
AcDbLine
 10
662.500000004088
 20
153.0741376695649
 30
0.0
 11
662.6464466134946
 21
153.0741376695649
 31
0.0
  0
LINE
  5
301
330
1F
100
AcDbEntity
  8
0
  6
CONTINUOUS
 62
     7
100
AcDbLine
 10
662.6464466134946
 20
155.0741376695649
 30
0.0
 11
662.500000004088
 21
155.0741376695649
 31
0.0
  0
LINE
  5
302
330
1F
100
AcDbEntity
  8
0
  6
CONTINUOUS
 62
   253
100
AcDbLine
 10
666.5213203476472
 20
153.0741376697004
 30
0.0
 11
666.5213203476472
 21
155.0741376697004
 31
0.0
  0
LINE
  5
303
330
1F
100
AcDbEntity
  8
0
  6
CONTINUOUS
 62
     7
100
AcDbLine
 10
666.5213203476472
 20
153.0741376697004
 30
0.0
 11
662.6464466134946
 21
153.0741376695762
 31
0.0
  0
LINE
  5
304
330
1F
100
AcDbEntity
  8
0
  6
CONTINUOUS
 62
     7
100
AcDbLine
 10
666.5213203476472
 20
155.0741376697004
 30
0.0
 11
662.6464466134946
 21
155.0741376695762
 31
0.0
  0
LINE
  5
305
330
1F
100
AcDbEntity
  8
0
  6
CONTINUOUS
 62
     7
100
AcDbLine
 10
656.7500000040878
 20
155.0741376695779
 30
0.0
 11
654.250000004088
 21
155.0741376695779
 31
0.0
  0
LINE
  5
306
330
1F
100
AcDbEntity
  8
0
  6
CONTINUOUS
 62
     7
100
AcDbLine
 10
667.4000000040875
 20
155.0741376697684
 30
0.0
 11
667.4000000040875
 21
153.0741376697684
 31
0.0
  0
LINE
  5
307
330
1F
100
AcDbEntity
  8
0
  6
CONTINUOUS
 62
     7
100
AcDbLine
 10
667.4000000040875
 20
153.0741376697684
 30
0.0
 11
666.5213203476472
 21
153.0741376697684
 31
0.0
  0
LINE
  5
308
330
1F
100
AcDbEntity
  8
0
  6
CONTINUOUS
 62
     7
100
AcDbLine
 10
666.5213203476472
 20
155.0741376697684
 30
0.0
 11
667.4000000040875
 21
155.0741376697684
 31
0.0
  0
ARC
  5
309
330
1F
100
AcDbEntity
  8
0
  6
CONTINUOUS
 62
     7
100
AcDbCircle
 10
667.9000000040869
 20
151.6762550159749
 30
0.0
 40
0.4999999999999845
100
AcDbArc
 50
180.0
 51
280.5873213182371
  0
LINE
  5
30A
330
1F
100
AcDbEntity
  8
0
  6
CONTINUOUS
 62
     7
100
AcDbLine
 10
667.4000000040869
 20
153.0741376700106
 30
0.0
 11
667.4000000040869
 21
151.6762550159749
 31
0.0
  0
LINE
  5
30B
330
1F
100
AcDbEntity
  8
0
  6
CONTINUOUS
 62
     7
100
AcDbLine
 10
659.9500000040846
 20
163.5043583703463
 30
0.0
 11
659.8753947081286
 21
163.5043583703463
 31
0.0
  0
LINE
  5
30C
330
1F
100
AcDbEntity
  8
0
  6
CONTINUOUS
 62
     7
100
AcDbLine
 10
662.2500000040825
 20
162.3259459940845
 30
0.0
 11
657.5000000040867
 21
162.3259459940845
 31
0.0
  0
LINE
  5
30D
330
1F
100
AcDbEntity
  8
0
  6
CONTINUOUS
 62
     7
100
AcDbLine
 10
656.9000000040867
 20
163.5043583701973
 30
0.0
 11
656.9000000040867
 21
163.8436221197975
 31
0.0
  0
LINE
  5
30E
330
1F
100
AcDbEntity
  8
0
  6
CONTINUOUS
 62
     7
100
AcDbLine
 10
658.1000000040864
 20
163.5043583703463
 30
0.0
 11
656.9000000040875
 21
163.5043583703463
 31
0.0
  0
LINE
  5
30F
330
1F
100
AcDbEntity
  8
0
  6
CONTINUOUS
 62
     7
100
AcDbLine
 10
658.1000000040867
 20
163.8436221197975
 30
0.0
 11
658.1000000040867
 21
163.5043583701973
 31
0.0
  0
ARC
  5
310
330
1F
100
AcDbEntity
  8
0
  6
CONTINUOUS
 62
     7
100
AcDbCircle
 10
657.5000000040867
 20
155.888749399257
 30
0.0
 40
7.977468270071676
100
AcDbArc
 50
72.67670820831204
 51
85.68660626208147
  0
LINE
  5
311
330
1F
100
AcDbEntity
  8
0
  6
CONTINUOUS
 62
     7
100
AcDbLine
 10
655.1246053000448
 20
163.5043583703463
 30
0.0
 11
655.0500000040888
 21
163.5043583703463
 31
0.0
  0
ARC
  5
312
330
1F
100
AcDbEntity
  8
0
  6
CONTINUOUS
 62
     7
100
AcDbCircle
 10
657.5000000040867
 20
155.888749399257
 30
0.0
 40
7.977468270071654
100
AcDbArc
 50
94.31339373791855
 51
107.323291791688
  0
LINE
  5
313
330
1F
100
AcDbEntity
  8
0
  6
CONTINUOUS
 62
     7
100
AcDbLine
 10
657.5000000040867
 20
162.3259459940845
 30
0.0
 11
652.7500000040928
 21
162.3259459940845
 31
0.0
  0
LINE
  5
314
330
1F
100
AcDbEntity
  8
0
  6
CONTINUOUS
 62
     7
100
AcDbLine
 10
662.2500000040825
 20
160.1887493992936
 30
0.0
 11
657.5000000040867
 21
160.1887493992936
 31
0.0
  0
LINE
  5
315
330
1F
100
AcDbEntity
  8
0
  6
CONTINUOUS
 62
     7
100
AcDbLine
 10
657.5000000040867
 20
160.1887493992936
 30
0.0
 11
652.7500000040928
 21
160.1887493992936
 31
0.0
  0
LINE
  5
316
330
1F
100
AcDbEntity
  8
0
  6
CONTINUOUS
 62
     7
100
AcDbLine
 10
652.500000004091
 20
157.6887493992947
 30
0.0
 11
662.5000000040824
 21
157.6887493992947
 31
0.0
  0
LINE
  5
317
330
1F
100
AcDbEntity
  8
0
  6
CONTINUOUS
 62
     7
100
AcDbLine
 10
652.500000004091
 20
158.6887493992942
 30
0.0
 11
662.5000000040824
 21
158.6887493992942
 31
0.0
  0
LINE
  5
318
330
1F
100
AcDbEntity
  8
0
  6
CONTINUOUS
 62
     7
100
AcDbLine
 10
635.4999999999999
 20
151.1887494034609
 30
0.0
 11
635.4999999999999
 21
155.188749403461
 31
0.0
  0
ARC
  5
319
330
1F
100
AcDbEntity
  8
0
  6
CONTINUOUS
 62
     7
100
AcDbCircle
 10
637.4999999999999
 20
155.188749403461
 30
0.0
 40
2.000000000000002
100
AcDbArc
 50
90.0
 51
180.0000000000001
  0
LINE
  5
31A
330
1F
100
AcDbEntity
  8
0
  6
CONTINUOUS
 62
     7
100
AcDbLine
 10
637.4999999999999
 20
157.188749403461
 30
0.0
 11
655.0000000040867
 21
157.188749403461
 31
0.0
  0
LINE
  5
31B
330
1F
100
AcDbEntity
  8
0
  6
CONTINUOUS
 62
     7
100
AcDbLine
 10
660.0000000040866
 20
157.188749403461
 30
0.0
 11
677.5
 21
157.188749403461
 31
0.0
  0
ARC
  5
31C
330
1F
100
AcDbEntity
  8
0
  6
CONTINUOUS
 62
     7
100
AcDbCircle
 10
677.5
 20
155.188749403461
 30
0.0
 40
2.000000000000002
100
AcDbArc
 50
359.9999999999998
 51
90.0
  0
LINE
  5
31D
330
1F
100
AcDbEntity
  8
0
  6
CONTINUOUS
 62
     7
100
AcDbLine
 10
679.5
 20
151.1887494034609
 30
0.0
 11
679.5
 21
155.188749403461
 31
0.0
  0
LINE
  5
31E
330
1F
100
AcDbEntity
  8
0
  6
CONTINUOUS
 62
     7
100
AcDbLine
 10
679.5
 20
148.188749403461
 30
0.0
 11
679.5
 21
151.1887494034609
 31
0.0
  0
LINE
  5
31F
330
1F
100
AcDbEntity
  8
0
  6
CONTINUOUS
 62
     7
100
AcDbLine
 10
678.5
 20
151.6029629658341
 30
0.0
 11
678.5
 21
148.188749403461
 31
0.0
  0
LINE
  5
320
330
1F
100
AcDbEntity
  8
0
  6
CONTINUOUS
 62
     7
100
AcDbLine
 10
678.5
 20
155.188749403461
 30
0.0
 11
678.5
 21
151.6029629658341
 31
0.0
  0
ARC
  5
321
330
1F
100
AcDbEntity
  8
0
  6
CONTINUOUS
 62
     7
100
AcDbCircle
 10
677.5
 20
155.188749403461
 30
0.0
 40
1.000000000000001
100
AcDbArc
 50
0.0
 51
90.0000000000004
  0
LINE
  5
322
330
1F
100
AcDbEntity
  8
0
  6
CONTINUOUS
 62
     7
100
AcDbLine
 10
677.5
 20
156.188749403461
 30
0.0
 11
660.0000000040867
 21
156.188749403461
 31
0.0
  0
LINE
  5
323
330
1F
100
AcDbEntity
  8
0
  6
CONTINUOUS
 62
     7
100
AcDbLine
 10
655.0000000040867
 20
156.188749403461
 30
0.0
 11
637.4999999999999
 21
156.188749403461
 31
0.0
  0
ARC
  5
324
330
1F
100
AcDbEntity
  8
0
  6
CONTINUOUS
 62
     7
100
AcDbCircle
 10
637.4999999999999
 20
155.188749403461
 30
0.0
 40
1.000000000000001
100
AcDbArc
 50
89.99999999999962
 51
180.0
  0
LINE
  5
325
330
1F
100
AcDbEntity
  8
0
  6
CONTINUOUS
 62
     7
100
AcDbLine
 10
636.4999999999999
 20
155.188749403461
 30
0.0
 11
636.4999999999999
 21
151.6029629658341
 31
0.0
  0
LINE
  5
326
330
1F
100
AcDbEntity
  8
0
  6
CONTINUOUS
 62
     7
100
AcDbLine
 10
636.4999999999999
 20
151.6029629658341
 30
0.0
 11
636.4999999999999
 21
148.188749403461
 31
0.0
  0
LINE
  5
327
330
1F
100
AcDbEntity
  8
0
  6
CONTINUOUS
 62
     7
100
AcDbLine
 10
635.4999999999999
 20
148.188749403461
 30
0.0
 11
635.4999999999999
 21
151.1887494034609
 31
0.0
  0
LINE
  5
328
330
1F
100
AcDbEntity
  8
0
  6
CONTINUOUS
 62
     7
100
AcDbLine
 10
679.5
 20
145.188749403461
 30
0.0
 11
679.5
 21
148.188749403461
 31
0.0
  0
LINE
  5
329
330
1F
100
AcDbEntity
  8
0
  6
CONTINUOUS
 62
     7
100
AcDbLine
 10
678.5
 20
145.188749403461
 30
0.0
 11
679.5
 21
145.188749403461
 31
0.0
  0
LINE
  5
32A
330
1F
100
AcDbEntity
  8
0
  6
CONTINUOUS
 62
     7
100
AcDbLine
 10
678.5
 20
148.188749403461
 30
0.0
 11
678.5
 21
145.188749403461
 31
0.0
  0
LINE
  5
32B
330
1F
100
AcDbEntity
  8
0
  6
CONTINUOUS
 62
     7
100
AcDbLine
 10
636.4999999999999
 20
145.188749403461
 30
0.0
 11
635.4999999999999
 21
145.188749403461
 31
0.0
  0
LINE
  5
32C
330
1F
100
AcDbEntity
  8
0
  6
CONTINUOUS
 62
     7
100
AcDbLine
 10
636.4999999999999
 20
148.188749403461
 30
0.0
 11
636.4999999999999
 21
145.188749403461
 31
0.0
  0
LINE
  5
32D
330
1F
100
AcDbEntity
  8
0
  6
CONTINUOUS
 62
     7
100
AcDbLine
 10
635.4999999999999
 20
145.188749403461
 30
0.0
 11
635.4999999999999
 21
148.188749403461
 31
0.0
  0
LINE
  5
32E
330
1F
100
AcDbEntity
  8
0
  6
CONTINUOUS
 62
   253
100
AcDbLine
 10
677.6464466094068
 20
149.8351960128677
 30
0.0
 11
677.6464466094068
 21
150.188749403461
 31
0.0
  0
LINE
  5
32F
330
1F
100
AcDbEntity
  8
0
  6
CONTINUOUS
 62
   253
100
AcDbLine
 10
677.6464466094068
 20
150.188749403461
 30
0.0
 11
677.6464466094068
 21
150.5423027940543
 31
0.0
  0
LINE
  5
330
330
1F
100
AcDbEntity
  8
0
  6
CONTINUOUS
 62
   253
100
AcDbLine
 10
637.3535533905932
 20
149.8351960128677
 30
0.0
 11
637.3535533905932
 21
150.188749403461
 31
0.0
  0
LINE
  5
331
330
1F
100
AcDbEntity
  8
0
  6
CONTINUOUS
 62
   253
100
AcDbLine
 10
637.3535533905932
 20
150.188749403461
 30
0.0
 11
637.3535533905932
 21
150.5423027940543
 31
0.0
  0
ARC
  5
332
330
1F
100
AcDbEntity
  8
0
  6
CONTINUOUS
 62
     7
100
AcDbCircle
 10
657.5000000040867
 20
155.8887493992955
 30
0.0
 40
8.00000000000003
100
AcDbArc
 50
53.57642635766292
 51
72.1666172901833
  0
ARC
  5
333
330
1F
100
AcDbEntity
  8
0
  6
CONTINUOUS
 62
     7
100
AcDbCircle
 10
657.5000000040867
 20
155.8887493992955
 30
0.0
 40
7.999999999999998
100
AcDbArc
 50
107.8333827098167
 51
126.4235736423371
  0
LINE
  5
334
330
1F
100
AcDbEntity
  8
0
  6
CONTINUOUS
 62
     7
100
AcDbLine
 10
662.2500000040867
 20
160.1887493992936
 30
0.0
 11
662.2500000040867
 21
162.3259459940845
 31
0.0
  0
LINE
  5
335
330
1F
100
AcDbEntity
  8
0
  6
CONTINUOUS
 62
     7
100
AcDbLine
 10
652.7500000040867
 20
162.3259459940845
 30
0.0
 11
652.7500000040867
 21
160.1887493992936
 31
0.0
  0
LINE
  5
336
330
1F
100
AcDbEntity
  8
0
  6
CONTINUOUS
 62
     7
100
AcDbLine
 10
660.0000000040867
 20
155.0741376695491
 30
0.0
 11
660.0000000040867
 21
157.6887493990226
 31
0.0
  0
LINE
  5
337
330
1F
100
AcDbEntity
  8
0
  6
CONTINUOUS
 62
     7
100
AcDbLine
 10
655.0000000040867
 20
157.6887493990226
 30
0.0
 11
655.0000000040867
 21
155.0741376695779
 31
0.0
  0
LINE
  5
338
330
1F
100
AcDbEntity
  8
0
  6
CONTINUOUS
 62
     7
100
AcDbLine
 10
655.0000000040867
 20
151.5741376698904
 30
0.0
 11
655.0000000040867
 21
151.0741376694978
 31
0.0
  0
LINE
  5
339
330
1F
100
AcDbEntity
  8
0
  6
CONTINUOUS
 62
     7
100
AcDbLine
 10
661.6500000040867
 20
158.6887493992942
 30
0.0
 11
661.6500000040867
 21
160.1887493992936
 31
0.0
  0
LINE
  5
33A
330
1F
100
AcDbEntity
  8
0
  6
CONTINUOUS
 62
     7
100
AcDbLine
 10
653.3500000040867
 20
160.1887493992936
 30
0.0
 11
653.3500000040867
 21
158.6887493992942
 31
0.0
  0
LINE
  5
33B
330
1F
100
AcDbEntity
  8
0
  6
CONTINUOUS
 62
     7
100
AcDbLine
 10
662.5000000040867
 20
157.6887493992947
 30
0.0
 11
662.5000000040867
 21
158.6887493992942
 31
0.0
  0
LINE
  5
33C
330
1F
100
AcDbEntity
  8
0
  6
CONTINUOUS
 62
     7
100
AcDbLine
 10
652.5000000040867
 20
158.6887493992942
 30
0.0
 11
652.5000000040867
 21
157.6887493992947
 31
0.0
  0
LINE
  5
33D
330
1F
100
AcDbEntity
  8
0
  6
CONTINUOUS
 62
     7
100
AcDbLine
 10
678.5
 20
151.3958561846475
 30
0.0
 11
677.6464466094068
 21
150.5423027940543
 31
0.0
  0
LINE
  5
33E
330
1F
100
AcDbEntity
  8
0
  6
CONTINUOUS
 62
     7
100
AcDbLine
 10
677.6464466094068
 20
149.8351960128677
 30
0.0
 11
678.5
 21
148.9816426222744
 31
0.0
  0
LINE
  5
33F
330
1F
100
AcDbEntity
  8
0
  6
CONTINUOUS
 62
     7
100
AcDbLine
 10
636.4999999999999
 20
148.9816426222744
 30
0.0
 11
637.3535533905932
 21
149.8351960128677
 31
0.0
  0
LINE
  5
340
330
1F
100
AcDbEntity
  8
0
  6
CONTINUOUS
 62
     7
100
AcDbLine
 10
637.3535533905932
 20
150.5423027940543
 30
0.0
 11
636.4999999999999
 21
151.3958561846475
 31
0.0
  0
ARC
  5
341
330
1F
100
AcDbEntity
  8
0
  6
CONTINUOUS
 62
     7
100
AcDbCircle
 10
636.9999999999999
 20
150.188749403461
 30
0.0
 40
0.5000000000000178
100
AcDbArc
 50
314.9999999999981
 51
0.0
  0
ARC
  5
342
330
1F
100
AcDbEntity
  8
0
  6
CONTINUOUS
 62
     7
100
AcDbCircle
 10
636.9999999999999
 20
150.188749403461
 30
0.0
 40
0.500000000000056
100
AcDbArc
 50
0.0
 51
45.0000000000019
  0
ARC
  5
343
330
1F
100
AcDbEntity
  8
0
  6
CONTINUOUS
 62
     7
100
AcDbCircle
 10
677.9999999999999
 20
150.188749403461
 30
0.0
 40
0.4999999999999394
100
AcDbArc
 50
134.9999999999982
 51
225.000000000002
  0
LINE
  5
344
330
1F
100
AcDbEntity
  8
0
  6
CENTER
 62
     1
100
AcDbLine
 10
657.5
 20
137.5
 30
0.0
 11
657.5
 21
167.5
 31
0.0
  0
LINE
  5
346
330
1F
100
AcDbEntity
  8
0
  6
CENTER
 62
     1
100
AcDbLine
 10
517.5
 20
322.5
 30
0.0
 11
357.5
 21
322.5
 31
0.0
  0
LINE
  5
347
330
1F
100
AcDbEntity
  8
0
  6
CENTER
 62
     1
100
AcDbLine
 10
436.6573423986559
 20
137.5
 30
0.0
 11
436.6573423986559
 21
167.5
 31
0.0
  0
LINE
  5
348
330
1F
100
AcDbEntity
  8
0
  6
CENTER
 62
     1
100
AcDbLine
 10
436.6573423986559
 20
297.5
 30
0.0
 11
436.6573423986559
 21
347.5
 31
0.0
  0
MTEXT
  5
349
330
1F
100
AcDbEntity
  8
0
 62
     7
100
AcDbMText
 10
416.2493703882677
 20
91.61640786706928
 30
0.0
 40
10.0
 41
0.0
 71
     1
 72
     1
  1
{\fＭＳ ゴシック;MN-6FSR}
  0
ENDSEC
  0
SECTION
  2
OBJECTS
  0
DICTIONARY
  5
C
330
0
100
AcDbDictionary
  3
ACAD_GROUP
350
D
  3
ACAD_LAYOUT
350
1A
  3
ACAD_MATERIAL
350
43
  3
ACAD_MLEADERSTYLE
350
6B
  3
ACAD_MLINESTYLE
350
17
  3
ACAD_PLOTSETTINGS
350
19
  3
ACAD_SCALELIST
350
47
  3
ACAD_VISUALSTYLE
350
2A
  3
ACDBHEADERROUNDTRIPXREC
350
34A
  3
ACDBVARIABLEDICTIONARY
350
36B
  0
DICTIONARY
  5
372
330
8
100
AcDbDictionary
280
     1
  3
ACAD_XREC_ROUNDTRIP
360
373
  0
DICTIONARY
  5
D
102
{ACAD_REACTORS
330
C
102
}
330
C
100
AcDbDictionary
  0
DICTIONARY
  5
1A
102
{ACAD_REACTORS
330
C
102
}
330
C
100
AcDbDictionary
  0
DICTIONARY
  5
43
102
{ACAD_REACTORS
330
C
102
}
330
C
100
AcDbDictionary
  3
BYBLOCK
350
45
  3
BYLAYER
350
44
  3
GLOBAL
350
46
  0
DICTIONARY
  5
6B
102
{ACAD_REACTORS
330
C
102
}
330
C
100
AcDbDictionary
  3
STANDARD
350
6C
  0
DICTIONARY
  5
17
102
{ACAD_REACTORS
330
C
102
}
330
C
100
AcDbDictionary
  3
STANDARD
350
18
  0
DICTIONARY
  5
19
102
{ACAD_REACTORS
330
C
102
}
330
C
100
AcDbDictionary
  0
DICTIONARY
  5
47
102
{ACAD_REACTORS
330
C
102
}
330
C
100
AcDbDictionary
  3
A0
350
48
  3
A1
350
49
  3
A2
350
4A
  3
A3
350
4B
  3
A4
350
4C
  3
A5
350
4D
  3
A6
350
4E
  3
A7
350
4F
  3
A8
350
50
  3
A9
350
51
  3
B0
350
52
  3
B1
350
53
  3
B2
350
54
  3
B3
350
55
  3
B4
350
56
  3
B5
350
57
  3
B6
350
58
  3
B7
350
59
  3
B8
350
5A
  3
B9
350
5B
  3
C0
350
5C
  3
C1
350
5D
  3
C2
350
5E
  3
C3
350
5F
  3
C4
350
60
  3
C5
350
61
  3
C6
350
62
  3
C7
350
63
  3
C8
350
64
  3
C9
350
65
  3
D0
350
66
  3
D1
350
67
  3
D2
350
68
  0
DICTIONARY
  5
2A
102
{ACAD_REACTORS
330
C
102
}
330
C
100
AcDbDictionary
  3
2DWIREFRAME
350
2F
  3
BASIC
350
32
  3
BRIGHTEN
350
36
  3
COLORCHANGE
350
3A
  3
CONCEPTUAL
350
34
  3
DIM
350
35
  3
EDGECOLOROFF
350
3D
  3
FACEPATTERN
350
39
  3
FLAT
350
2B
  3
FLATWITHEDGES
350
2C
  3
GOURAUD
350
2D
  3
GOURAUDWITHEDGES
350
2E
  3
HIDDEN
350
31
  3
JITTEROFF
350
3B
  3
LINEPATTERN
350
38
  3
OVERHANGOFF
350
3C
  3
REALISTIC
350
33
  3
SHADED
350
42
  3
SHADED_WITH_EDGES
350
41
  3
SHADES_OF_GRAY
350
3E
  3
SKETCHY
350
3F
  3
THICKEN
350
37
  3
WIREFRAME
350
30
  3
X-RAY
350
40
  0
DICTIONARY
  5
34A
102
{ACAD_REACTORS
330
C
102
}
330
C
100
AcDbDictionary
  3
CEPSNID
350
354
  3
CEPSNTYPE
350
353
  3
DIMSTYLEDATA
350
36A
  3
FINGERPRINTGUID
350
355
  3
HYPERLINKBASE
350
34D
  3
INSUNITS
350
352
  3
LAYOUTDICT
350
34F
  3
LWETCUNION
350
351
  3
PLOTSETDICT
350
350
  3
PSVPSCALE
350
357
  3
PUCSBASE
350
35A
  3
PUCSORGBACK
350
360
  3
PUCSORGBOTTOM
350
35C
  3
PUCSORGFRONT
350
35F
  3
PUCSORGLEFT
350
35D
  3
PUCSORGRIGHT
350
35E
  3
PUCSORGTOP
350
35B
  3
PUCSORTHOREF
350
358
  3
PUCSORTHOVIEW
350
359
  3
STYLESHEET
350
34E
  3
TSTACKALIGN
350
34B
  3
TSTACKSIZE
350
34C
  3
UCSBASE
350
363
  3
UCSORGBACK
350
369
  3
UCSORGBOTTOM
350
365
  3
UCSORGFRONT
350
368
  3
UCSORGLEFT
350
366
  3
UCSORGRIGHT
350
367
  3
UCSORGTOP
350
364
  3
UCSORTHOREF
350
361
  3
UCSORTHOVIEW
350
362
  3
VERSIONGUID
350
356
  0
DICTIONARY
  5
36B
102
{ACAD_REACTORS
330
C
102
}
330
C
100
AcDbDictionary
  3
CANNOSCALE
350
374
  3
CMLEADERSTYLE
350
36D
  3
CTABLESTYLE
350
36C
  3
DIMASSOC
350
370
  3
HIDETEXT
350
371
  3
MSLTSCALE
350
375
  0
XRECORD
  5
373
102
{ACAD_REACTORS
330
372
102
}
330
372
100
AcDbXrecord
102
VTR_0.000_0.000_1.000_1.000_VISUALSTYLE
340
2F
102
VTR_0.000_0.000_1.000_1.000_GRIDDISPLAY
 70
     3
102
VTR_0.000_0.000_1.000_1.000_GRIDMAJOR
 70
     5
102
VTR_0.000_0.000_1.000_1.000_DEFAULTLIGHTING
280
     1
102
VTR_0.000_0.000_1.000_1.000_DEFAULTLIGHTINGTYPE
 70
     1
102
VTR_0.000_0.000_1.000_1.000_BRIGHTNESS
141
0.0
102
VTR_0.000_0.000_1.000_1.000_CONTRAST
142
0.0
  0
MATERIAL
  5
45
102
{ACAD_REACTORS
330
43
102
}
102
{ACAD_XDICTIONARY
360
378
102
}
330
43
100
AcDbMaterial
  1
BYBLOCK
  0
MATERIAL
  5
44
102
{ACAD_REACTORS
330
43
102
}
102
{ACAD_XDICTIONARY
360
376
102
}
330
43
100
AcDbMaterial
  1
BYLAYER
  0
MATERIAL
  5
46
102
{ACAD_REACTORS
330
43
102
}
102
{ACAD_XDICTIONARY
360
37A
102
}
330
43
100
AcDbMaterial
  1
GLOBAL
  0
ACAD_PROXY_OBJECT
  5
6C
102
{ACAD_REACTORS
330
6B
102
}
330
6B
100
AcDbProxyObject
 90
      499
 91
      505
 93
      610
310
40901902A4063FBFFFFFE056BD1B81E855B9FC0AD7A3703D0AD73F4214DD185B99185C9900AD7A3703D0AC73F90141901A02B5E8DC0F42B1CFC02B5E8DC0F42B1CFE5764000000000000300FC0
340
14
340
0
340
11
340
0
 94
        0
1001
ACAD_MLEADERVER
1070
     2
  0
MLINESTYLE
  5
18
102
{ACAD_REACTORS
330
17
102
}
330
17
100
AcDbMlineStyle
  2
Standard
 70
     0
  3

 62
   256
 51
90.0
 52
90.0
 71
     2
 49
0.5
 62
   256
  6
BYLAYER
 49
-0.5
 62
   256
  6
BYLAYER
  0
ACAD_PROXY_OBJECT
  5
48
102
{ACAD_REACTORS
330
47
102
}
330
47
100
AcDbProxyObject
 90
      499
 91
      503
 93
       41
310
903313A31580
  0
ACAD_PROXY_OBJECT
  5
49
102
{ACAD_REACTORS
330
47
102
}
330
47
100
AcDbProxyObject
 90
      499
 91
      503
 93
      105
310
903313A324000000000000004000
  0
ACAD_PROXY_OBJECT
  5
4A
102
{ACAD_REACTORS
330
47
102
}
330
47
100
AcDbProxyObject
 90
      499
 91
      503
 93
      105
310
903313A344000000000000104000
  0
ACAD_PROXY_OBJECT
  5
4B
102
{ACAD_REACTORS
330
47
102
}
330
47
100
AcDbProxyObject
 90
      499
 91
      503
 93
      105
310
903313A354000000000000144000
  0
ACAD_PROXY_OBJECT
  5
4C
102
{ACAD_REACTORS
330
47
102
}
330
47
100
AcDbProxyObject
 90
      499
 91
      503
 93
      105
310
903313A384000000000000204000
  0
ACAD_PROXY_OBJECT
  5
4D
102
{ACAD_REACTORS
330
47
102
}
330
47
100
AcDbProxyObject
 90
      499
 91
      503
 93
      113
310
904313A31304000000000000244000
  0
ACAD_PROXY_OBJECT
  5
4E
102
{ACAD_REACTORS
330
47
102
}
330
47
100
AcDbProxyObject
 90
      499
 91
      503
 93
      113
310
904313A31364000000000000304000
  0
ACAD_PROXY_OBJECT
  5
4F
102
{ACAD_REACTORS
330
47
102
}
330
47
100
AcDbProxyObject
 90
      499
 91
      503
 93
      113
310
904313A32304000000000000344000
  0
ACAD_PROXY_OBJECT
  5
50
102
{ACAD_REACTORS
330
47
102
}
330
47
100
AcDbProxyObject
 90
      499
 91
      503
 93
      113
310
904313A333040000000000003E4000
  0
ACAD_PROXY_OBJECT
  5
51
102
{ACAD_REACTORS
330
47
102
}
330
47
100
AcDbProxyObject
 90
      499
 91
      503
 93
      113
310
904313A34304000000000000444000
  0
ACAD_PROXY_OBJECT
  5
52
102
{ACAD_REACTORS
330
47
102
}
330
47
100
AcDbProxyObject
 90
      499
 91
      503
 93
      113
310
904313A35304000000000000494000
  0
ACAD_PROXY_OBJECT
  5
53
102
{ACAD_REACTORS
330
47
102
}
330
47
100
AcDbProxyObject
 90
      499
 91
      503
 93
      121
310
905313A3130304000000000000594000
  0
ACAD_PROXY_OBJECT
  5
54
102
{ACAD_REACTORS
330
47
102
}
330
47
100
AcDbProxyObject
 90
      499
 91
      503
 93
      105
310
903323A310000000000000010100
  0
ACAD_PROXY_OBJECT
  5
55
102
{ACAD_REACTORS
330
47
102
}
330
47
100
AcDbProxyObject
 90
      499
 91
      503
 93
      105
310
903343A310000000000000410100
  0
ACAD_PROXY_OBJECT
  5
56
102
{ACAD_REACTORS
330
47
102
}
330
47
100
AcDbProxyObject
 90
      499
 91
      503
 93
      105
310
903383A310000000000000810100
  0
ACAD_PROXY_OBJECT
  5
57
102
{ACAD_REACTORS
330
47
102
}
330
47
100
AcDbProxyObject
 90
      499
 91
      503
 93
      113
310
90431303A310000000000000910100
  0
ACAD_PROXY_OBJECT
  5
58
102
{ACAD_REACTORS
330
47
102
}
330
47
100
AcDbProxyObject
 90
      499
 91
      503
 93
      121
310
9053130303A310000000000001650100
  0
ACAD_PROXY_OBJECT
  5
59
102
{ACAD_REACTORS
330
47
102
}
330
47
100
AcDbProxyObject
 90
      499
 91
      503
 93
      257
310
90E312F31323822203D2031272D3022000000000000200FC000000000000284000
  0
ACAD_PROXY_OBJECT
  5
5A
102
{ACAD_REACTORS
330
47
102
}
330
47
100
AcDbProxyObject
 90
      499
 91
      503
 93
      249
310
90D312F363422203D2031272D3022000000000000240FC000000000000284000
  0
ACAD_PROXY_OBJECT
  5
5B
102
{ACAD_REACTORS
330
47
102
}
330
47
100
AcDbProxyObject
 90
      499
 91
      503
 93
      249
310
90D312F333222203D2031272D3022000000000000280FC000000000000284000
  0
ACAD_PROXY_OBJECT
  5
5C
102
{ACAD_REACTORS
330
47
102
}
330
47
100
AcDbProxyObject
 90
      499
 91
      503
 93
      249
310
90D312F313622203D2031272D30220000000000002C0FC000000000000284000
  0
ACAD_PROXY_OBJECT
  5
5D
102
{ACAD_REACTORS
330
47
102
}
330
47
100
AcDbProxyObject
 90
      499
 91
      503
 93
      249
310
90D332F333222203D2031272D30220000000000002E0FC000000000000284000
  0
ACAD_PROXY_OBJECT
  5
5E
102
{ACAD_REACTORS
330
47
102
}
330
47
100
AcDbProxyObject
 90
      499
 91
      503
 93
      241
310
90C312F3822203D2031272D3022000000000000300FC000000000000284000
  0
ACAD_PROXY_OBJECT
  5
5F
102
{ACAD_REACTORS
330
47
102
}
330
47
100
AcDbProxyObject
 90
      499
 91
      503
 93
      249
310
90D332F313622203D2031272D3022000000000000320FC000000000000284000
  0
ACAD_PROXY_OBJECT
  5
60
102
{ACAD_REACTORS
330
47
102
}
330
47
100
AcDbProxyObject
 90
      499
 91
      503
 93
      241
310
90C312F3422203D2031272D3022000000000000340FC000000000000284000
  0
ACAD_PROXY_OBJECT
  5
61
102
{ACAD_REACTORS
330
47
102
}
330
47
100
AcDbProxyObject
 90
      499
 91
      503
 93
      241
310
90C332F3822203D2031272D3022000000000000360FC000000000000284000
  0
ACAD_PROXY_OBJECT
  5
62
102
{ACAD_REACTORS
330
47
102
}
330
47
100
AcDbProxyObject
 90
      499
 91
      503
 93
      241
310
90C312F3222203D2031272D3022000000000000380FC000000000000284000
  0
ACAD_PROXY_OBJECT
  5
63
102
{ACAD_REACTORS
330
47
102
}
330
47
100
AcDbProxyObject
 90
      499
 91
      503
 93
      241
310
90C332F3422203D2031272D30220000000000003A0FC000000000000284000
  0
ACAD_PROXY_OBJECT
  5
64
102
{ACAD_REACTORS
330
47
102
}
330
47
100
AcDbProxyObject
 90
      499
 91
      503
 93
      161
310
90A3122203D2031272D30224000000000000284000
  0
ACAD_PROXY_OBJECT
  5
65
102
{ACAD_REACTORS
330
47
102
}
330
47
100
AcDbProxyObject
 90
      499
 91
      503
 93
      257
310
90E312D312F3222203D2031272D30220000000000003E0FC000000000000284000
  0
ACAD_PROXY_OBJECT
  5
66
102
{ACAD_REACTORS
330
47
102
}
330
47
100
AcDbProxyObject
 90
      499
 91
      503
 93
      225
310
90A3322203D2031272D302200000000000002100000000000000284000
  0
ACAD_PROXY_OBJECT
  5
67
102
{ACAD_REACTORS
330
47
102
}
330
47
100
AcDbProxyObject
 90
      499
 91
      503
 93
      225
310
90A3622203D2031272D302200000000000006100000000000000284000
  0
ACAD_PROXY_OBJECT
  5
68
102
{ACAD_REACTORS
330
47
102
}
330
47
100
AcDbProxyObject
 90
      499
 91
      503
 93
      249
310
90D31272D3022203D2031272D30220000000000000A100000000000000284000
  0
ACAD_PROXY_OBJECT
  5
2F
102
{ACAD_REACTORS
330
2A
102
}
330
2A
100
AcDbProxyObject
 90
      499
 91
      501
 93
      436
310
42CC9915DA5C99599C985B595049028333333333333E33F0000000000000F90107901411070040501600405405064090741402480A0340
1001
ACAD
1000
AcDbSavedByObjectVersion
1070
     0
  0
ACAD_PROXY_OBJECT
  5
32
102
{ACAD_REACTORS
330
2A
102
}
330
2A
100
AcDbProxyObject
 90
      499
 91
      501
 93
      388
310
4150985CDA58D07406404333333333333E33F0000000000000F90107A41107004050150841D405064090741402480A0350
1001
ACAD
1000
AcDbSavedByObjectVersion
1070
     0
  0
ACAD_PROXY_OBJECT
  5
36
102
{ACAD_REACTORS
330
2A
102
}
330
2A
100
AcDbProxyObject
 90
      499
 91
      501
 93
      428
310
42109C9A59DA1D195B90C409028333333333333E33F0000000000000F9010790141107004050150841D405064090741402480A029950
1001
ACAD
1000
AcDbSavedByObjectVersion
1070
     0
  0
ACAD_PROXY_OBJECT
  5
3A
102
{ACAD_REACTORS
330
2A
102
}
330
2A
100
AcDbProxyObject
 90
      499
 91
      501
 93
      452
310
42D0DBDB1BDC90DA185B99D95104090240C333333333333E33F0000000000000F90108901411070040501508421405064090741402480A0350
1001
ACAD
1000
AcDbSavedByObjectVersion
1070
     0
  0
ACAD_PROXY_OBJECT
  5
34
102
{ACAD_REACTORS
330
2A
102
}
330
2A
100
AcDbProxyObject
 90
      499
 91
      501
 93
      500
310
4290DBDB98D95C1D1D585B10940D028333333333333E33F0000000000000F90107902409070040501000000000018199010841D405064090740C02480A0340
1001
ACAD
1000
AcDbSavedByObjectVersion
1070
     0
  0
ACAD_PROXY_OBJECT
  5
35
102
{ACAD_REACTORS
330
2A
102
}
330
2A
100
AcDbProxyObject
 90
      499
 91
      501
 93
      412
310
40D11A5B50B409028333333333333E33F0000000000000F9010790141107004050150841D405064090741402480A02677FFFFFD0
1001
ACAD
1000
AcDbSavedByObjectVersion
1070
     0
  0
ACAD_PROXY_OBJECT
  5
3D
102
{ACAD_REACTORS
330
2A
102
}
330
2A
100
AcDbProxyObject
 90
      499
 91
      501
 93
      452
310
43115919D950DBDB1BDC93D999916409028333333333333E33F0000000000000F9010790141107004050150841D405064090741402480A0350
1001
ACAD
1000
AcDbSavedByObjectVersion
1070
     0
  0
ACAD_PROXY_OBJECT
  5
39
102
{ACAD_REACTORS
330
2A
102
}
330
2A
100
AcDbProxyObject
 90
      499
 91
      501
 93
      444
310
42D19858D95C185D1D195C9B90F409028333333333333E33F0000000000000F9010790141107004050150841D405064090741402480A0350
1001
ACAD
1000
AcDbSavedByObjectVersion
1070
     0
  0
ACAD_PROXY_OBJECT
  5
2B
102
{ACAD_REACTORS
330
2A
102
}
330
2A
100
AcDbProxyObject
 90
      499
 91
      501
 93
      380
310
41119B185D240901404333333333333E33F0000000000000F9010740A907004050150841D405064090741402480A1B50
1001
ACAD
1000
AcDbSavedByObjectVersion
1070
     0
  0
ACAD_PROXY_OBJECT
  5
2C
102
{ACAD_REACTORS
330
2A
102
}
330
2A
100
AcDbProxyObject
 90
      499
 91
      501
 93
      468
310
43519B185D15DA5D1A115919D95CD0140901404333333333333E33F0000000000000F90107409019070040501600405405064090741402480A1B50
1001
ACAD
1000
AcDbSavedByObjectVersion
1070
     0
  0
ACAD_PROXY_OBJECT
  5
2D
102
{ACAD_REACTORS
330
2A
102
}
330
2A
100
AcDbProxyObject
 90
      499
 91
      501
 93
      404
310
41D1DBDD5C985D5910240902404333333333333E33F0000000000000F9010740A9070040501641D405064090741402480A1B50
1001
ACAD
1000
AcDbSavedByObjectVersion
1070
     0
  0
ACAD_PROXY_OBJECT
  5
2E
102
{ACAD_REACTORS
330
2A
102
}
330
2A
100
AcDbProxyObject
 90
      499
 91
      501
 93
      492
310
4411DBDD5C985D5915DA5D1A115919D95CD0340902404333333333333E33F0000000000000F90107409019070040501600405405064090741402480A1B50
1001
ACAD
1000
AcDbSavedByObjectVersion
1070
     0
  0
ACAD_PROXY_OBJECT
  5
31
102
{ACAD_REACTORS
330
2A
102
}
330
2A
100
AcDbProxyObject
 90
      499
 91
      501
 93
      476
310
41921A5919195B90640502408333333333333E33F0000000000000F901079024090700405020000000000001110200405405064090740C02480A0340
1001
ACAD
1000
AcDbSavedByObjectVersion
1070
     0
  0
ACAD_PROXY_OBJECT
  5
3B
102
{ACAD_REACTORS
330
2A
102
}
330
2A
100
AcDbProxyObject
 90
      499
 91
      501
 93
      428
310
42529A5D1D195C93D999914409028333333333333E33F0000000000000F9010790141107004050150A41D405064090741402480A0350
1001
ACAD
1000
AcDbSavedByObjectVersion
1070
     0
  0
ACAD_PROXY_OBJECT
  5
38
102
{ACAD_REACTORS
330
2A
102
}
330
2A
100
AcDbProxyObject
 90
      499
 91
      501
 93
      444
310
42D31A5B995C185D1D195C9B90E409028333333333333E33F0000000000000F9010790141107004050750841D405064090741402483A0350
1001
ACAD
1000
AcDbSavedByObjectVersion
1070
     0
  0
ACAD_PROXY_OBJECT
  5
3C
102
{ACAD_REACTORS
330
2A
102
}
330
2A
100
AcDbProxyObject
 90
      499
 91
      501
 93
      444
310
42D3DD995C9A185B99D3D999915409028333333333333E33F0000000000000F9010790141107004050150941D405064090741402480A0350
1001
ACAD
1000
AcDbSavedByObjectVersion
1070
     0
  0
ACAD_PROXY_OBJECT
  5
33
102
{ACAD_REACTORS
330
2A
102
}
330
2A
100
AcDbProxyObject
 90
      499
 91
      501
 93
      428
310
425499585B1A5CDD1A58D08409038333333333333E33F0000000000000F9010740A907004050150800405405064090740C02480A1B40
1001
ACAD
1000
AcDbSavedByObjectVersion
1070
     0
  0
ACAD_PROXY_OBJECT
  5
42
102
{ACAD_REACTORS
330
2A
102
}
330
2A
100
AcDbProxyObject
 90
      499
 91
      501
 93
      420
310
4194DA1859195911B40902404333333333333E33F0000000000000F9010740A41107004050150800405405064090840C02480A0B40
1001
ACAD
1000
AcDbSavedByObjectVersion
1070
     0
  0
ACAD_PROXY_OBJECT
  5
41
102
{ACAD_REACTORS
330
2A
102
}
330
2A
100
AcDbProxyObject
 90
      499
 91
      501
 93
      516
310
4454DA18591959081DDA5D1A08195919D95CD1A40902404333333333333E33F0000000000000F901074090142907004050250800405405064090740C02480A0B40
1001
ACAD
1000
AcDbSavedByObjectVersion
1070
     0
  0
ACAD_PROXY_OBJECT
  5
3E
102
{ACAD_REACTORS
330
2A
102
}
330
2A
100
AcDbProxyObject
 90
      499
 91
      501
 93
      532
310
4394DA1859195CC81BD98811DC985E5174090240C333333333333E33F0000000000000F901079024090741D01000000000000111010841D405064090740C02480A0340
1001
ACAD
1000
AcDbSavedByObjectVersion
1070
     0
  0
ACAD_PROXY_OBJECT
  5
3F
102
{ACAD_REACTORS
330
2A
102
}
330
2A
100
AcDbProxyObject
 90
      499
 91
      501
 93
      476
310
41D4DAD95D18DA1E51840502408333333333333E33F0000000000000F901079024090741D01000000000000111010B41D405064090741802480A0340
1001
ACAD
1000
AcDbSavedByObjectVersion
1070
     0
  0
ACAD_PROXY_OBJECT
  5
37
102
{ACAD_REACTORS
330
2A
102
}
330
2A
100
AcDbProxyObject
 90
      499
 91
      501
 93
      412
310
41D51A1A58DAD95B90D409028333333333333E33F0000000000000F9010790141107004050150C41D405064090741402480A0350
1001
ACAD
1000
AcDbSavedByObjectVersion
1070
     0
  0
ACAD_PROXY_OBJECT
  5
30
102
{ACAD_REACTORS
330
2A
102
}
330
2A
100
AcDbProxyObject
 90
      499
 91
      501
 93
      420
310
4255DA5C99599C985B595059028333333333333E33F0000000000000F90107901411070040501600405405064090740C02480A0340
1001
ACAD
1000
AcDbSavedByObjectVersion
1070
     0
  0
ACAD_PROXY_OBJECT
  5
40
102
{ACAD_REACTORS
330
2A
102
}
330
2A
100
AcDbProxyObject
 90
      499
 91
      501
 93
      404
310
41560B54985E51940902404000000000000E03F0000000000000F9010740501907004050150841D405064090740C02480A1B40
1001
ACAD
1000
AcDbSavedByObjectVersion
1070
     0
  0
XRECORD
  5
354
102
{ACAD_REACTORS
330
34A
102
}
330
34A
100
AcDbXrecord
340
0
  0
XRECORD
  5
353
102
{ACAD_REACTORS
330
34A
102
}
330
34A
100
AcDbXrecord
 90
        0
  0
XRECORD
  5
36A
102
{ACAD_REACTORS
330
34A
102
}
330
34A
100
AcDbXrecord
1000
DSTYLE
1002
{
1070
   179
 70
     2
1070
   171
 70
     2
1070
   143
 40
25.4
1070
   274
 70
     2
1070
    41
 40
3.0
1070
   141
 40
0.09
1070
    43
 40
0.38
1070
   278
 70
    46
1070
    44
 40
1.5
1070
    42
 40
0.0625
1070
   147
 40
1.5
1070
   272
 70
     4
1070
    73
 70
     1
1070
   172
 70
     0
1070
    74
 70
     1
1070
   283
 70
     1
1070
   340
340
6E
1070
   140
 40
3.0
1070
   284
 70
     0
1070
    78
 70
     0
1002
}
  0
XRECORD
  5
355
102
{ACAD_REACTORS
330
34A
102
}
330
34A
100
AcDbXrecord
  1
{3C907276-8EAF-4302-B57C-DF4E1D9AA12A}
  0
XRECORD
  5
34D
102
{ACAD_REACTORS
330
34A
102
}
330
34A
100
AcDbXrecord
  1

  0
XRECORD
  5
352
102
{ACAD_REACTORS
330
34A
102
}
330
34A
100
AcDbXrecord
 90
        4
  0
XRECORD
  5
34F
102
{ACAD_REACTORS
330
34A
102
}
330
34A
100
AcDbXrecord
340
1A
  0
XRECORD
  5
351
102
{ACAD_REACTORS
330
34A
102
}
330
34A
100
AcDbXrecord
 90
    10269
  0
XRECORD
  5
350
102
{ACAD_REACTORS
330
34A
102
}
330
34A
100
AcDbXrecord
340
19
  0
XRECORD
  5
357
102
{ACAD_REACTORS
330
34A
102
}
330
34A
100
AcDbXrecord
 40
0.0
  0
XRECORD
  5
35A
102
{ACAD_REACTORS
330
34A
102
}
330
34A
100
AcDbXrecord
340
0
  0
XRECORD
  5
360
102
{ACAD_REACTORS
330
34A
102
}
330
34A
100
AcDbXrecord
 10
0.0
 20
0.0
 30
0.0
  0
XRECORD
  5
35C
102
{ACAD_REACTORS
330
34A
102
}
330
34A
100
AcDbXrecord
 10
0.0
 20
0.0
 30
0.0
  0
XRECORD
  5
35F
102
{ACAD_REACTORS
330
34A
102
}
330
34A
100
AcDbXrecord
 10
0.0
 20
0.0
 30
0.0
  0
XRECORD
  5
35D
102
{ACAD_REACTORS
330
34A
102
}
330
34A
100
AcDbXrecord
 10
0.0
 20
0.0
 30
0.0
  0
XRECORD
  5
35E
102
{ACAD_REACTORS
330
34A
102
}
330
34A
100
AcDbXrecord
 10
0.0
 20
0.0
 30
0.0
  0
XRECORD
  5
35B
102
{ACAD_REACTORS
330
34A
102
}
330
34A
100
AcDbXrecord
 10
0.0
 20
0.0
 30
0.0
  0
XRECORD
  5
358
102
{ACAD_REACTORS
330
34A
102
}
330
34A
100
AcDbXrecord
340
0
  0
XRECORD
  5
359
102
{ACAD_REACTORS
330
34A
102
}
330
34A
100
AcDbXrecord
 70
     0
  0
XRECORD
  5
34E
102
{ACAD_REACTORS
330
34A
102
}
330
34A
100
AcDbXrecord
  1

  0
XRECORD
  5
34B
102
{ACAD_REACTORS
330
34A
102
}
330
34A
100
AcDbXrecord
 90
        1
  0
XRECORD
  5
34C
102
{ACAD_REACTORS
330
34A
102
}
330
34A
100
AcDbXrecord
 90
       70
  0
XRECORD
  5
363
102
{ACAD_REACTORS
330
34A
102
}
330
34A
100
AcDbXrecord
340
0
  0
XRECORD
  5
369
102
{ACAD_REACTORS
330
34A
102
}
330
34A
100
AcDbXrecord
 10
0.0
 20
0.0
 30
0.0
  0
XRECORD
  5
365
102
{ACAD_REACTORS
330
34A
102
}
330
34A
100
AcDbXrecord
 10
0.0
 20
0.0
 30
0.0
  0
XRECORD
  5
368
102
{ACAD_REACTORS
330
34A
102
}
330
34A
100
AcDbXrecord
 10
0.0
 20
0.0
 30
0.0
  0
XRECORD
  5
366
102
{ACAD_REACTORS
330
34A
102
}
330
34A
100
AcDbXrecord
 10
0.0
 20
0.0
 30
0.0
  0
XRECORD
  5
367
102
{ACAD_REACTORS
330
34A
102
}
330
34A
100
AcDbXrecord
 10
0.0
 20
0.0
 30
0.0
  0
XRECORD
  5
364
102
{ACAD_REACTORS
330
34A
102
}
330
34A
100
AcDbXrecord
 10
0.0
 20
0.0
 30
0.0
  0
XRECORD
  5
361
102
{ACAD_REACTORS
330
34A
102
}
330
34A
100
AcDbXrecord
340
0
  0
XRECORD
  5
362
102
{ACAD_REACTORS
330
34A
102
}
330
34A
100
AcDbXrecord
 70
     0
  0
XRECORD
  5
356
102
{ACAD_REACTORS
330
34A
102
}
330
34A
100
AcDbXrecord
  1
{FAEB1C32-E019-11D5-929B-00C0DF256EC4}
  0
DICTIONARYVAR
  5
374
102
{ACAD_REACTORS
330
36B
102
}
330
36B
100
DictionaryVariables
280
     0
  1
1:1
  0
DICTIONARYVAR
  5
36D
102
{ACAD_REACTORS
330
36B
102
}
330
36B
100
DictionaryVariables
280
     0
  1
Standard
  0
DICTIONARYVAR
  5
36C
102
{ACAD_REACTORS
330
36B
102
}
330
36B
100
DictionaryVariables
280
     0
  1
Standard
  0
DICTIONARYVAR
  5
370
102
{ACAD_REACTORS
330
36B
102
}
330
36B
100
DictionaryVariables
280
     0
  1
2
  0
DICTIONARYVAR
  5
371
102
{ACAD_REACTORS
330
36B
102
}
330
36B
100
DictionaryVariables
280
     0
  1
1
  0
DICTIONARYVAR
  5
375
102
{ACAD_REACTORS
330
36B
102
}
330
36B
100
DictionaryVariables
280
     0
  1
1
  0
DICTIONARY
  5
378
330
45
100
AcDbDictionary
280
     1
  3
ACAD_XREC_ROUNDTRIP
360
379
  0
DICTIONARY
  5
376
330
44
100
AcDbDictionary
280
     1
  3
ACAD_XREC_ROUNDTRIP
360
377
  0
DICTIONARY
  5
37A
330
46
100
AcDbDictionary
280
     1
  3
ACAD_XREC_ROUNDTRIP
360
37B
  0
XRECORD
  5
379
102
{ACAD_REACTORS
330
378
102
}
330
378
100
AcDbXrecord
102
MATERIAL
148
0.0
149
0.0
149
0.0
 93
        0
 94
      127
282
     0
 72
     1
 77
     1
171
     1
175
     1
179
     1
273
     0
  0
XRECORD
  5
377
102
{ACAD_REACTORS
330
376
102
}
330
376
100
AcDbXrecord
102
MATERIAL
148
0.0
149
0.0
149
0.0
 93
        0
 94
      127
282
     0
 72
     1
 77
     1
171
     1
175
     1
179
     1
273
     0
  0
XRECORD
  5
37B
102
{ACAD_REACTORS
330
37A
102
}
330
37A
100
AcDbXrecord
102
MATERIAL
148
0.0
149
0.0
149
0.0
 93
        0
 94
      127
282
     0
 72
     1
 77
     1
171
     1
175
     1
179
     1
273
     0
  0
ENDSEC
  0
EOF
