  0
SECTION
  2
HEADER
  9
$ACADVER
  1
AC1004
  9
$INSBASE
 10
0.0
 20
0.0
  9
$EXTMIN
 10
55.00000000000001
 20
160.0
  9
$EXTMAX
 10
170.0
 20
245.0
  9
$LIMMIN
 10
0.0
 20
0.0
  9
$LIMMAX
 10
12.0
 20
9.0
  9
$ORTHOMODE
 70
     0
  9
$REGENMODE
 70
     1
  9
$FILLMODE
 70
     1
  9
$QTEXTMODE
 70
     0
  9
$DRAGMODE
 70
     2
  9
$LTSCALE
 40
1.0
  9
$OSMODE
 70
    37
  9
$ATTMODE
 70
     1
  9
$TEXTSIZE
 40
0.2
  9
$TRACEWID
 40
0.05
  9
$TEXTSTYLE
  7
STANDARD
  9
$CLAYER
  8
0
  9
$CELTYPE
  6
BYLAYER
  9
$CECOLOR
 62
   256
  9
$DIMSCALE
 40
1.0
  9
$DIMASZ
 40
3.0
  9
$DIMEXO
 40
0.0625
  9
$DIMDLI
 40
0.38
  9
$DIMRND
 40
0.0
  9
$DIMDLE
 40
0.0
  9
$DIMEXE
 40
1.5
  9
$DIMTP
 40
0.0
  9
$DIMTM
 40
0.0
  9
$DIMTXT
 40
3.0
  9
$DIMCEN
 40
0.09
  9
$DIMTSZ
 40
0.0
  9
$DIMTOL
 70
     0
  9
$DIMLIM
 70
     0
  9
$DIMTIH
 70
     1
  9
$DIMTOH
 70
     1
  9
$DIMSE1
 70
     0
  9
$DIMSE2
 70
     0
  9
$DIMTAD
 70
     1
  9
$DIMZIN
 70
     0
  9
$DIMBLK
  1

  9
$DIMASO
 70
     1
  9
$DIMSHO
 70
     1
  9
$DIMPOST
  1

  9
$DIMAPOST
  1

  9
$DIMALT
 70
     0
  9
$DIMALTD
 70
     2
  9
$DIMALTF
 40
25.4
  9
$DIMLFAC
 40
1.0
  9
$DIMTOFL
 70
     0
  9
$DIMTVP
 40
0.0
  9
$DIMTIX
 70
     0
  9
$DIMSOXD
 70
     0
  9
$DIMSAH
 70
     0
  9
$DIMBLK1
  1

  9
$DIMBLK2
  1

  9
$LUNITS
 70
     2
  9
$LUPREC
 70
     4
  9
$SKETCHINC
 40
0.1
  9
$FILLETRAD
 40
0.5
  9
$AUNITS
 70
     0
  9
$AUPREC
 70
     0
  9
$MENU
  1
.
  9
$ELEVATION
 40
0.0
  9
$THICKNESS
 40
0.0
  9
$LIMCHECK
 70
     0
  9
$CHAMFERA
 40
0.0
  9
$CHAMFERB
 40
0.0
  9
$SKPOLY
 70
     0
  9
$TDCREATE
 40
2460105.3693814
  9
$TDUPDATE
 40
2460105.369381829
  9
$TDINDWG
 40
0.0000000116
  9
$TDUSRTIMER
 40
0.0000000116
  9
$USRTIMER
 70
     1
  9
$ANGBASE
 50
0.0
  9
$ANGDIR
 70
     0
  9
$PDMODE
 70
     0
  9
$PDSIZE
 40
0.0
  9
$PLINEWID
 40
0.0
  9
$COORDS
 70
     1
  9
$SPLFRAME
 70
     0
  9
$SPLINETYPE
 70
     6
  9
$SPLINESEGS
 70
     8
  9
$ATTDIA
 70
     0
  9
$ATTREQ
 70
     1
  9
$SURFTAB1
 70
     6
  9
$SURFTAB2
 70
     6
  9
$SURFTYPE
 70
     6
  9
$SURFU
 70
     6
  9
$SURFV
 70
     6
  9
$UCSNAME
  2

  9
$UCSORG
 10
0.0
 20
0.0
 30
0.0
  9
$UCSXDIR
 10
1.0
 20
0.0
 30
0.0
  9
$UCSYDIR
 10
0.0
 20
1.0
 30
0.0
  9
$USERI1
 70
     0
  9
$USERI2
 70
     0
  9
$USERI3
 70
     0
  9
$USERI4
 70
     0
  9
$USERI5
 70
     0
  9
$USERR1
 40
0.0
  9
$USERR2
 40
0.0
  9
$USERR3
 40
0.0
  9
$USERR4
 40
0.0
  9
$USERR5
 40
0.0
  9
$WORLDVIEW
 70
     1
  0
ENDSEC
  0
SECTION
  2
TABLES
  0
TABLE
  2
LTYPE
 70
     2
  0
LTYPE
  2
CONTINUOUS
 70
     0
  3
Solid line
 72
    65
 73
     0
 40
0.0
  0
LTYPE
  2
CENTER
 70
     0
  3

 72
    65
 73
     0
 40
0.0
  0
ENDTAB
  0
TABLE
  2
LAYER
 70
     1
  0
LAYER
  2
0
 70
     0
 62
     7
  6
CONTINUOUS
  0
ENDTAB
  0
TABLE
  2
STYLE
 70
     2
  0
STYLE
  2
STANDARD
 70
     0
 40
0.0
 41
1.0
 50
0.0
 71
     0
 42
0.2
  3
txt
  4

  0
STYLE
  2
ＭＳ_ゴシック
 70
     0
 40
0.0
 41
1.0
 50
0.0
 71
     0
 42
0.2
  3
ＭＳ ゴシック.shx
  4

  0
ENDTAB
  0
TABLE
  2
VIEW
 70
     0
  0
ENDTAB
  0
ENDSEC
  0
SECTION
  2
BLOCKS
  0
BLOCK
  8
0
  2
D_FRAME_VIEW_1872
 70
     0
 10
0.0
 20
0.0
  0
LINE
  8
0
  6
CONTINUOUS
 62
     7
 10
101.8158190216962
 20
245.0
 11
106.1841809783038
 21
245.0
  0
LINE
  8
0
  6
CONTINUOUS
 62
     7
 10
73.81581902169616
 20
206.0
 11
72.81718948694159
 21
205.0013704652454
  0
LINE
  8
0
  6
CONTINUOUS
 62
     7
 10
78.18418097830383
 20
205.0
 11
72.81444667569825
 21
205.0
  0
LINE
  8
0
  6
CONTINUOUS
 62
     7
 10
72.81444667569825
 20
205.0
 11
72.81718948694159
 21
205.0013704652454
  0
ARC
  8
0
  6
CONTINUOUS
 62
     7
 10
101.3436105363327
 20
231.7500000000001
 40
2.999999999999919
 50
210.7547036330303
 51
270.0000000000007
  0
ARC
  8
0
  6
CONTINUOUS
 62
     7
 10
89.99999999999864
 20
224.9999999999989
 40
10.20000000000185
 50
30.75470363303373
 51
52.59272992538877
  0
LINE
  8
0
  6
CONTINUOUS
 62
     7
 10
96.27530267271509
 20
233.2014524458913
 11
96.19623308548887
 21
233.1022648407896
  0
LINE
  8
0
  6
CONTINUOUS
 62
     7
 10
101.3436105363328
 20
228.7500000000002
 11
109.0
 21
228.7500000000002
  0
LINE
  8
0
  6
CONTINUOUS
 62
     7
 10
73.1869850596284
 20
216.6933761370823
 11
71.00000000000003
 21
216.6933761370823
  0
LINE
  8
0
  6
CONTINUOUS
 62
     7
 10
71.00000000000003
 20
221.2500000000001
 11
78.65638946366701
 21
221.2500000000001
  0
ARC
  8
0
  6
CONTINUOUS
 62
     7
 10
78.65638946366711
 20
218.2500000000003
 40
2.999999999999836
 50
30.75470363302997
 51
90.00000000000188
  0
ARC
  8
0
  6
CONTINUOUS
 62
     7
 10
90.00000000000344
 20
225.000000000003
 40
10.20000000000459
 50
210.7547036330346
 51
223.3359227360778
  0
LINE
  8
0
  6
CONTINUOUS
 62
     7
 10
82.58110520360334
 20
218.0000000000001
 11
83.80373831775705
 21
216.8977570287502
  0
LINE
  8
0
  6
CONTINUOUS
 62
     7
 10
83.724697327285
 20
216.7985475541087
 11
83.80376691478253
 21
216.897735159003
  0
LINE
  8
0
  6
CONTINUOUS
 62
     7
 10
100.9621143323591
 20
233.426149773176
 11
101.1841134004896
 21
233.2014524458913
  0
POLYLINE
  8
0
  6
CONTINUOUS
 62
     7
 66
     1
  0
VERTEX
  8
0
  6
CONTINUOUS
 62
     7
 10
100.9621143323591
 20
233.426149773176
  0
VERTEX
  8
0
  6
CONTINUOUS
 62
     7
 10
100.8937695759603
 20
233.5205749355032
  0
VERTEX
  8
0
  6
CONTINUOUS
 62
     7
 10
100.8413772944819
 20
233.62118623899
  0
SEQEND
  8
0
  6
CONTINUOUS
 62
     7
  0
ARC
  8
0
  6
CONTINUOUS
 62
     7
 10
102.4514802084883
 20
234.2860999711821
 40
1.741993589238948
 50
179.2620140426535
 51
202.438838606085
  0
LINE
  8
0
  6
CONTINUOUS
 62
     7
 10
79.03788566764088
 20
216.573850226824
 11
78.8158865995104
 21
216.7985475541087
  0
LINE
  8
0
  6
CONTINUOUS
 62
     7
 10
79.03788566764088
 20
216.573850226824
 11
79.10630012419576
 21
216.4793268497353
  0
ARC
  8
0
  6
CONTINUOUS
 62
     7
 10
77.72017202579822
 20
215.7400516030633
 40
1.570948438208258
 50
358.227599281242
 51
28.07270987238417
  0
ARC
  8
0
  6
CONTINUOUS
 62
     7
 10
74.42388276805336
 20
215.7141697955126
 40
1.714402026576289
 50
155.3292441883143
 51
180.7588802234252
  0
POLYLINE
  8
0
  6
CONTINUOUS
 62
     7
 66
     1
  0
VERTEX
  8
0
  6
CONTINUOUS
 62
     7
 10
72.86596905839957
 20
216.4297668762792
  0
VERTEX
  8
0
  6
CONTINUOUS
 62
     7
 10
72.9181360050237
 20
216.5172522131554
  0
VERTEX
  8
0
  6
CONTINUOUS
 62
     7
 10
72.99341296590705
 20
216.606361910071
  0
VERTEX
  8
0
  6
CONTINUOUS
 62
     7
 10
73.08304435379593
 20
216.6691710525226
  0
VERTEX
  8
0
  6
CONTINUOUS
 62
     7
 10
73.1869850596284
 20
216.6933761370823
  0
SEQEND
  8
0
  6
CONTINUOUS
 62
     7
  0
LINE
  8
0
  6
CONTINUOUS
 62
     7
 10
106.8158865995104
 20
233.2014524458913
 11
107.0378856676483
 21
233.4261497731845
  0
ARC
  8
0
  6
CONTINUOUS
 62
     7
 10
105.5416644724448
 20
234.2885025737866
 40
1.748819167958945
 50
337.1561736858833
 51
0.6563842626226801
  0
POLYLINE
  8
0
  6
CONTINUOUS
 62
     7
 66
     1
  0
VERTEX
  8
0
  6
CONTINUOUS
 62
     7
 10
107.1533175727929
 20
233.6095749146366
  0
VERTEX
  8
0
  6
CONTINUOUS
 62
     7
 10
107.096247983507
 20
233.504500981316
  0
VERTEX
  8
0
  6
CONTINUOUS
 62
     7
 10
107.0378856676483
 20
233.4261497731845
  0
SEQEND
  8
0
  6
CONTINUOUS
 62
     7
  0
LINE
  8
0
  6
CONTINUOUS
 62
     7
 10
100.5013034639189
 20
234.85
 11
100.5054882691321
 21
244.0
  0
LINE
  8
0
  6
CONTINUOUS
 62
     7
 10
100.7096311171322
 20
234.35
 11
100.7096311171322
 21
234.3085367243177
  0
LINE
  8
0
  6
CONTINUOUS
 62
     7
 10
100.6834272274906
 20
234.85
 11
100.7096311171322
 21
234.35
  0
POLYLINE
  8
0
  6
CONTINUOUS
 62
     7
 66
     1
  0
VERTEX
  8
0
  6
CONTINUOUS
 62
     7
 10
78.49268202910895
 20
205.0
  0
VERTEX
  8
0
  6
CONTINUOUS
 62
     7
 10
78.68804887051043
 20
205.0192147195968
  0
VERTEX
  8
0
  6
CONTINUOUS
 62
     7
 10
78.87592544968525
 20
205.0761204674887
  0
VERTEX
  8
0
  6
CONTINUOUS
 62
     7
 10
79.04909177505812
 20
205.1685303876974
  0
VERTEX
  8
0
  6
CONTINUOUS
 62
     7
 10
79.20089316185775
 20
205.2928932188134
  0
VERTEX
  8
0
  6
CONTINUOUS
 62
     7
 10
79.32549596792062
 20
205.4444297669804
  0
VERTEX
  8
0
  6
CONTINUOUS
 62
     7
 10
79.4181117772878
 20
205.6173165676349
  0
VERTEX
  8
0
  6
CONTINUOUS
 62
     7
 10
79.47518141634488
 20
205.8049096779839
  0
VERTEX
  8
0
  6
CONTINUOUS
 62
     7
 10
79.49451173086788
 20
206.0
  0
SEQEND
  8
0
  6
CONTINUOUS
 62
     7
  0
LINE
  8
0
  6
CONTINUOUS
 62
     7
 10
78.49268202910895
 20
205.0
 11
78.18418097830383
 21
205.0
  0
LINE
  8
0
  6
CONTINUOUS
 62
     7
 10
79.49869653608111
 20
215.15
 11
79.49451173086787
 21
206.0
  0
LINE
  8
0
  6
CONTINUOUS
 62
     7
 10
79.29036888286784
 20
215.65
 11
79.29036888286784
 21
215.6914632756823
  0
LINE
  8
0
  6
CONTINUOUS
 62
     7
 10
79.31657277250936
 20
215.15
 11
79.29036888286784
 21
215.65
  0
LINE
  8
0
  6
CONTINUOUS
 62
     7
 10
106.1841809783038
 20
245.0
 11
106.4559965836108
 21
245.0
  0
POLYLINE
  8
0
  6
CONTINUOUS
 62
     7
 66
     1
  0
VERTEX
  8
0
  6
CONTINUOUS
 62
     7
 10
107.4578262853697
 20
244.0
  0
VERTEX
  8
0
  6
CONTINUOUS
 62
     7
 10
107.4384959708467
 20
244.1950903220161
  0
VERTEX
  8
0
  6
CONTINUOUS
 62
     7
 10
107.3814263317897
 20
244.3826834323651
  0
VERTEX
  8
0
  6
CONTINUOUS
 62
     7
 10
107.2888105224225
 20
244.5555702330196
  0
VERTEX
  8
0
  6
CONTINUOUS
 62
     7
 10
107.1642077163596
 20
244.7071067811865
  0
VERTEX
  8
0
  6
CONTINUOUS
 62
     7
 10
107.01240632956
 20
244.8314696123026
  0
VERTEX
  8
0
  6
CONTINUOUS
 62
     7
 10
106.8392400041871
 20
244.9238795325113
  0
VERTEX
  8
0
  6
CONTINUOUS
 62
     7
 10
106.6513634250123
 20
244.9807852804032
  0
VERTEX
  8
0
  6
CONTINUOUS
 62
     7
 10
106.4559965836108
 20
245.0
  0
SEQEND
  8
0
  6
CONTINUOUS
 62
     7
  0
LINE
  8
0
  6
CONTINUOUS
 62
     7
 10
72.70963111713216
 20
215.65
 11
72.68342722749064
 21
215.15
  0
LINE
  8
0
  6
CONTINUOUS
 62
     7
 10
72.70963111713216
 20
215.6914632756823
 11
72.70963111713216
 21
215.65
  0
LINE
  8
0
  6
CONTINUOUS
 62
     7
 10
72.81444667569825
 20
205.0
 11
72.54263107039125
 21
205.0
  0
LINE
  8
0
  6
CONTINUOUS
 62
     7
 10
72.53798890941701
 20
215.15
 11
72.54263107039125
 21
205.0
  0
LINE
  8
0
  6
CONTINUOUS
 62
     7
 10
101.5073179708911
 20
245.0
 11
101.8158190216962
 21
245.0
  0
POLYLINE
  8
0
  6
CONTINUOUS
 62
     7
 66
     1
  0
VERTEX
  8
0
  6
CONTINUOUS
 62
     7
 10
101.5073179708911
 20
245.0
  0
VERTEX
  8
0
  6
CONTINUOUS
 62
     7
 10
101.3119511294896
 20
244.9807852804032
  0
VERTEX
  8
0
  6
CONTINUOUS
 62
     7
 10
101.1240745503147
 20
244.9238795325113
  0
VERTEX
  8
0
  6
CONTINUOUS
 62
     7
 10
100.9509082249419
 20
244.8314696123026
  0
VERTEX
  8
0
  6
CONTINUOUS
 62
     7
 10
100.7991068381423
 20
244.7071067811866
  0
VERTEX
  8
0
  6
CONTINUOUS
 62
     7
 10
100.6745040320794
 20
244.5555702330196
  0
VERTEX
  8
0
  6
CONTINUOUS
 62
     7
 10
100.5818882227122
 20
244.3826834323651
  0
VERTEX
  8
0
  6
CONTINUOUS
 62
     7
 10
100.5248185836551
 20
244.1950903220161
  0
VERTEX
  8
0
  6
CONTINUOUS
 62
     7
 10
100.5054882691321
 20
244.0
  0
SEQEND
  8
0
  6
CONTINUOUS
 62
     7
  0
LINE
  8
0
  6
CONTINUOUS
 62
     7
 10
107.2903688828678
 20
234.35
 11
107.3165727725094
 21
234.85
  0
LINE
  8
0
  6
CONTINUOUS
 62
     7
 10
107.2903688828678
 20
234.3085367243177
 11
107.2903688828678
 21
234.35
  0
LINE
  8
0
  6
CONTINUOUS
 62
     7
 10
107.462011090583
 20
234.85
 11
107.4578262853697
 21
244.0
  0
ARC
  8
0
  6
CONTINUOUS
 62
     7
 10
101.3436105363327
 20
218.2500000000002
 40
2.999999999999941
 50
89.9999999999992
 51
149.2452963669688
  0
LINE
  8
0
  6
CONTINUOUS
 62
     7
 10
101.3436105363328
 20
221.2500000000001
 11
109.0
 21
221.2500000000001
  0
LINE
  8
0
  6
CONTINUOUS
 62
     7
 10
96.19623308548873
 20
216.8977351592106
 11
96.27530267271537
 21
216.7985475541087
  0
ARC
  8
0
  6
CONTINUOUS
 62
     7
 10
89.99999999999864
 20
225.0000000000015
 40
10.20000000000185
 50
307.4072700746112
 51
329.2452963669663
  0
ARC
  8
0
  6
CONTINUOUS
 62
     7
 10
78.65638946366701
 20
231.7500000000002
 40
3.000000000000029
 50
270.0
 51
329.2452963669686
  0
LINE
  8
0
  6
CONTINUOUS
 62
     7
 10
71.00000000000003
 20
228.7500000000002
 11
78.65638946366701
 21
228.7500000000002
  0
ARC
  8
0
  6
CONTINUOUS
 62
     7
 10
90.00000000000078
 20
224.9999999999993
 40
10.20000000000131
 50
129.5874276820743
 51
149.245296366967
  0
LINE
  8
0
  6
CONTINUOUS
 62
     7
 10
72.68342722749063
 20
215.15
 11
71.50000000000003
 21
215.15
  0
ARC
  8
0
  6
CONTINUOUS
 62
     7
 10
71.50000000000003
 20
216.15
 40
1.000000000000001
 50
180.0
 51
270.0
  0
LINE
  8
0
  6
CONTINUOUS
 62
     7
 10
70.50000000000003
 20
216.15
 11
70.50000000000003
 21
216.5738502268237
  0
LINE
  8
0
  6
CONTINUOUS
 62
     7
 10
70.50000000000003
 20
216.5738502268237
 11
71.00000000000003
 21
216.6933761370823
  0
ARC
  8
0
  6
CONTINUOUS
 62
     7
 10
108.5
 20
233.85
 40
1.000000000000001
 50
0.0
 51
90.0
  0
LINE
  8
0
  6
CONTINUOUS
 62
     7
 10
71.50000000000003
 20
234.85
 11
73.0
 21
234.85
  0
ARC
  8
0
  6
CONTINUOUS
 62
     7
 10
96.50000000000007
 20
234.35
 40
0.5000000000000004
 50
90.0
 51
180.0
  0
LINE
  8
0
  6
CONTINUOUS
 62
     7
 10
83.50000000000001
 20
216.573850226824
 11
83.72469732728486
 21
216.7985475541088
  0
LINE
  8
0
  6
CONTINUOUS
 62
     7
 10
107.3165727725093
 20
234.85
 11
108.5
 21
234.85
  0
LINE
  8
0
  6
CONTINUOUS
 62
     7
 10
83.98197074408193
 20
233.3663546068153
 11
83.9946035620369
 21
233.426149773176
  0
ARC
  8
0
  6
CONTINUOUS
 62
     7
 10
108.5
 20
216.15
 40
1.000000000000001
 50
270.0
 51
0.0
  0
LINE
  8
0
  6
CONTINUOUS
 62
     7
 10
96.00000000000007
 20
215.15
 11
96.50000000000007
 21
215.65
  0
LINE
  8
0
  6
CONTINUOUS
 62
     7
 10
96.00000000000007
 20
215.1500000000001
 11
96.00000000000007
 21
216.5005882556499
  0
POLYLINE
  8
0
  6
CONTINUOUS
 62
     7
 66
     1
  0
VERTEX
  8
0
  6
CONTINUOUS
 62
     7
 10
96.00000000000006
 20
216.5005882556498
  0
VERTEX
  8
0
  6
CONTINUOUS
 62
     7
 10
96.00052643144379
 20
216.5235263094832
  0
VERTEX
  8
0
  6
CONTINUOUS
 62
     7
 10
96.0021046172547
 20
216.5464160620654
  0
VERTEX
  8
0
  6
CONTINUOUS
 62
     7
 10
96.00473123420629
 20
216.5692093138544
  0
VERTEX
  8
0
  6
CONTINUOUS
 62
     7
 10
96.00840075136351
 20
216.5918580685125
  0
VERTEX
  8
0
  6
CONTINUOUS
 62
     7
 10
96.0131054417295
 20
216.6143146339731
  0
VERTEX
  8
0
  6
CONTINUOUS
 62
     7
 10
96.01883539851652
 20
216.6365317228677
  0
VERTEX
  8
0
  6
CONTINUOUS
 62
     7
 10
96.02557855600685
 20
216.6584625520993
  0
VERTEX
  8
0
  6
CONTINUOUS
 62
     7
 10
96.03332071495998
 20
216.6800609413558
  0
VERTEX
  8
0
  6
CONTINUOUS
 62
     7
 10
96.04204557251224
 20
216.701281410352
  0
VERTEX
  8
0
  6
CONTINUOUS
 62
     7
 10
96.05173475650619
 20
216.7220792745996
  0
VERTEX
  8
0
  6
CONTINUOUS
 62
     7
 10
96.06236786417736
 20
216.7424107394997
  0
VERTEX
  8
0
  6
CONTINUOUS
 62
     7
 10
96.07392250511687
 20
216.7622329925625
  0
VERTEX
  8
0
  6
CONTINUOUS
 62
     7
 10
96.08637434841945
 20
216.781504293559
  0
VERTEX
  8
0
  6
CONTINUOUS
 62
     7
 10
96.09969717391775
 20
216.8001840624138
  0
VERTEX
  8
0
  6
CONTINUOUS
 62
     7
 10
96.11386292739469
 20
216.8182329646563
  0
VERTEX
  8
0
  6
CONTINUOUS
 62
     7
 10
96.12884177965806
 20
216.8356129942478
  0
VERTEX
  8
0
  6
CONTINUOUS
 62
     7
 10
96.1446021893526
 20
216.8522875536119
  0
VERTEX
  8
0
  6
CONTINUOUS
 62
     7
 10
96.16111096937735
 20
216.8682215306994
  0
VERTEX
  8
0
  6
CONTINUOUS
 62
     7
 10
96.17833335676872
 20
216.8833813729238
  0
VERTEX
  8
0
  6
CONTINUOUS
 62
     7
 10
96.19623308590167
 20
216.8977351578148
  0
SEQEND
  8
0
  6
CONTINUOUS
 62
     7
  0
LINE
  8
0
  6
CONTINUOUS
 62
     7
 10
96.27530267271534
 20
216.7985475541087
 11
96.50000000000007
 21
216.573850226824
  0
CIRCLE
  8
0
  6
CONTINUOUS
 62
     7
 10
79.5
 20
237.35
 40
3.500000000000003
  0
LINE
  8
0
  6
CONTINUOUS
 62
     7
 10
83.50000000000001
 20
215.15
 11
79.31657277250935
 21
215.15
  0
ARC
  8
0
  6
CONTINUOUS
 62
     7
 10
73.0
 20
236.85
 40
2.000000000000002
 50
270.0
 51
0.0
  0
LINE
  8
0
  6
CONTINUOUS
 62
     7
 10
75.0
 20
236.85
 11
75.0
 21
241.35
  0
LINE
  8
0
  6
CONTINUOUS
 62
     7
 10
70.50000000000003
 20
233.426149773176
 11
70.50000000000003
 21
233.85
  0
ARC
  8
0
  6
CONTINUOUS
 62
     7
 10
83.49999999999999
 20
241.35
 40
0.5000000000000004
 50
0.0
 51
90.0
  0
ARC
  8
0
  6
CONTINUOUS
 62
     7
 10
71.50000000000003
 20
233.85
 40
1.000000000000001
 50
90.0
 51
180.0
  0
LINE
  8
0
  6
CONTINUOUS
 62
     7
 10
96.50000000000007
 20
233.426149773176
 11
96.27530267271523
 21
233.2014524458912
  0
POLYLINE
  8
0
  6
CONTINUOUS
 62
     7
 66
     1
  0
VERTEX
  8
0
  6
CONTINUOUS
 62
     7
 10
96.19623308590182
 20
233.1022648421855
  0
VERTEX
  8
0
  6
CONTINUOUS
 62
     7
 10
96.17833335676886
 20
233.1166186270764
  0
VERTEX
  8
0
  6
CONTINUOUS
 62
     7
 10
96.16111096937748
 20
233.1317784693009
  0
VERTEX
  8
0
  6
CONTINUOUS
 62
     7
 10
96.14460218935271
 20
233.1477124463883
  0
VERTEX
  8
0
  6
CONTINUOUS
 62
     7
 10
96.12884177965816
 20
233.1643870057524
  0
VERTEX
  8
0
  6
CONTINUOUS
 62
     7
 10
96.11386292739478
 20
233.1817670353439
  0
VERTEX
  8
0
  6
CONTINUOUS
 62
     7
 10
96.09969717391782
 20
233.1998159375864
  0
VERTEX
  8
0
  6
CONTINUOUS
 62
     7
 10
96.08637434841951
 20
233.2184957064413
  0
VERTEX
  8
0
  6
CONTINUOUS
 62
     7
 10
96.07392250511693
 20
233.2377670074378
  0
VERTEX
  8
0
  6
CONTINUOUS
 62
     7
 10
96.0623678641774
 20
233.2575892605006
  0
VERTEX
  8
0
  6
CONTINUOUS
 62
     7
 10
96.05173475650624
 20
233.2779207254007
  0
VERTEX
  8
0
  6
CONTINUOUS
 62
     7
 10
96.04204557251227
 20
233.2987185896482
  0
VERTEX
  8
0
  6
CONTINUOUS
 62
     7
 10
96.03332071496001
 20
233.3199390586445
  0
VERTEX
  8
0
  6
CONTINUOUS
 62
     7
 10
96.02557855600688
 20
233.3415374479009
  0
VERTEX
  8
0
  6
CONTINUOUS
 62
     7
 10
96.01883539851653
 20
233.3634682771326
  0
VERTEX
  8
0
  6
CONTINUOUS
 62
     7
 10
96.01310544172951
 20
233.3856853660272
  0
VERTEX
  8
0
  6
CONTINUOUS
 62
     7
 10
96.00840075136351
 20
233.4081419314878
  0
VERTEX
  8
0
  6
CONTINUOUS
 62
     7
 10
96.00473123420629
 20
233.4307906861459
  0
VERTEX
  8
0
  6
CONTINUOUS
 62
     7
 10
96.0021046172547
 20
233.453583937935
  0
VERTEX
  8
0
  6
CONTINUOUS
 62
     7
 10
96.00052643144379
 20
233.4764736905172
  0
VERTEX
  8
0
  6
CONTINUOUS
 62
     7
 10
96.00000000000006
 20
233.4994117443506
  0
SEQEND
  8
0
  6
CONTINUOUS
 62
     7
  0
LINE
  8
0
  6
CONTINUOUS
 62
     7
 10
96.00000000000007
 20
233.4994117443505
 11
96.00000000000007
 21
234.35
  0
LINE
  8
0
  6
CONTINUOUS
 62
     7
 10
83.99999999999999
 20
241.35
 11
83.99999999999999
 21
233.4994117443507
  0
LINE
  8
0
  6
CONTINUOUS
 62
     7
 10
83.99460356203694
 20
233.4261497731762
 11
83.99999999999999
 21
233.4994117443508
  0
ARC
  8
0
  6
CONTINUOUS
 62
     7
 10
75.5
 20
241.35
 40
0.5000000000000004
 50
90.0
 51
180.0
  0
LINE
  8
0
  6
CONTINUOUS
 62
     7
 10
96.50000000000007
 20
234.85
 11
100.6834272274906
 21
234.85
  0
LINE
  8
0
  6
CONTINUOUS
 62
     7
 10
108.5
 20
215.15
 11
96.00000000000007
 21
215.1500000000001
  0
ARC
  8
0
  6
CONTINUOUS
 62
     7
 10
83.50000000000001
 20
215.65
 40
0.5000000000000004
 50
270.0
 51
0.0
  0
LINE
  8
0
  6
CONTINUOUS
 62
     7
 10
109.5
 20
216.5738502268237
 11
109.5
 21
216.15
  0
LINE
  8
0
  6
CONTINUOUS
 62
     7
 10
109.5
 20
233.85
 11
109.5
 21
233.426149773176
  0
POLYLINE
  8
0
  6
CONTINUOUS
 62
     7
 66
     1
  0
VERTEX
  8
0
  6
CONTINUOUS
 62
     7
 10
84.00000000000001
 20
216.5005882556497
  0
VERTEX
  8
0
  6
CONTINUOUS
 62
     7
 10
83.99947356855685
 20
216.5235263094707
  0
VERTEX
  8
0
  6
CONTINUOUS
 62
     7
 10
83.99789538274764
 20
216.5464160620406
  0
VERTEX
  8
0
  6
CONTINUOUS
 62
     7
 10
83.99526876579888
 20
216.5692093138175
  0
VERTEX
  8
0
  6
CONTINUOUS
 62
     7
 10
83.99159924864558
 20
216.5918580684637
  0
VERTEX
  8
0
  6
CONTINUOUS
 62
     7
 10
83.98689455828462
 20
216.6143146339128
  0
VERTEX
  8
0
  6
CONTINUOUS
 62
     7
 10
83.98116460150369
 20
216.6365317227962
  0
VERTEX
  8
0
  6
CONTINUOUS
 62
     7
 10
83.9744214440205
 20
216.6584625520171
  0
VERTEX
  8
0
  6
CONTINUOUS
 62
     7
 10
83.96667928507554
 20
216.6800609412633
  0
VERTEX
  8
0
  6
CONTINUOUS
 62
     7
 10
83.95795442753246
 20
216.70128141025
  0
VERTEX
  8
0
  6
CONTINUOUS
 62
     7
 10
83.94826524354859
 20
216.7220792744887
  0
VERTEX
  8
0
  6
CONTINUOUS
 62
     7
 10
83.93763213588842
 20
216.7424107393805
  0
VERTEX
  8
0
  6
CONTINUOUS
 62
     7
 10
83.92607749496077
 20
216.762232992436
  0
VERTEX
  8
0
  6
CONTINUOUS
 62
     7
 10
83.91362565167083
 20
216.7815042934259
  0
VERTEX
  8
0
  6
CONTINUOUS
 62
     7
 10
83.90030282618594
 20
216.8001840622751
  0
VERTEX
  8
0
  6
CONTINUOUS
 62
     7
 10
83.88613707272309
 20
216.818232964513
  0
VERTEX
  8
0
  6
CONTINUOUS
 62
     7
 10
83.87115822047443
 20
216.8356129941008
  0
VERTEX
  8
0
  6
CONTINUOUS
 62
     7
 10
83.8553978107952
 20
216.8522875534624
  0
VERTEX
  8
0
  6
CONTINUOUS
 62
     7
 10
83.83888903078622
 20
216.8682215305484
  0
VERTEX
  8
0
  6
CONTINUOUS
 62
     7
 10
83.82166664341105
 20
216.8833813727726
  0
VERTEX
  8
0
  6
CONTINUOUS
 62
     7
 10
83.80376691429466
 20
216.8977351576644
  0
SEQEND
  8
0
  6
CONTINUOUS
 62
     7
  0
LINE
  8
0
  6
CONTINUOUS
 62
     7
 10
84.00000000000001
 20
216.5005882556497
 11
84.00000000000001
 21
215.65
  0
LINE
  8
0
  6
CONTINUOUS
 62
     7
 10
75.5
 20
241.85
 11
83.49999999999999
 21
241.85
  0
POLYLINE
  8
0
  6
CONTINUOUS
 62
     7
 66
     1
  0
VERTEX
  8
0
  6
CONTINUOUS
 62
     7
 10
70.50000000000003
 20
220.7500000000001
  0
VERTEX
  8
0
  6
CONTINUOUS
 62
     7
 10
70.50001259387776
 20
220.7535487630415
  0
VERTEX
  8
0
  6
CONTINUOUS
 62
     7
 10
70.50048437274698
 20
220.7720025423184
  0
VERTEX
  8
0
  6
CONTINUOUS
 62
     7
 10
70.50163744314747
 20
220.7904321892478
  0
VERTEX
  8
0
  6
CONTINUOUS
 62
     7
 10
70.50347949138829
 20
220.8088842746958
  0
VERTEX
  8
0
  6
CONTINUOUS
 62
     7
 10
70.50600840966958
 20
220.8272807135262
  0
VERTEX
  8
0
  6
CONTINUOUS
 62
     7
 10
70.50926304516618
 20
220.8457977692967
  0
VERTEX
  8
0
  6
CONTINUOUS
 62
     7
 10
70.51322214788075
 20
220.8642248777026
  0
VERTEX
  8
0
  6
CONTINUOUS
 62
     7
 10
70.51790638118064
 20
220.8826111316471
  0
VERTEX
  8
0
  6
CONTINUOUS
 62
     7
 10
70.52330534831452
 20
220.9008714984829
  0
VERTEX
  8
0
  6
CONTINUOUS
 62
     7
 10
70.53078345658908
 20
220.9227303226218
  0
VERTEX
  8
0
  6
CONTINUOUS
 62
     7
 10
70.53931535916954
 20
220.9443441836097
  0
VERTEX
  8
0
  6
CONTINUOUS
 62
     7
 10
70.5489692983376
 20
220.9658036639396
  0
VERTEX
  8
0
  6
CONTINUOUS
 62
     7
 10
70.55970512312575
 20
220.9869396999203
  0
VERTEX
  8
0
  6
CONTINUOUS
 62
     7
 10
70.5717817445157
 20
221.0081259601809
  0
VERTEX
  8
0
  6
CONTINUOUS
 62
     7
 10
70.58500207974066
 20
221.0288847901562
  0
VERTEX
  8
0
  6
CONTINUOUS
 62
     7
 10
70.59949046617601
 20
221.0493191541942
  0
VERTEX
  8
0
  6
CONTINUOUS
 62
     7
 10
70.61515679180297
 20
221.0692110667015
  0
VERTEX
  8
0
  6
CONTINUOUS
 62
     7
 10
70.62792288954934
 20
221.0840038196605
  0
VERTEX
  8
0
  6
CONTINUOUS
 62
     7
 10
70.64138202744347
 20
221.0984151973716
  0
VERTEX
  8
0
  6
CONTINUOUS
 62
     7
 10
70.65561912323844
 20
221.1124937419014
  0
VERTEX
  8
0
  6
CONTINUOUS
 62
     7
 10
70.67055710300164
 20
221.1261214931607
  0
VERTEX
  8
0
  6
CONTINUOUS
 62
     7
 10
70.68651294108447
 20
221.1395198564616
  0
VERTEX
  8
0
  6
CONTINUOUS
 62
     7
 10
70.70318959267225
 20
221.1523724420261
  0
VERTEX
  8
0
  6
CONTINUOUS
 62
     7
 10
70.72071776919213
 20
221.1647303104193
  0
VERTEX
  8
0
  6
CONTINUOUS
 62
     7
 10
70.73895687769478
 20
221.1764463486761
  0
VERTEX
  8
0
  6
CONTINUOUS
 62
     7
 10
70.75280362559738
 20
221.1846192292622
  0
VERTEX
  8
0
  6
CONTINUOUS
 62
     7
 10
70.7670169197196
 20
221.1924012706844
  0
VERTEX
  8
0
  6
CONTINUOUS
 62
     7
 10
70.78166588541713
 20
221.199811199931
  0
VERTEX
  8
0
  6
CONTINUOUS
 62
     7
 10
70.79666300855408
 20
221.2067866765906
  0
VERTEX
  8
0
  6
CONTINUOUS
 62
     7
 10
70.81227242019727
 20
221.2134201399112
  0
VERTEX
  8
0
  6
CONTINUOUS
 62
     7
 10
70.82821092566972
 20
221.2195620448257
  0
VERTEX
  8
0
  6
CONTINUOUS
 62
     7
 10
70.84456957520317
 20
221.2252275490903
  0
VERTEX
  8
0
  6
CONTINUOUS
 62
     7
 10
70.86121980428695
 20
221.2303540957231
  0
VERTEX
  8
0
  6
CONTINUOUS
 62
     7
 10
70.87763308913033
 20
221.2347949818713
  0
VERTEX
  8
0
  6
CONTINUOUS
 62
     7
 10
70.89427281056231
 20
221.2386939342919
  0
VERTEX
  8
0
  6
CONTINUOUS
 62
     7
 10
70.91123734406452
 20
221.2420579235621
  0
VERTEX
  8
0
  6
CONTINUOUS
 62
     7
 10
70.9283747625938
 20
221.2448432331223
  0
VERTEX
  8
0
  6
CONTINUOUS
 62
     7
 10
70.94607182306302
 20
221.2470830149693
  0
VERTEX
  8
0
  6
CONTINUOUS
 62
     7
 10
70.96388193482977
 20
221.2486937791556
  0
VERTEX
  8
0
  6
CONTINUOUS
 62
     7
 10
70.98192142929942
 20
221.2496728119764
  0
VERTEX
  8
0
  6
CONTINUOUS
 62
     7
 10
71.00000000000003
 20
221.2500000000001
  0
SEQEND
  8
0
  6
CONTINUOUS
 62
     7
  0
LINE
  8
0
  6
CONTINUOUS
 62
     7
 10
70.50000000000003
 20
220.7500000000002
 11
70.50000000000003
 21
216.5738502268237
  0
LINE
  8
0
  6
CONTINUOUS
 62
     7
 10
70.50000000000003
 20
233.4261497731761
 11
70.50000000000003
 21
229.2500000000002
  0
POLYLINE
  8
0
  6
CONTINUOUS
 62
     7
 66
     1
  0
VERTEX
  8
0
  6
CONTINUOUS
 62
     7
 10
71.00000000000003
 20
228.7500000000002
  0
VERTEX
  8
0
  6
CONTINUOUS
 62
     7
 10
70.98263515667503
 20
228.7503018385891
  0
VERTEX
  8
0
  6
CONTINUOUS
 62
     7
 10
70.96530495107176
 20
228.7512051989248
  0
VERTEX
  8
0
  6
CONTINUOUS
 62
     7
 10
70.94790530196833
 20
228.7527214719217
  0
VERTEX
  8
0
  6
CONTINUOUS
 62
     7
 10
70.93060990214349
 20
228.7548383957542
  0
VERTEX
  8
0
  6
CONTINUOUS
 62
     7
 10
70.91303069677141
 20
228.7576219654774
  0
VERTEX
  8
0
  6
CONTINUOUS
 62
     7
 10
70.89562962440155
 20
228.7610144943894
  0
VERTEX
  8
0
  6
CONTINUOUS
 62
     7
 10
70.87830272828262
 20
228.7650365162923
  0
VERTEX
  8
0
  6
CONTINUOUS
 62
     7
 10
70.86121980428695
 20
228.7696459042772
  0
VERTEX
  8
0
  6
CONTINUOUS
 62
     7
 10
70.84507229586373
 20
228.7746083035403
  0
VERTEX
  8
0
  6
CONTINUOUS
 62
     7
 10
70.82919823705686
 20
228.78007792372
  0
VERTEX
  8
0
  6
CONTINUOUS
 62
     7
 10
70.81351788267581
 20
228.7860772713314
  0
VERTEX
  8
0
  6
CONTINUOUS
 62
     7
 10
70.79815377587614
 20
228.7925526240028
  0
VERTEX
  8
0
  6
CONTINUOUS
 62
     7
 10
70.78284157006966
 20
228.7996200394196
  0
VERTEX
  8
0
  6
CONTINUOUS
 62
     7
 10
70.76788974883785
 20
228.8071401674285
  0
VERTEX
  8
0
  6
CONTINUOUS
 62
     7
 10
70.7532289273379
 20
228.8151391608044
  0
VERTEX
  8
0
  6
CONTINUOUS
 62
     7
 10
70.73895687769478
 20
228.8235536513243
  0
VERTEX
  8
0
  6
CONTINUOUS
 62
     7
 10
70.7213346675567
 20
228.8348549009862
  0
VERTEX
  8
0
  6
CONTINUOUS
 62
     7
 10
70.70437481489614
 20
228.8467559672703
  0
VERTEX
  8
0
  6
CONTINUOUS
 62
     7
 10
70.68796798452242
 20
228.8593135718413
  0
VERTEX
  8
0
  6
CONTINUOUS
 62
     7
 10
70.67225352583118
 20
228.8723993529273
  0
VERTEX
  8
0
  6
CONTINUOUS
 62
     7
 10
70.65692169089988
 20
228.8862732278779
  0
VERTEX
  8
0
  6
CONTINUOUS
 62
     7
 10
70.64232113217348
 20
228.9006207969696
  0
VERTEX
  8
0
  6
CONTINUOUS
 62
     7
 10
70.62836850218929
 20
228.9155004532668
  0
VERTEX
  8
0
  6
CONTINUOUS
 62
     7
 10
70.61515679180297
 20
228.9307889332989
  0
VERTEX
  8
0
  6
CONTINUOUS
 62
     7
 10
70.6000108496741
 20
228.9499857632689
  0
VERTEX
  8
0
  6
CONTINUOUS
 62
     7
 10
70.58596330522174
 20
228.9696901439889
  0
VERTEX
  8
0
  6
CONTINUOUS
 62
     7
 10
70.57291474083249
 20
228.9900037026736
  0
VERTEX
  8
0
  6
CONTINUOUS
 62
     7
 10
70.5609659306509
 20
229.010732187809
  0
VERTEX
  8
0
  6
CONTINUOUS
 62
     7
 10
70.54988749368773
 20
229.0322877161298
  0
VERTEX
  8
0
  6
CONTINUOUS
 62
     7
 10
70.5399387936367
 20
229.0541845603651
  0
VERTEX
  8
0
  6
CONTINUOUS
 62
     7
 10
70.53105832559667
 20
229.0765248590255
  0
VERTEX
  8
0
  6
CONTINUOUS
 62
     7
 10
70.52330534831452
 20
229.0991285015174
  0
VERTEX
  8
0
  6
CONTINUOUS
 62
     7
 10
70.51799458236846
 20
229.117068630579
  0
VERTEX
  8
0
  6
CONTINUOUS
 62
     7
 10
70.51337384092763
 20
229.1351305902062
  0
VERTEX
  8
0
  6
CONTINUOUS
 62
     7
 10
70.50942777803239
 20
229.1533621832689
  0
VERTEX
  8
0
  6
CONTINUOUS
 62
     7
 10
70.50617170203128
 20
229.1716826192645
  0
VERTEX
  8
0
  6
CONTINUOUS
 62
     7
 10
70.50358027586404
 20
229.1902720367117
  0
VERTEX
  8
0
  6
CONTINUOUS
 62
     7
 10
70.50169050330676
 20
229.2089190371914
  0
VERTEX
  8
0
  6
CONTINUOUS
 62
     7
 10
70.50049879416889
 20
229.227672500998
  0
VERTEX
  8
0
  6
CONTINUOUS
 62
     7
 10
70.50001259387776
 20
229.2464512369586
  0
VERTEX
  8
0
  6
CONTINUOUS
 62
     7
 10
70.50000000000003
 20
229.2500000000002
  0
SEQEND
  8
0
  6
CONTINUOUS
 62
     7
  0
LINE
  8
0
  6
CONTINUOUS
 62
     7
 10
109.5
 20
229.2500000000002
 11
109.5
 21
233.426149773176
  0
POLYLINE
  8
0
  6
CONTINUOUS
 62
     7
 66
     1
  0
VERTEX
  8
0
  6
CONTINUOUS
 62
     7
 10
109.5
 20
229.2500000000002
  0
VERTEX
  8
0
  6
CONTINUOUS
 62
     7
 10
109.4999874061223
 20
229.2464512369583
  0
VERTEX
  8
0
  6
CONTINUOUS
 62
     7
 10
109.4995156272531
 20
229.2279974576824
  0
VERTEX
  8
0
  6
CONTINUOUS
 62
     7
 10
109.4983625568526
 20
229.2095678107524
  0
VERTEX
  8
0
  6
CONTINUOUS
 62
     7
 10
109.4965205086118
 20
229.1911157253045
  0
VERTEX
  8
0
  6
CONTINUOUS
 62
     7
 10
109.4939915903305
 20
229.1727192864741
  0
VERTEX
  8
0
  6
CONTINUOUS
 62
     7
 10
109.4907369548339
 20
229.1542022307036
  0
VERTEX
  8
0
  6
CONTINUOUS
 62
     7
 10
109.4867778521193
 20
229.1357751222978
  0
VERTEX
  8
0
  6
CONTINUOUS
 62
     7
 10
109.4820936188194
 20
229.1173888683532
  0
VERTEX
  8
0
  6
CONTINUOUS
 62
     7
 10
109.4766946516855
 20
229.0991285015174
  0
VERTEX
  8
0
  6
CONTINUOUS
 62
     7
 10
109.469216543411
 20
229.0772696773785
  0
VERTEX
  8
0
  6
CONTINUOUS
 62
     7
 10
109.4606846408305
 20
229.0556558163906
  0
VERTEX
  8
0
  6
CONTINUOUS
 62
     7
 10
109.4510307016624
 20
229.0341963360607
  0
VERTEX
  8
0
  6
CONTINUOUS
 62
     7
 10
109.4402948768743
 20
229.01306030008
  0
VERTEX
  8
0
  6
CONTINUOUS
 62
     7
 10
109.4282182554844
 20
228.9918740398194
  0
VERTEX
  8
0
  6
CONTINUOUS
 62
     7
 10
109.4149979202594
 20
228.9711152098441
  0
VERTEX
  8
0
  6
CONTINUOUS
 62
     7
 10
109.400509533824
 20
228.9506808458061
  0
VERTEX
  8
0
  6
CONTINUOUS
 62
     7
 10
109.3848432081971
 20
228.9307889332989
  0
VERTEX
  8
0
  6
CONTINUOUS
 62
     7
 10
109.3720771104507
 20
228.9159961803398
  0
VERTEX
  8
0
  6
CONTINUOUS
 62
     7
 10
109.3586179725566
 20
228.9015848026287
  0
VERTEX
  8
0
  6
CONTINUOUS
 62
     7
 10
109.3443808767616
 20
228.887506258099
  0
VERTEX
  8
0
  6
CONTINUOUS
 62
     7
 10
109.3294428969984
 20
228.8738785068397
  0
VERTEX
  8
0
  6
CONTINUOUS
 62
     7
 10
109.3134870589156
 20
228.8604801435388
  0
VERTEX
  8
0
  6
CONTINUOUS
 62
     7
 10
109.2968104073278
 20
228.8476275579742
  0
VERTEX
  8
0
  6
CONTINUOUS
 62
     7
 10
109.2792822308079
 20
228.8352696895811
  0
VERTEX
  8
0
  6
CONTINUOUS
 62
     7
 10
109.2610431223053
 20
228.8235536513243
  0
VERTEX
  8
0
  6
CONTINUOUS
 62
     7
 10
109.2471963744027
 20
228.8153807707381
  0
VERTEX
  8
0
  6
CONTINUOUS
 62
     7
 10
109.2329830802805
 20
228.807598729316
  0
VERTEX
  8
0
  6
CONTINUOUS
 62
     7
 10
109.2183341145829
 20
228.8001888000694
  0
VERTEX
  8
0
  6
CONTINUOUS
 62
     7
 10
109.203336991446
 20
228.7932133234098
  0
VERTEX
  8
0
  6
CONTINUOUS
 62
     7
 10
109.1877275798028
 20
228.7865798600891
  0
VERTEX
  8
0
  6
CONTINUOUS
 62
     7
 10
109.1717890743303
 20
228.7804379551746
  0
VERTEX
  8
0
  6
CONTINUOUS
 62
     7
 10
109.1554304247969
 20
228.7747724509101
  0
VERTEX
  8
0
  6
CONTINUOUS
 62
     7
 10
109.1387801957131
 20
228.7696459042772
  0
VERTEX
  8
0
  6
CONTINUOUS
 62
     7
 10
109.1223669108697
 20
228.7652050181291
  0
VERTEX
  8
0
  6
CONTINUOUS
 62
     7
 10
109.1057271894377
 20
228.7613060657084
  0
VERTEX
  8
0
  6
CONTINUOUS
 62
     7
 10
109.0887626559355
 20
228.7579420764382
  0
VERTEX
  8
0
  6
CONTINUOUS
 62
     7
 10
109.0716252374062
 20
228.755156766878
  0
VERTEX
  8
0
  6
CONTINUOUS
 62
     7
 10
109.053928176937
 20
228.752916985031
  0
VERTEX
  8
0
  6
CONTINUOUS
 62
     7
 10
109.0361180651703
 20
228.7513062208448
  0
VERTEX
  8
0
  6
CONTINUOUS
 62
     7
 10
109.0180785707006
 20
228.750327188024
  0
VERTEX
  8
0
  6
CONTINUOUS
 62
     7
 10
109.0
 20
228.7500000000002
  0
SEQEND
  8
0
  6
CONTINUOUS
 62
     7
  0
LINE
  8
0
  6
CONTINUOUS
 62
     7
 10
83.80373831775701
 20
233.1022429712502
 11
83.98197074408193
 21
233.3663546068153
  0
LINE
  8
0
  6
CONTINUOUS
 62
     7
 10
83.80373831775701
 20
233.1022429712502
 11
83.49999999999999
 21
232.8606615497683
  0
POLYLINE
  8
0
  6
CONTINUOUS
 62
     7
 66
     1
  0
VERTEX
  8
0
  6
CONTINUOUS
 62
     7
 10
109.0
 20
221.2500000000001
  0
VERTEX
  8
0
  6
CONTINUOUS
 62
     7
 10
109.017364843325
 20
221.2496981614113
  0
VERTEX
  8
0
  6
CONTINUOUS
 62
     7
 10
109.0346950489283
 20
221.2487948010755
  0
VERTEX
  8
0
  6
CONTINUOUS
 62
     7
 10
109.0520946980317
 20
221.2472785280787
  0
VERTEX
  8
0
  6
CONTINUOUS
 62
     7
 10
109.0693900978566
 20
221.2451616042461
  0
VERTEX
  8
0
  6
CONTINUOUS
 62
     7
 10
109.0869693032286
 20
221.2423780345229
  0
VERTEX
  8
0
  6
CONTINUOUS
 62
     7
 10
109.1043703755985
 20
221.2389855056109
  0
VERTEX
  8
0
  6
CONTINUOUS
 62
     7
 10
109.1216972717174
 20
221.234963483708
  0
VERTEX
  8
0
  6
CONTINUOUS
 62
     7
 10
109.1387801957131
 20
221.2303540957231
  0
VERTEX
  8
0
  6
CONTINUOUS
 62
     7
 10
109.1549277041363
 20
221.22539169646
  0
VERTEX
  8
0
  6
CONTINUOUS
 62
     7
 10
109.1708017629432
 20
221.2199220762803
  0
VERTEX
  8
0
  6
CONTINUOUS
 62
     7
 10
109.1864821173242
 20
221.2139227286689
  0
VERTEX
  8
0
  6
CONTINUOUS
 62
     7
 10
109.2018462241239
 20
221.2074473759976
  0
VERTEX
  8
0
  6
CONTINUOUS
 62
     7
 10
109.2171584299304
 20
221.2003799605807
  0
VERTEX
  8
0
  6
CONTINUOUS
 62
     7
 10
109.2321102511622
 20
221.1928598325718
  0
VERTEX
  8
0
  6
CONTINUOUS
 62
     7
 10
109.2467710726621
 20
221.1848608391959
  0
VERTEX
  8
0
  6
CONTINUOUS
 62
     7
 10
109.2610431223053
 20
221.1764463486761
  0
VERTEX
  8
0
  6
CONTINUOUS
 62
     7
 10
109.2786653324433
 20
221.1651450990142
  0
VERTEX
  8
0
  6
CONTINUOUS
 62
     7
 10
109.2956251851039
 20
221.1532440327301
  0
VERTEX
  8
0
  6
CONTINUOUS
 62
     7
 10
109.3120320154776
 20
221.1406864281591
  0
VERTEX
  8
0
  6
CONTINUOUS
 62
     7
 10
109.3277464741689
 20
221.1276006470731
  0
VERTEX
  8
0
  6
CONTINUOUS
 62
     7
 10
109.3430783091002
 20
221.1137267721225
  0
VERTEX
  8
0
  6
CONTINUOUS
 62
     7
 10
109.3576788678266
 20
221.0993792030308
  0
VERTEX
  8
0
  6
CONTINUOUS
 62
     7
 10
109.3716314978108
 20
221.0844995467336
  0
VERTEX
  8
0
  6
CONTINUOUS
 62
     7
 10
109.3848432081971
 20
221.0692110667015
  0
VERTEX
  8
0
  6
CONTINUOUS
 62
     7
 10
109.3999891503259
 20
221.0500142367314
  0
VERTEX
  8
0
  6
CONTINUOUS
 62
     7
 10
109.4140366947783
 20
221.0303098560114
  0
VERTEX
  8
0
  6
CONTINUOUS
 62
     7
 10
109.4270852591676
 20
221.0099962973267
  0
VERTEX
  8
0
  6
CONTINUOUS
 62
     7
 10
109.4390340693491
 20
220.9892678121913
  0
VERTEX
  8
0
  6
CONTINUOUS
 62
     7
 10
109.4501125063123
 20
220.9677122838706
  0
VERTEX
  8
0
  6
CONTINUOUS
 62
     7
 10
109.4600612063633
 20
220.9458154396353
  0
VERTEX
  8
0
  6
CONTINUOUS
 62
     7
 10
109.4689416744034
 20
220.9234751409748
  0
VERTEX
  8
0
  6
CONTINUOUS
 62
     7
 10
109.4766946516855
 20
220.9008714984829
  0
VERTEX
  8
0
  6
CONTINUOUS
 62
     7
 10
109.4820054176316
 20
220.8829313694214
  0
VERTEX
  8
0
  6
CONTINUOUS
 62
     7
 10
109.4866261590724
 20
220.8648694097942
  0
VERTEX
  8
0
  6
CONTINUOUS
 62
     7
 10
109.4905722219677
 20
220.8466378167315
  0
VERTEX
  8
0
  6
CONTINUOUS
 62
     7
 10
109.4938282979688
 20
220.8283173807358
  0
VERTEX
  8
0
  6
CONTINUOUS
 62
     7
 10
109.496419724136
 20
220.8097279632887
  0
VERTEX
  8
0
  6
CONTINUOUS
 62
     7
 10
109.4983094966933
 20
220.7910809628089
  0
VERTEX
  8
0
  6
CONTINUOUS
 62
     7
 10
109.4995012058312
 20
220.772327499002
  0
VERTEX
  8
0
  6
CONTINUOUS
 62
     7
 10
109.4999874061223
 20
220.7535487630421
  0
VERTEX
  8
0
  6
CONTINUOUS
 62
     7
 10
109.5
 20
220.7500000000001
  0
SEQEND
  8
0
  6
CONTINUOUS
 62
     7
  0
LINE
  8
0
  6
CONTINUOUS
 62
     7
 10
109.5
 20
216.5738502268237
 11
109.5
 21
220.7500000000001
  0
POLYLINE
  8
0
  6
CONTINUOUS
 62
     7
 66
     1
  0
VERTEX
  8
0
  6
CONTINUOUS
 62
     7
 10
65.24998096153229
 20
229.7500000000001
  0
VERTEX
  8
0
  6
CONTINUOUS
 62
     7
 10
65.15243748628124
 20
229.7403932029197
  0
VERTEX
  8
0
  6
CONTINUOUS
 62
     7
 10
65.05864365296036
 20
229.7119419598223
  0
VERTEX
  8
0
  6
CONTINUOUS
 62
     7
 10
64.97220355762794
 20
229.6657395303549
  0
VERTEX
  8
0
  6
CONTINUOUS
 62
     7
 10
64.89643872362763
 20
229.6035612763727
  0
VERTEX
  8
0
  6
CONTINUOUS
 62
     7
 10
64.83426046964543
 20
229.5277964423724
  0
VERTEX
  8
0
  6
CONTINUOUS
 62
     7
 10
64.78805804017806
 20
229.44135634704
  0
VERTEX
  8
0
  6
CONTINUOUS
 62
     7
 10
64.75960679708068
 20
229.3475625137191
  0
VERTEX
  8
0
  6
CONTINUOUS
 62
     7
 10
64.7500000000002
 20
229.250019038468
  0
SEQEND
  8
0
  6
CONTINUOUS
 62
     7
  0
POLYLINE
  8
0
  6
CONTINUOUS
 62
     7
 66
     1
  0
VERTEX
  8
0
  6
CONTINUOUS
 62
     7
 10
64.7500000000002
 20
220.7499809615321
  0
VERTEX
  8
0
  6
CONTINUOUS
 62
     7
 10
64.75960679708068
 20
220.6524374862811
  0
VERTEX
  8
0
  6
CONTINUOUS
 62
     7
 10
64.78805804017806
 20
220.5586436529602
  0
VERTEX
  8
0
  6
CONTINUOUS
 62
     7
 10
64.83426046964543
 20
220.4722035576278
  0
VERTEX
  8
0
  6
CONTINUOUS
 62
     7
 10
64.89643872362763
 20
220.3964387236275
  0
VERTEX
  8
0
  6
CONTINUOUS
 62
     7
 10
64.97220355762794
 20
220.3342604696453
  0
VERTEX
  8
0
  6
CONTINUOUS
 62
     7
 10
65.05864365296036
 20
220.2880580401779
  0
VERTEX
  8
0
  6
CONTINUOUS
 62
     7
 10
65.15243748628124
 20
220.2596067970805
  0
VERTEX
  8
0
  6
CONTINUOUS
 62
     7
 10
65.24998096153229
 20
220.25
  0
SEQEND
  8
0
  6
CONTINUOUS
 62
     7
  0
POLYLINE
  8
0
  6
CONTINUOUS
 62
     7
 66
     1
  0
VERTEX
  8
0
  6
CONTINUOUS
 62
     7
 10
66.25000000000023
 20
229.250019038468
  0
VERTEX
  8
0
  6
CONTINUOUS
 62
     7
 10
66.24039320291975
 20
229.3475625137191
  0
VERTEX
  8
0
  6
CONTINUOUS
 62
     7
 10
66.21194195982237
 20
229.44135634704
  0
VERTEX
  8
0
  6
CONTINUOUS
 62
     7
 10
66.165739530355
 20
229.5277964423724
  0
VERTEX
  8
0
  6
CONTINUOUS
 62
     7
 10
66.1035612763728
 20
229.6035612763727
  0
VERTEX
  8
0
  6
CONTINUOUS
 62
     7
 10
66.02779644237249
 20
229.6657395303549
  0
VERTEX
  8
0
  6
CONTINUOUS
 62
     7
 10
65.94135634704007
 20
229.7119419598223
  0
VERTEX
  8
0
  6
CONTINUOUS
 62
     7
 10
65.84756251371918
 20
229.7403932029197
  0
VERTEX
  8
0
  6
CONTINUOUS
 62
     7
 10
65.75001903846814
 20
229.7500000000001
  0
SEQEND
  8
0
  6
CONTINUOUS
 62
     7
  0
POLYLINE
  8
0
  6
CONTINUOUS
 62
     7
 66
     1
  0
VERTEX
  8
0
  6
CONTINUOUS
 62
     7
 10
65.75001903846814
 20
220.25
  0
VERTEX
  8
0
  6
CONTINUOUS
 62
     7
 10
65.84756251371918
 20
220.2596067970805
  0
VERTEX
  8
0
  6
CONTINUOUS
 62
     7
 10
65.94135634704007
 20
220.2880580401779
  0
VERTEX
  8
0
  6
CONTINUOUS
 62
     7
 10
66.02779644237249
 20
220.3342604696453
  0
VERTEX
  8
0
  6
CONTINUOUS
 62
     7
 10
66.1035612763728
 20
220.3964387236275
  0
VERTEX
  8
0
  6
CONTINUOUS
 62
     7
 10
66.165739530355
 20
220.4722035576278
  0
VERTEX
  8
0
  6
CONTINUOUS
 62
     7
 10
66.21194195982237
 20
220.5586436529602
  0
VERTEX
  8
0
  6
CONTINUOUS
 62
     7
 10
66.24039320291975
 20
220.6524374862811
  0
VERTEX
  8
0
  6
CONTINUOUS
 62
     7
 10
66.25000000000023
 20
220.7499809615321
  0
SEQEND
  8
0
  6
CONTINUOUS
 62
     7
  0
LINE
  8
0
  6
CONTINUOUS
 62
     7
 10
65.75001903846814
 20
229.7500000000001
 11
65.24998096153232
 21
229.7500000000001
  0
LINE
  8
0
  6
CONTINUOUS
 62
     7
 10
65.2499809615323
 20
220.2500000000001
 11
65.75001903846814
 21
220.2500000000001
  0
LINE
  8
0
  6
CONTINUOUS
 62
     7
 10
64.75000000000023
 20
229.250019038468
 11
64.75000000000023
 21
220.7499809615321
  0
LINE
  8
0
  6
CONTINUOUS
 62
     7
 10
66.25000000000023
 20
220.7499809615321
 11
66.25000000000023
 21
229.250019038468
  0
LINE
  8
0
  6
CONTINUOUS
 62
     7
 10
96.00000000000007
 20
215.1500000000001
 11
83.50000000000001
 21
215.15
  0
LINE
  8
0
  6
CONTINUOUS
 62
     7
 10
83.99999999999999
 20
234.85
 11
96.50000000000007
 21
234.85
  0
LINE
  8
0
  6
CONTINUOUS
 62
     7
 10
109.5
 20
229.2500000000002
 11
109.5
 21
220.7500000000001
  0
LINE
  8
0
  6
CONTINUOUS
 62
     7
 10
60.5
 20
221.0
 11
60.5
 21
229.0
  0
ARC
  8
0
  6
CONTINUOUS
 62
     7
 10
63.5
 20
221.0
 40
3.000000000000003
 50
180.0
 51
270.0
  0
LINE
  8
0
  6
CONTINUOUS
 62
     7
 10
70.5
 20
218.0
 11
63.5
 21
218.0
  0
LINE
  8
0
  6
CONTINUOUS
 62
     7
 10
70.49999999999999
 20
220.7500000000001
 11
70.49999999999999
 21
229.2500000000002
  0
ARC
  8
0
  6
CONTINUOUS
 62
     7
 10
63.5
 20
229.0
 40
3.000000000000003
 50
90.0
 51
180.0
  0
LINE
  8
0
  6
CONTINUOUS
 62
     7
 10
69.49999999999999
 20
230.0
 11
70.49999999999999
 21
230.0
  0
LINE
  8
0
  6
CONTINUOUS
 62
     7
 10
69.49999999999999
 20
218.7
 11
69.49999999999999
 21
230.0
  0
LINE
  8
0
  6
CONTINUOUS
 62
     7
 10
69.49999999999999
 20
218.7
 11
70.5
 21
218.7
  0
LINE
  8
0
  6
CONTINUOUS
 62
     7
 10
63.5
 20
232.0
 11
70.5
 21
232.0
  0
CIRCLE
  8
0
  6
CONTINUOUS
 62
     7
 10
79.5
 20
237.35
 40
1.249999999999987
  0
CIRCLE
  8
0
  6
CONTINUOUS
 62
     7
 10
90.0
 20
225.0
 40
5.430223136059689
  0
ENDBLK
  8
0
  0
BLOCK
  8
0
  2
D_FRAME_VIEW_1995
 70
     0
 10
0.0
 20
0.0
  0
LINE
  8
0
  6
CONTINUOUS
 62
     7
 10
159.85
 20
181.3999999999999
 11
159.85
 21
178.6248715732037
  0
LINE
  8
0
  6
CONTINUOUS
 62
     7
 10
158.85
 20
178.6161447054129
 11
159.85
 21
178.6248715732037
  0
ARC
  8
0
  6
CONTINUOUS
 62
     7
 10
140.65
 20
181.3999999999999
 40
0.5000000000000004
 50
90.0
 51
180.0
  0
LINE
  8
0
  6
CONTINUOUS
 62
     7
 10
140.65
 20
181.8999999999999
 11
141.15
 21
181.8999999999999
  0
LINE
  8
0
  6
CONTINUOUS
 62
     7
 10
158.85
 20
181.8999999999999
 11
159.35
 21
181.8999999999999
  0
ARC
  8
0
  6
CONTINUOUS
 62
     7
 10
159.35
 20
181.3999999999999
 40
0.5000000000000004
 50
0.0
 51
90.0
  0
LINE
  8
0
  6
CONTINUOUS
 62
     7
 10
140.15
 20
178.7470477222743
 11
141.15
 21
178.7383208544835
  0
LINE
  8
0
  6
CONTINUOUS
 62
     7
 10
140.15
 20
178.7470477222743
 11
140.15
 21
181.3999999999999
  0
ARC
  8
0
  6
CONTINUOUS
 62
     7
 10
158.426149773176
 20
181.3999999999998
 40
0.5000000000000071
 50
90.0
 51
116.7048522475761
  0
LINE
  8
0
  6
CONTINUOUS
 62
     7
 10
145.7500000000001
 20
179.4
 11
146.2500000000001
 21
179.9
  0
LINE
  8
0
  6
CONTINUOUS
 62
     7
 10
146.2500000000001
 20
180.2894289005082
 11
145.7500000000001
 21
179.8880176322503
  0
LINE
  8
0
  6
CONTINUOUS
 62
     7
 10
146.2500000000001
 20
180.2894289005082
 11
146.2500000000001
 21
179.9
  0
LINE
  8
0
  6
CONTINUOUS
 62
     7
 10
146.2500000000001
 20
179.9
 11
153.7500000000002
 21
179.9
  0
LINE
  8
0
  6
CONTINUOUS
 62
     7
 10
153.7500000000002
 20
179.9
 11
154.2500000000002
 21
179.4
  0
LINE
  8
0
  6
CONTINUOUS
 62
     7
 10
158.426149773176
 20
181.8999999999999
 11
158.85
 21
181.8999999999999
  0
ARC
  8
0
  6
CONTINUOUS
 62
     7
 10
150.0
 20
198.15
 40
18.24999999999999
 50
243.295147752424
 51
258.1424328505473
  0
LINE
  8
0
  6
CONTINUOUS
 62
     7
 10
158.85
 20
178.6161447054129
 11
157.0
 21
178.6
  0
LINE
  8
0
  6
CONTINUOUS
 62
     7
 10
157.0
 20
178.6
 11
141.15
 21
178.7383208544835
  0
LINE
  8
0
  6
CONTINUOUS
 62
     7
 10
141.15
 20
181.8999999999999
 11
141.573850226824
 21
181.8999999999999
  0
ARC
  8
0
  6
CONTINUOUS
 62
     7
 10
141.573850226824
 20
181.3999999999998
 40
0.5000000000000004
 50
63.29514775242393
 51
90.0
  0
ARC
  8
0
  6
CONTINUOUS
 62
     7
 10
150.0
 20
198.15
 40
18.25
 50
281.8575671494538
 51
296.7048522475759
  0
LINE
  8
0
  6
CONTINUOUS
 62
     7
 10
154.2500000000002
 20
179.8880176322504
 11
153.7500000000002
 21
180.2894289005083
  0
LINE
  8
0
  6
CONTINUOUS
 62
     7
 10
153.7500000000002
 20
179.9
 11
153.7500000000002
 21
180.2894289005083
  0
LINE
  8
0
  6
CONTINUOUS
 62
     7
 10
159.85
 20
178.6248715732037
 11
169.0
 21
178.7047224134891
  0
LINE
  8
0
  6
CONTINUOUS
 62
     7
 10
170.0
 20
183.9
 11
170.0
 21
178.7134492812799
  0
LINE
  8
0
  6
CONTINUOUS
 62
     7
 10
169.0
 20
178.7047224134891
 11
170.0
 21
178.7134492812799
  0
ARC
  8
0
  6
CONTINUOUS
 62
     7
 10
150.0
 20
198.15
 40
18.25000000000001
 50
296.704852247576
 51
297.4310014537045
  0
ARC
  8
0
  6
CONTINUOUS
 62
     7
 10
150.0
 20
198.15
 40
18.25000000000001
 50
297.4310014537045
 51
310.6586833720128
  0
ARC
  8
0
  6
CONTINUOUS
 62
     7
 10
162.747548783982
 20
184.4
 40
0.5000000000000037
 50
89.99999999999966
 51
132.833428066067
  0
LINE
  8
0
  6
CONTINUOUS
 62
     7
 10
161.8908155169477
 20
184.3054701653716
 11
162.4076141497425
 21
184.7666666666667
  0
LINE
  8
0
  6
CONTINUOUS
 62
     7
 10
162.747548783982
 20
184.9
 11
169.0
 21
184.9
  0
ARC
  8
0
  6
CONTINUOUS
 62
     7
 10
169.0
 20
183.9
 40
1.000000000000001
 50
0.0
 51
90.0
  0
LINE
  8
0
  6
CONTINUOUS
 62
     7
 10
164.2500605833473
 20
184.9
 11
164.2500605833473
 21
185.1
  0
LINE
  8
0
  6
CONTINUOUS
 62
     7
 10
164.2500605833469
 20
185.1
 11
164.3663949351873
 21
185.1
  0
LINE
  8
0
  6
CONTINUOUS
 62
     7
 10
164.3663949351873
 20
184.9
 11
164.3663949351873
 21
185.1
  0
LINE
  8
0
  6
CONTINUOUS
 62
     7
 10
163.5
 20
184.9
 11
163.5
 21
185.1
  0
LINE
  8
0
  6
CONTINUOUS
 62
     7
 10
163.5
 20
185.1
 11
164.2500605833473
 21
185.1
  0
LINE
  8
0
  6
CONTINUOUS
 62
     7
 10
167.25
 20
184.9
 11
167.25
 21
185.1
  0
LINE
  8
0
  6
CONTINUOUS
 62
     7
 10
164.769245008973
 20
185.1
 11
167.25
 21
185.1
  0
LINE
  8
0
  6
CONTINUOUS
 62
     7
 10
140.15
 20
178.0470477222743
 11
156.9999999999999
 21
177.9
  0
LINE
  8
0
  6
CONTINUOUS
 62
     7
 10
140.15
 20
178.0470477222743
 11
140.15
 21
178.7470477222743
  0
LINE
  8
0
  6
CONTINUOUS
 62
     7
 10
164.5753000052586
 20
184.9
 11
164.5753000052586
 21
185.1
  0
LINE
  8
0
  6
CONTINUOUS
 62
     7
 10
164.3663949351873
 20
185.1
 11
164.5753000052586
 21
185.1
  0
LINE
  8
0
  6
CONTINUOUS
 62
     7
 10
164.644602825495
 20
184.9
 11
164.644602825495
 21
185.1
  0
LINE
  8
0
  6
CONTINUOUS
 62
     7
 10
164.5753000052587
 20
185.1
 11
164.644602825495
 21
185.1
  0
LINE
  8
0
  6
CONTINUOUS
 62
     7
 10
156.9999999999999
 20
177.9
 11
159.85
 21
177.9248715732037
  0
LINE
  8
0
  6
CONTINUOUS
 62
     7
 10
159.85
 20
178.6248715732037
 11
159.85
 21
177.9248715732037
  0
LINE
  8
0
  6
CONTINUOUS
 62
     7
 10
164.684358202771
 20
184.9
 11
164.684358202771
 21
185.1
  0
LINE
  8
0
  6
CONTINUOUS
 62
     7
 10
164.644602825495
 20
185.1
 11
164.684358202771
 21
185.1
  0
LINE
  8
0
  6
CONTINUOUS
 62
     7
 10
164.7229160073963
 20
184.9
 11
164.7229160073963
 21
185.1
  0
LINE
  8
0
  6
CONTINUOUS
 62
     7
 10
164.684358202771
 20
185.1
 11
164.7229160073963
 21
185.1
  0
LINE
  8
0
  6
CONTINUOUS
 62
     7
 10
164.7229160073963
 20
185.1
 11
164.7414149678759
 21
185.1
  0
LINE
  8
0
  6
CONTINUOUS
 62
     7
 10
164.7414149678759
 20
184.9
 11
164.7414149678759
 21
185.1
  0
LINE
  8
0
  6
CONTINUOUS
 62
     7
 10
164.75
 20
184.9
 11
164.75
 21
185.1
  0
LINE
  8
0
  6
CONTINUOUS
 62
     7
 10
164.7414149678758
 20
185.1
 11
164.75
 21
185.1
  0
LINE
  8
0
  6
CONTINUOUS
 62
     7
 10
167.375
 20
185.1
 11
167.25
 21
185.1
  0
LINE
  8
0
  6
CONTINUOUS
 62
     7
 10
168.5
 20
184.9
 11
168.5
 21
185.1
  0
LINE
  8
0
  6
CONTINUOUS
 62
     7
 10
167.375
 20
185.1
 11
168.5
 21
185.1
  0
LINE
  8
0
  6
CONTINUOUS
 62
     7
 10
164.7622008467928
 20
185.1
 11
164.769245008973
 21
185.1
  0
LINE
  8
0
  6
CONTINUOUS
 62
     7
 10
159.8500000000001
 20
169.4
 11
159.85
 21
172.8751284267964
  0
LINE
  8
0
  6
CONTINUOUS
 62
     7
 10
159.8500000000001
 20
169.4
 11
148.0947441116743
 21
169.4
  0
LINE
  8
0
  6
CONTINUOUS
 62
     7
 10
149.1573059810031
 20
172.8315578461729
 11
148.0947441116743
 21
172.7452584050091
  0
LINE
  8
0
  6
CONTINUOUS
 62
     7
 10
149.1573059810031
 20
172.8315578461729
 11
157.0
 21
172.9000000000001
  0
LINE
  8
0
  6
CONTINUOUS
 62
     7
 10
157.0
 20
172.9000000000001
 11
159.85
 21
172.8751284267964
  0
LINE
  8
0
  6
CONTINUOUS
 62
     7
 10
145.4966679003209
 20
169.3886859966643
 11
145.5892501484008
 21
169.4
  0
LINE
  8
0
  6
CONTINUOUS
 62
     7
 10
145.4966679003209
 20
172.5342471391124
 11
148.0947441116743
 21
172.7452584050091
  0
LINE
  8
0
  6
CONTINUOUS
 62
     7
 10
148.0947441116743
 20
169.4
 11
145.5892501484008
 21
169.4
  0
LINE
  8
0
  6
CONTINUOUS
 62
     7
 10
159.85
 20
177.9248715732037
 11
170.0
 21
178.0134492812799
  0
LINE
  8
0
  6
CONTINUOUS
 62
     7
 10
170.0
 20
178.7134492812799
 11
170.0
 21
178.0134492812799
  0
ARC
  8
0
  6
CONTINUOUS
 62
     7
 10
146.4443062887932
 20
168.4290079589919
 40
1.438678589566989
 50
151.4506800851162
 51
181.1553284173041
  0
POLYLINE
  8
0
  6
CONTINUOUS
 62
     7
 66
     1
  0
VERTEX
  8
0
  6
CONTINUOUS
 62
     7
 10
145.1805623098461
 20
169.1165741301734
  0
VERTEX
  8
0
  6
CONTINUOUS
 62
     7
 10
145.2390485811177
 20
169.2028287078564
  0
VERTEX
  8
0
  6
CONTINUOUS
 62
     7
 10
145.3263139484631
 20
169.2954999069194
  0
VERTEX
  8
0
  6
CONTINUOUS
 62
     7
 10
145.4216564050255
 20
169.3600222447525
  0
VERTEX
  8
0
  6
CONTINUOUS
 62
     7
 10
145.4966679003209
 20
169.3886859966643
  0
SEQEND
  8
0
  6
CONTINUOUS
 62
     7
  0
LINE
  8
0
  6
CONTINUOUS
 62
     7
 10
159.85
 20
168.3999999999989
 11
159.8500000000001
 21
169.4
  0
LINE
  8
0
  6
CONTINUOUS
 62
     7
 10
143.7357495792926
 20
167.6
 11
143.042929256265
 21
167.6
  0
LINE
  8
0
  6
CONTINUOUS
 62
     7
 10
143.8512196331305
 20
167.8
 11
143.7357495792926
 21
167.6
  0
LINE
  8
0
  6
CONTINUOUS
 62
     7
 10
143.8512196331305
 20
170.2
 11
143.8512196331305
 21
167.8
  0
LINE
  8
0
  6
CONTINUOUS
 62
     7
 10
143.7357495792926
 20
170.4
 11
143.8512196331305
 21
170.2
  0
LINE
  8
0
  6
CONTINUOUS
 62
     7
 10
143.7357495792926
 20
170.4
 11
140.5519237886467
 21
170.4
  0
LINE
  8
0
  6
CONTINUOUS
 62
     7
 10
140.5519237886467
 20
172.1326435564383
 11
140.9279974000795
 21
172.1631876060979
  0
LINE
  8
0
  6
CONTINUOUS
 62
     7
 10
140.9279974000795
 20
172.1631876060979
 11
140.9279974000795
 21
173.4000000000001
  0
LINE
  8
0
  6
CONTINUOUS
 62
     7
 10
142.1412059559347
 20
173.4000000000001
 11
142.1412059559347
 21
172.2617223111419
  0
LINE
  8
0
  6
CONTINUOUS
 62
     7
 10
145.0059201715098
 20
168.4
 11
145.0059201715098
 21
165.9
  0
POLYLINE
  8
0
  6
CONTINUOUS
 62
     7
 66
     1
  0
VERTEX
  8
0
  6
CONTINUOUS
 62
     7
 10
144.4285699023202
 20
164.9
  0
VERTEX
  8
0
  6
CONTINUOUS
 62
     7
 10
144.5412053522525
 20
164.9192147195968
  0
VERTEX
  8
0
  6
CONTINUOUS
 62
     7
 10
144.6495122850106
 20
164.9761204674887
  0
VERTEX
  8
0
  6
CONTINUOUS
 62
     7
 10
144.7253872600713
 20
165.0422713899997
  0
VERTEX
  8
0
  6
CONTINUOUS
 62
     7
 10
144.7948370357042
 20
165.1269895466373
  0
VERTEX
  8
0
  6
CONTINUOUS
 62
     7
 10
144.8563582340002
 20
165.228441045153
  0
VERTEX
  8
0
  6
CONTINUOUS
 62
     7
 10
144.908619106806
 20
165.3444297669804
  0
SEQEND
  8
0
  6
CONTINUOUS
 62
     7
  0
ARC
  8
0
  6
CONTINUOUS
 62
     7
 10
143.4404917185743
 20
165.8878592571814
 40
1.565475531235234
 50
339.6878938191974
 51
0.4443507949433183
  0
LINE
  8
0
  6
CONTINUOUS
 62
     7
 10
143.3316043908598
 20
164.9
 11
144.4285699023202
 21
164.9
  0
POLYLINE
  8
0
  6
CONTINUOUS
 62
     7
 66
     1
  0
VERTEX
  8
0
  6
CONTINUOUS
 62
     7
 10
143.042929256265
 20
165.4
  0
VERTEX
  8
0
  6
CONTINUOUS
 62
     7
 10
143.0432769781071
 20
165.3754661628363
  0
VERTEX
  8
0
  6
CONTINUOUS
 62
     7
 10
143.044319305941
 20
165.3509914298352
  0
VERTEX
  8
0
  6
CONTINUOUS
 62
     7
 10
143.0460537287077
 20
165.3266347627723
  0
VERTEX
  8
0
  6
CONTINUOUS
 62
     7
 10
143.0484760680308
 20
165.3024548389919
  0
VERTEX
  8
0
  6
CONTINUOUS
 62
     7
 10
143.0515804882827
 20
165.2785099100484
  0
VERTEX
  8
0
  6
CONTINUOUS
 62
     7
 10
143.0553595106431
 20
165.2548576613728
  0
VERTEX
  8
0
  6
CONTINUOUS
 62
     7
 10
143.0598040311162
 20
165.2315550733039
  0
VERTEX
  8
0
  6
CONTINUOUS
 62
     7
 10
143.0649033424627
 20
165.2086582838175
  0
VERTEX
  8
0
  6
CONTINUOUS
 62
     7
 10
143.0706451599951
 20
165.1862224532849
  0
VERTEX
  8
0
  6
CONTINUOUS
 62
     7
 10
143.077015651172
 20
165.164301631587
  0
VERTEX
  8
0
  6
CONTINUOUS
 62
     7
 10
143.0839994689222
 20
165.1429486279034
  0
VERTEX
  8
0
  6
CONTINUOUS
 62
     7
 10
143.0915797886169
 20
165.1222148834902
  0
VERTEX
  8
0
  6
CONTINUOUS
 62
     7
 10
143.0997383486021
 20
165.1021503477538
  0
VERTEX
  8
0
  6
CONTINUOUS
 62
     7
 10
143.1084554941922
 20
165.0828033579182
  0
VERTEX
  8
0
  6
CONTINUOUS
 62
     7
 10
143.1177102250198
 20
165.0642205225765
  0
VERTEX
  8
0
  6
CONTINUOUS
 62
     7
 10
143.1274802456279
 20
165.0464466094067
  0
VERTEX
  8
0
  6
CONTINUOUS
 62
     7
 10
143.137742019181
 20
165.0295244373226
  0
VERTEX
  8
0
  6
CONTINUOUS
 62
     7
 10
143.1484708241678
 20
165.0134947733186
  0
VERTEX
  8
0
  6
CONTINUOUS
 62
     7
 10
143.1596408139574
 20
164.9983962342597
  0
VERTEX
  8
0
  6
CONTINUOUS
 62
     7
 10
143.171225079066
 20
164.9842651938487
  0
VERTEX
  8
0
  6
CONTINUOUS
 62
     7
 10
143.1831957119843
 20
164.9711356949999
  0
VERTEX
  8
0
  6
CONTINUOUS
 62
     7
 10
143.195523874409
 20
164.9590393678259
  0
VERTEX
  8
0
  6
CONTINUOUS
 62
     7
 10
143.2081798667171
 20
164.9480053534383
  0
VERTEX
  8
0
  6
CONTINUOUS
 62
     7
 10
143.2211331995146
 20
164.9380602337444
  0
VERTEX
  8
0
  6
CONTINUOUS
 62
     7
 10
143.2343526670882
 20
164.9292279674085
  0
VERTEX
  8
0
  6
CONTINUOUS
 62
     7
 10
143.2478064225826
 20
164.9215298321339
  0
VERTEX
  8
0
  6
CONTINUOUS
 62
     7
 10
143.2614620547224
 20
164.9149843734027
  0
VERTEX
  8
0
  6
CONTINUOUS
 62
     7
 10
143.2752866658937
 20
164.9096073597984
  0
VERTEX
  8
0
  6
CONTINUOUS
 62
     7
 10
143.2892469513973
 20
164.9054117450176
  0
VERTEX
  8
0
  6
CONTINUOUS
 62
     7
 10
143.3033092796826
 20
164.9024076366639
  0
VERTEX
  8
0
  6
CONTINUOUS
 62
     7
 10
143.3174397733691
 20
164.9006022718974
  0
VERTEX
  8
0
  6
CONTINUOUS
 62
     7
 10
143.3316043908598
 20
164.9
  0
SEQEND
  8
0
  6
CONTINUOUS
 62
     7
  0
LINE
  8
0
  6
CONTINUOUS
 62
     7
 10
143.042929256265
 20
165.4
 11
143.042929256265
 21
167.6
  0
LINE
  8
0
  6
CONTINUOUS
 62
     7
 10
142.1412059559347
 20
172.2617223111419
 11
145.4966679003209
 21
172.5342471391124
  0
LINE
  8
0
  6
CONTINUOUS
 62
     7
 10
159.85
 20
164.9
 11
144.4285699023202
 21
164.9
  0
LINE
  8
0
  6
CONTINUOUS
 62
     7
 10
159.85
 20
165.8999999999988
 11
159.85
 21
164.9
  0
LINE
  8
0
  6
CONTINUOUS
 62
     7
 10
159.8500000000004
 20
168.3999999999989
 11
159.8500000000004
 21
165.8999999999988
  0
LINE
  8
0
  6
CONTINUOUS
 62
     7
 10
146.5
 20
177.991632111803
 11
146.5
 21
172.6157360406092
  0
LINE
  8
0
  6
CONTINUOUS
 62
     7
 10
157.0000000000001
 20
173.4000000000001
 11
157.0
 21
177.9
  0
LINE
  8
0
  6
CONTINUOUS
 62
     7
 10
159.85
 20
172.8751284267964
 11
159.85
 21
177.9248715732037
  0
LINE
  8
0
  6
CONTINUOUS
 62
     7
 10
146.2264838404305
 20
172.5935215301873
 11
146.2264838404305
 21
177.9940190511662
  0
LINE
  8
0
  6
CONTINUOUS
 62
     7
 10
142.1412059559347
 20
173.4000000000001
 11
140.9279974000795
 21
173.4000000000001
  0
LINE
  8
0
  6
CONTINUOUS
 62
     7
 10
140.15
 20
172.1
 11
140.15
 21
178.0470477222743
  0
LINE
  8
0
  6
CONTINUOUS
 62
     7
 10
140.15
 20
172.1
 11
140.5519237886467
 21
172.1326435564383
  0
LINE
  8
0
  6
CONTINUOUS
 62
     7
 10
140.5519237886467
 20
170.4
 11
140.15
 21
170.4
  0
LINE
  8
0
  6
CONTINUOUS
 62
     7
 10
140.15
 20
170.4
 11
140.15
 21
172.1
  0
LINE
  8
0
  6
CONTINUOUS
 62
     7
 10
143.3316043908598
 20
164.9
 11
140.15
 21
164.9
  0
LINE
  8
0
  6
CONTINUOUS
 62
     7
 10
140.15
 20
164.9
 11
140.15
 21
165.3999999999988
  0
LINE
  8
0
  6
CONTINUOUS
 62
     7
 10
143.042929256265
 20
167.6
 11
140.1499999999996
 21
167.6
  0
LINE
  8
0
  6
CONTINUOUS
 62
     7
 10
140.1499999999996
 20
167.6
 11
140.1499999999996
 21
165.3999999999988
  0
LINE
  8
0
  6
CONTINUOUS
 62
     7
 10
140.15
 20
167.8
 11
140.15
 21
167.6
  0
LINE
  8
0
  6
CONTINUOUS
 62
     7
 10
140.15
 20
170.4
 11
140.15
 21
170.2
  0
LINE
  8
0
  6
CONTINUOUS
 62
     7
 10
140.15
 20
170.2
 11
140.15
 21
167.8
  0
LINE
  8
0
  6
CONTINUOUS
 62
     7
 10
140.15
 20
177.9248715732037
 11
131.0
 21
178.0047224134891
  0
LINE
  8
0
  6
CONTINUOUS
 62
     7
 10
130.0
 20
178.0134492812799
 11
130.0
 21
183.9
  0
LINE
  8
0
  6
CONTINUOUS
 62
     7
 10
131.0
 20
178.0047224134891
 11
130.0
 21
178.0134492812799
  0
ARC
  8
0
  6
CONTINUOUS
 62
     7
 10
150.0
 20
198.15
 40
18.25000000000001
 50
229.3413166279873
 51
242.5248021875011
  0
ARC
  8
0
  6
CONTINUOUS
 62
     7
 10
150.0
 20
198.15
 40
18.25000000000001
 50
242.5248021875011
 51
243.2951477524239
  0
LINE
  8
0
  6
CONTINUOUS
 62
     7
 10
131.0
 20
184.9
 11
137.252451216018
 21
184.9
  0
ARC
  8
0
  6
CONTINUOUS
 62
     7
 10
137.252451216018
 20
184.4
 40
0.5000000000000004
 50
49.50000000000033
 51
90.00000000000021
  0
ARC
  8
0
  6
CONTINUOUS
 62
     7
 10
137.252451216018
 20
184.4
 40
0.5000000000000081
 50
47.16657193393235
 51
49.50000000000033
  0
LINE
  8
0
  6
CONTINUOUS
 62
     7
 10
137.5923858502575
 20
184.7666666666667
 11
138.1091844830523
 21
184.3054701653716
  0
ARC
  8
0
  6
CONTINUOUS
 62
     7
 10
131.0
 20
183.9
 40
1.000000000000001
 50
90.0
 51
180.0
  0
LINE
  8
0
  6
CONTINUOUS
 62
     7
 10
145.2554767969019
 20
180.5275787640232
 11
145.2596376322307
 21
181.0043632677491
  0
LINE
  8
0
  6
CONTINUOUS
 62
     7
 10
154.7403623677695
 20
181.0043632677491
 11
154.7445233746265
 21
180.5275591088192
  0
LINE
  8
0
  6
CONTINUOUS
 62
     7
 10
145.7596185937627
 20
181.5
 11
154.2403814062374
 21
181.5
  0
ARC
  8
0
  6
CONTINUOUS
 62
     7
 10
145.7596185937627
 20
181.0
 40
0.5000000000000016
 50
90.0
 51
179.5000000000004
  0
ARC
  8
0
  6
CONTINUOUS
 62
     7
 10
154.2403814062374
 20
181.0
 40
0.5000000000000016
 50
0.5000000000000828
 51
90.0
  0
LINE
  8
0
  6
CONTINUOUS
 62
     7
 10
164.7622008467928
 20
185.1
 11
164.7622008467928
 21
184.9
  0
ARC
  8
0
  6
CONTINUOUS
 62
     7
 10
157.0
 20
172.9000000000001
 40
0.5000000000000018
 50
359.4999999999952
 51
180.5000000000049
  0
ENDBLK
  8
0
  0
BLOCK
  8
0
  2
D_FRAME_VIEW_1506
 70
     0
 10
0.0
 20
0.0
  0
LINE
  8
0
  6
CONTINUOUS
 62
     7
 10
79.1828105130584
 20
183.952335956243
 11
79.49451173086788
 21
178.0047224134892
  0
LINE
  8
0
  6
CONTINUOUS
 62
     7
 10
79.49451173086787
 20
178.0047224134891
 11
78.49268202910895
 21
178.0134492812799
  0
LINE
  8
0
  6
CONTINUOUS
 62
     7
 10
78.49268202910895
 20
178.0134492812799
 11
77.49405437510684
 21
178.0134492812799
  0
LINE
  8
0
  6
CONTINUOUS
 62
     7
 10
77.24320188151307
 20
182.8
 11
77.49405437510684
 21
178.0134492812799
  0
LINE
  8
0
  6
CONTINUOUS
 62
     7
 10
74.75679811848687
 20
182.8
 11
77.24320188151307
 21
182.8
  0
LINE
  8
0
  6
CONTINUOUS
 62
     7
 10
74.75679811848687
 20
182.8
 11
74.54263107039124
 21
178.7134492812799
  0
LINE
  8
0
  6
CONTINUOUS
 62
     7
 10
72.54263107039125
 20
178.7134492812799
 11
74.54263107039124
 21
178.7134492812799
  0
LINE
  8
0
  6
CONTINUOUS
 62
     7
 10
72.81444667569825
 20
183.9
 11
72.54263107039127
 21
178.7134492812798
  0
LINE
  8
0
  6
CONTINUOUS
 62
     7
 10
70.50000000000003
 20
178.6161447054129
 11
71.50000000000003
 21
178.6248715732037
  0
LINE
  8
0
  6
CONTINUOUS
 62
     7
 10
71.50000000000003
 20
178.6248715732037
 11
72.53798890941701
 21
178.6248715732037
  0
LINE
  8
0
  6
CONTINUOUS
 62
     7
 10
72.53798890941701
 20
178.6248715732037
 11
72.54263107039127
 21
178.7134492812798
  0
LINE
  8
0
  6
CONTINUOUS
 62
     7
 10
74.54263107039125
 20
178.7134492812799
 11
74.53782883490064
 21
178.6218171694769
  0
LINE
  8
0
  6
CONTINUOUS
 62
     7
 10
74.9781828305231
 20
178.6218171694769
 11
74.53782883490064
 21
178.6218171694769
  0
LINE
  8
0
  6
CONTINUOUS
 62
     7
 10
70.50000000000318
 20
178.6
 11
75.0
 21
178.6
  0
LINE
  8
0
  6
CONTINUOUS
 62
     7
 10
70.50000000000003
 20
178.6161447054129
 11
70.50000000000318
 21
178.6
  0
ARC
  8
0
  6
CONTINUOUS
 62
     7
 10
78.18418097830383
 20
183.9
 40
1.000000000000001
 50
2.999999999999923
 51
89.99999999999996
  0
LINE
  8
0
  6
CONTINUOUS
 62
     7
 10
77.49885661059746
 20
177.921817169477
 11
75.67818283052307
 21
177.921817169477
  0
LINE
  8
0
  6
CONTINUOUS
 62
     7
 10
79.49869653608111
 20
177.9248715732037
 11
79.49451173086787
 21
178.0047224134891
  0
LINE
  8
0
  6
CONTINUOUS
 62
     7
 10
79.49869653608111
 20
177.9248715732037
 11
79.92487157320369
 21
177.9248715732037
  0
LINE
  8
0
  6
CONTINUOUS
 62
     7
 10
79.92487157320369
 20
177.9248715732037
 11
79.90000000000002
 21
177.9
  0
LINE
  8
0
  6
CONTINUOUS
 62
     7
 10
75.69999999999996
 20
177.9
 11
79.90000000000002
 21
177.9
  0
LINE
  8
0
  6
CONTINUOUS
 62
     7
 10
75.69999999999996
 20
177.9
 11
75.67818283052306
 21
177.9218171694769
  0
LINE
  8
0
  6
CONTINUOUS
 62
     7
 10
77.49885661059746
 20
177.921817169477
 11
77.49405437510684
 21
178.0134492812799
  0
POLYLINE
  8
0
  6
CONTINUOUS
 62
     7
 66
     1
  0
VERTEX
  8
0
  6
CONTINUOUS
 62
     7
 10
73.81581902169616
 20
184.9
  0
VERTEX
  8
0
  6
CONTINUOUS
 62
     7
 10
73.76838568756753
 20
184.8988744059257
  0
VERTEX
  8
0
  6
CONTINUOUS
 62
     7
 10
73.72105913479855
 20
184.8955001576269
  0
VERTEX
  8
0
  6
CONTINUOUS
 62
     7
 10
73.6739459043639
 20
184.8898848511713
  0
VERTEX
  8
0
  6
CONTINUOUS
 62
     7
 10
73.62715205700961
 20
184.8820411276703
  0
VERTEX
  8
0
  6
CONTINUOUS
 62
     7
 10
73.58078293449024
 20
184.8719866448213
  0
VERTEX
  8
0
  6
CONTINUOUS
 62
     7
 10
73.53494292242488
 20
184.8597440371569
  0
VERTEX
  8
0
  6
CONTINUOUS
 62
     7
 10
73.48973521530542
 20
184.8453408650903
  0
VERTEX
  8
0
  6
CONTINUOUS
 62
     7
 10
73.44526158418633
 20
184.8288095528719
  0
VERTEX
  8
0
  6
CONTINUOUS
 62
     7
 10
73.40162214757895
 20
184.8101873155958
  0
VERTEX
  8
0
  6
CONTINUOUS
 62
     7
 10
73.35891514606574
 20
184.7895160754219
  0
VERTEX
  8
0
  6
CONTINUOUS
 62
     7
 10
73.31723672114241
 20
184.766842367201
  0
VERTEX
  8
0
  6
CONTINUOUS
 62
     7
 10
73.27668069878517
 20
184.7422172337163
  0
VERTEX
  8
0
  6
CONTINUOUS
 62
     7
 10
73.2373383782309
 20
184.7156961107766
  0
VERTEX
  8
0
  6
CONTINUOUS
 62
     7
 10
73.19929832644539
 20
184.6873387024194
  0
VERTEX
  8
0
  6
CONTINUOUS
 62
     7
 10
73.16264617874239
 20
184.6572088465065
  0
VERTEX
  8
0
  6
CONTINUOUS
 62
     7
 10
73.1274644460024
 20
184.6253743710123
  0
VERTEX
  8
0
  6
CONTINUOUS
 62
     7
 10
73.09383232892526
 20
184.5919069413308
  0
VERTEX
  8
0
  6
CONTINUOUS
 62
     7
 10
73.0618255397343
 20
184.5568818989431
  0
VERTEX
  8
0
  6
CONTINUOUS
 62
     7
 10
73.03151613173402
 20
184.5203780918094
  0
VERTEX
  8
0
  6
CONTINUOUS
 62
     7
 10
73.00297233710455
 20
184.4824776968678
  0
VERTEX
  8
0
  6
CONTINUOUS
 62
     7
 10
72.97625841329803
 20
184.4432660350382
  0
VERTEX
  8
0
  6
CONTINUOUS
 62
     7
 10
72.95143449838315
 20
184.4028313791491
  0
VERTEX
  8
0
  6
CONTINUOUS
 62
     7
 10
72.92855647566296
 20
184.3612647552184
  0
VERTEX
  8
0
  6
CONTINUOUS
 62
     7
 10
72.90767584787108
 20
184.3186597375374
  0
VERTEX
  8
0
  6
CONTINUOUS
 62
     7
 10
72.88883962122932
 20
184.275112238017
  0
VERTEX
  8
0
  6
CONTINUOUS
 62
     7
 10
72.87209019962788
 20
184.230720290272
  0
VERTEX
  8
0
  6
CONTINUOUS
 62
     7
 10
72.85746528916616
 20
184.1855838289291
  0
VERTEX
  8
0
  6
CONTINUOUS
 62
     7
 10
72.84499781326923
 20
184.139804464655
  0
VERTEX
  8
0
  6
CONTINUOUS
 62
     7
 10
72.83471583857113
 20
184.0934852554122
  0
VERTEX
  8
0
  6
CONTINUOUS
 62
     7
 10
72.8266425117314
 20
184.0467304744554
  0
VERTEX
  8
0
  6
CONTINUOUS
 62
     7
 10
72.82079600732774
 20
183.9996453755934
  0
VERTEX
  8
0
  6
CONTINUOUS
 62
     7
 10
72.81718948694159
 20
183.952335956243
  0
SEQEND
  8
0
  6
CONTINUOUS
 62
     7
  0
LINE
  8
0
  6
CONTINUOUS
 62
     7
 10
73.81581902169616
 20
184.9
 11
78.18418097830381
 21
184.9
  0
LINE
  8
0
  6
CONTINUOUS
 62
     7
 10
72.81444667569825
 20
183.9
 11
72.8171894869416
 21
183.9523359562429
  0
LINE
  8
0
  6
CONTINUOUS
 62
     7
 10
77.37596662761896
 20
180.266697732242
 11
74.62403337238099
 21
180.266697732242
  0
ARC
  8
0
  6
CONTINUOUS
 62
     7
 10
79.85000000000001
 20
165.9
 40
1.000000000000001
 50
180.0000000000682
 51
270.0
  0
LINE
  8
0
  6
CONTINUOUS
 62
     7
 10
78.85000000000001
 20
168.3999999999989
 11
78.85000000000001
 21
165.8999999999988
  0
ARC
  8
0
  6
CONTINUOUS
 62
     7
 10
77.85
 20
168.4
 40
1.0
 50
359.9999999999339
 51
90.0000000000033
  0
LINE
  8
0
  6
CONTINUOUS
 62
     7
 10
77.84999999999995
 20
169.4
 11
76.50000000000006
 21
169.4
  0
LINE
  8
0
  6
CONTINUOUS
 62
     7
 10
76.50000000000003
 20
172.8751284267964
 11
76.50000000000006
 21
169.4
  0
LINE
  8
0
  6
CONTINUOUS
 62
     7
 10
79.92487157320369
 20
172.8751284267964
 11
76.50000000000003
 21
172.8751284267964
  0
LINE
  8
0
  6
CONTINUOUS
 62
     7
 10
79.92487157320369
 20
177.9248715732037
 11
79.92487157320369
 21
172.8751284267964
  0
LINE
  8
0
  6
CONTINUOUS
 62
     7
 10
96.00000000000007
 20
179.8999999999999
 11
83.50000000000003
 21
179.9
  0
LINE
  8
0
  6
CONTINUOUS
 62
     7
 10
96.00000000000007
 20
181.3999999999999
 11
96.00000000000007
 21
179.8999999999999
  0
LINE
  8
0
  6
CONTINUOUS
 62
     7
 10
105.1470477222743
 20
178.7470477222743
 11
108.5
 21
178.7470477222743
  0
LINE
  8
0
  6
CONTINUOUS
 62
     7
 10
104.4470477222743
 20
178.0470477222743
 11
105.1470477222743
 21
178.7470477222743
  0
LINE
  8
0
  6
CONTINUOUS
 62
     7
 10
90.25000000000003
 20
178.0470477222743
 11
104.4470477222743
 21
178.0470477222743
  0
LINE
  8
0
  6
CONTINUOUS
 62
     7
 10
91.93545196815319
 20
172.1
 11
90.25000000000001
 21
172.1
  0
LINE
  8
0
  6
CONTINUOUS
 62
     7
 10
81.05000000000001
 20
170.4
 11
91.93545196815319
 21
170.4
  0
ARC
  8
0
  6
CONTINUOUS
 62
     7
 10
81.05000000000001
 20
170.2
 40
0.2000000000000005
 50
90.0
 51
180.0000000000002
  0
LINE
  8
0
  6
CONTINUOUS
 62
     7
 10
80.85000000000002
 20
170.2
 11
80.85000000000002
 21
167.8
  0
ARC
  8
0
  6
CONTINUOUS
 62
     7
 10
81.05000000000001
 20
167.8
 40
0.1999999999999997
 50
180.0
 51
270.0000000000005
  0
ARC
  8
0
  6
CONTINUOUS
 62
     7
 10
81.75000000000014
 20
165.4
 40
0.5000000000000004
 50
270.0000000000002
 51
359.9999999998603
  0
LINE
  8
0
  6
CONTINUOUS
 62
     7
 10
79.85000000000001
 20
164.9
 11
81.75000000000014
 21
164.9
  0
LINE
  8
0
  6
CONTINUOUS
 62
     7
 10
83.49999999999999
 20
177.9
 11
83.49999999999999
 21
172.9
  0
LINE
  8
0
  6
CONTINUOUS
 62
     7
 10
89.0
 20
172.9
 11
83.49999999999999
 21
172.9
  0
LINE
  8
0
  6
CONTINUOUS
 62
     7
 10
89.0
 20
172.9
 11
89.0
 21
177.9
  0
LINE
  8
0
  6
CONTINUOUS
 62
     7
 10
89.0
 20
177.9
 11
83.49999999999999
 21
177.9
  0
LINE
  8
0
  6
CONTINUOUS
 62
     7
 10
82.25000000000011
 20
167.6
 11
82.25000000000011
 21
165.3999999999988
  0
LINE
  8
0
  6
CONTINUOUS
 62
     7
 10
81.05000000000001
 20
167.6
 11
82.2500000000001
 21
167.6
  0
LINE
  8
0
  6
CONTINUOUS
 62
     7
 10
100.1
 20
177.9
 11
104.3
 21
177.9
  0
LINE
  8
0
  6
CONTINUOUS
 62
     7
 10
100.1
 20
177.991632111803
 11
99.34852052772692
 21
177.9940190511662
  0
LINE
  8
0
  6
CONTINUOUS
 62
     7
 10
90.25000000000003
 20
178.0470477222743
 11
99.3485205277269
 21
177.9940190511662
  0
LINE
  8
0
  6
CONTINUOUS
 62
     7
 10
104.4470477222743
 20
178.0470477222743
 11
104.3
 21
177.9
  0
POLYLINE
  8
0
  6
CONTINUOUS
 62
     7
 66
     1
  0
VERTEX
  8
0
  6
CONTINUOUS
 62
     7
 10
90.25000000000003
 20
172.1000000000001
  0
VERTEX
  8
0
  6
CONTINUOUS
 62
     7
 10
92.20745681827002
 20
172.1159560231972
  0
VERTEX
  8
0
  6
CONTINUOUS
 62
     7
 10
94.08683057054078
 20
172.1631876060979
  0
SEQEND
  8
0
  6
CONTINUOUS
 62
     7
  0
LINE
  8
0
  6
CONTINUOUS
 62
     7
 10
93.43545196815319
 20
172.1326435564383
 11
94.08683057054077
 21
172.1631876060979
  0
LINE
  8
0
  6
CONTINUOUS
 62
     7
 10
91.93545196815319
 20
172.1
 11
93.43545196815319
 21
172.1326435564383
  0
LINE
  8
0
  6
CONTINUOUS
 62
     7
 10
96.18816942945925
 20
173.4000000000001
 11
96.18816942945924
 21
172.2617223111419
  0
LINE
  8
0
  6
CONTINUOUS
 62
     7
 10
96.18816942945926
 20
173.4000000000001
 11
94.08683057054076
 21
173.4000000000001
  0
LINE
  8
0
  6
CONTINUOUS
 62
     7
 10
94.08683057054078
 20
172.1631876060979
 11
94.08683057054076
 21
173.4000000000001
  0
LINE
  8
0
  6
CONTINUOUS
 62
     7
 10
99.34852052772692
 20
172.5935215301873
 11
99.34852052772692
 21
177.9940190511662
  0
POLYLINE
  8
0
  6
CONTINUOUS
 62
     7
 66
     1
  0
VERTEX
  8
0
  6
CONTINUOUS
 62
     7
 10
96.18816942945924
 20
172.261722311142
  0
VERTEX
  8
0
  6
CONTINUOUS
 62
     7
 10
97.47818409120084
 20
172.3565298456561
  0
VERTEX
  8
0
  6
CONTINUOUS
 62
     7
 10
98.54270424757607
 20
172.4682917814539
  0
VERTEX
  8
0
  6
CONTINUOUS
 62
     7
 10
99.34852052772695
 20
172.5935215301873
  0
SEQEND
  8
0
  6
CONTINUOUS
 62
     7
  0
LINE
  8
0
  6
CONTINUOUS
 62
     7
 10
70.50000000000003
 20
178.6161447054129
 11
70.50000000000003
 21
181.3999999999999
  0
LINE
  8
0
  6
CONTINUOUS
 62
     7
 10
109.5
 20
181.3999999999999
 11
109.5
 21
178.7383208544835
  0
LINE
  8
0
  6
CONTINUOUS
 62
     7
 10
108.5
 20
178.7470477222743
 11
109.5
 21
178.7383208544835
  0
LINE
  8
0
  6
CONTINUOUS
 62
     7
 10
109.5
 20
178.6
 11
109.5
 21
178.7383208544835
  0
LINE
  8
0
  6
CONTINUOUS
 62
     7
 10
109.5
 20
178.6
 11
105.0
 21
178.6
  0
POLYLINE
  8
0
  6
CONTINUOUS
 62
     7
 66
     1
  0
VERTEX
  8
0
  6
CONTINUOUS
 62
     7
 10
96.00000000000007
 20
181.3999999999999
  0
VERTEX
  8
0
  6
CONTINUOUS
 62
     7
 10
96.00060227189748
 20
181.4245338371637
  0
VERTEX
  8
0
  6
CONTINUOUS
 62
     7
 10
96.00240763666396
 20
181.4490085701647
  0
VERTEX
  8
0
  6
CONTINUOUS
 62
     7
 10
96.00541174501767
 20
181.4733652372276
  0
VERTEX
  8
0
  6
CONTINUOUS
 62
     7
 10
96.00960735979845
 20
181.497545161008
  0
VERTEX
  8
0
  6
CONTINUOUS
 62
     7
 10
96.0149843734028
 20
181.5214900899516
  0
VERTEX
  8
0
  6
CONTINUOUS
 62
     7
 10
96.02152983213396
 20
181.5451423386272
  0
VERTEX
  8
0
  6
CONTINUOUS
 62
     7
 10
96.02922796740854
 20
181.568444926696
  0
VERTEX
  8
0
  6
CONTINUOUS
 62
     7
 10
96.03806023374442
 20
181.5913417161825
  0
VERTEX
  8
0
  6
CONTINUOUS
 62
     7
 10
96.04800535343834
 20
181.6137775467151
  0
VERTEX
  8
0
  6
CONTINUOUS
 62
     7
 10
96.05903936782589
 20
181.635698368413
  0
VERTEX
  8
0
  6
CONTINUOUS
 62
     7
 10
96.07113569499994
 20
181.6570513720966
  0
VERTEX
  8
0
  6
CONTINUOUS
 62
     7
 10
96.0842651938488
 20
181.6777851165097
  0
VERTEX
  8
0
  6
CONTINUOUS
 62
     7
 10
96.09839623425974
 20
181.6978496522462
  0
VERTEX
  8
0
  6
CONTINUOUS
 62
     7
 10
96.11349477331869
 20
181.7171966420818
  0
VERTEX
  8
0
  6
CONTINUOUS
 62
     7
 10
96.12952443732259
 20
181.7357794774235
  0
VERTEX
  8
0
  6
CONTINUOUS
 62
     7
 10
96.1464466094068
 20
181.7535533905932
  0
VERTEX
  8
0
  6
CONTINUOUS
 62
     7
 10
96.16422052257656
 20
181.7704755626774
  0
VERTEX
  8
0
  6
CONTINUOUS
 62
     7
 10
96.18280335791825
 20
181.7865052266813
  0
VERTEX
  8
0
  6
CONTINUOUS
 62
     7
 10
96.20215034775386
 20
181.8016037657403
  0
VERTEX
  8
0
  6
CONTINUOUS
 62
     7
 10
96.22221488349027
 20
181.8157348061512
  0
VERTEX
  8
0
  6
CONTINUOUS
 62
     7
 10
96.24294862790344
 20
181.8288643050001
  0
VERTEX
  8
0
  6
CONTINUOUS
 62
     7
 10
96.26430163158707
 20
181.8409606321741
  0
VERTEX
  8
0
  6
CONTINUOUS
 62
     7
 10
96.28622245328492
 20
181.8519946465617
  0
VERTEX
  8
0
  6
CONTINUOUS
 62
     7
 10
96.30865828381751
 20
181.8619397662556
  0
VERTEX
  8
0
  6
CONTINUOUS
 62
     7
 10
96.33155507330396
 20
181.8707720325915
  0
VERTEX
  8
0
  6
CONTINUOUS
 62
     7
 10
96.35485766137283
 20
181.8784701678661
  0
VERTEX
  8
0
  6
CONTINUOUS
 62
     7
 10
96.37850991004842
 20
181.8850156265972
  0
VERTEX
  8
0
  6
CONTINUOUS
 62
     7
 10
96.402454838992
 20
181.8903926402016
  0
VERTEX
  8
0
  6
CONTINUOUS
 62
     7
 10
96.42663476277238
 20
181.8945882549823
  0
VERTEX
  8
0
  6
CONTINUOUS
 62
     7
 10
96.45099142983528
 20
181.8975923633361
  0
VERTEX
  8
0
  6
CONTINUOUS
 62
     7
 10
96.47546616283636
 20
181.8993977281025
  0
VERTEX
  8
0
  6
CONTINUOUS
 62
     7
 10
96.50000000000006
 20
181.8999999999999
  0
SEQEND
  8
0
  6
CONTINUOUS
 62
     7
  0
LINE
  8
0
  6
CONTINUOUS
 62
     7
 10
96.50000000000007
 20
181.8999999999999
 11
108.5
 21
181.8999999999999
  0
LINE
  8
0
  6
CONTINUOUS
 62
     7
 10
108.5
 20
181.8999999999999
 11
109.0
 21
181.8999999999999
  0
ARC
  8
0
  6
CONTINUOUS
 62
     7
 10
109.0
 20
181.3999999999999
 40
0.5000000000000004
 50
359.9999999999996
 51
89.99999999999962
  0
LINE
  8
0
  6
CONTINUOUS
 62
     7
 10
93.43545196815319
 20
170.4
 11
91.93545196815319
 21
170.4
  0
LINE
  8
0
  6
CONTINUOUS
 62
     7
 10
71.00000000000003
 20
181.8999999999999
 11
71.50000000000003
 21
181.8999999999999
  0
ARC
  8
0
  6
CONTINUOUS
 62
     7
 10
71.00000000000003
 20
181.3999999999999
 40
0.5000000000000004
 50
90.0
 51
180.0
  0
LINE
  8
0
  6
CONTINUOUS
 62
     7
 10
79.29036888286784
 20
181.8999999999999
 11
83.50000000000001
 21
181.8999999999999
  0
LINE
  8
0
  6
CONTINUOUS
 62
     7
 10
79.92487157320369
 20
172.8751284267964
 11
79.90000000000002
 21
172.9
  0
LINE
  8
0
  6
CONTINUOUS
 62
     7
 10
79.90000000000002
 20
172.9000000000001
 11
79.90000000000002
 21
177.9000000000001
  0
ARC
  8
0
  6
CONTINUOUS
 62
     7
 10
83.50000000000001
 20
181.3999999999999
 40
0.5000000000000004
 50
0.0
 51
90.00000000000009
  0
LINE
  8
0
  6
CONTINUOUS
 62
     7
 10
71.50000000000003
 20
181.8999999999999
 11
72.70963111713216
 21
181.8999999999999
  0
LINE
  8
0
  6
CONTINUOUS
 62
     7
 10
77.00000000000001
 20
172.9000000000001
 11
76.50000000000001
 21
172.9000000000001
  0
POLYLINE
  8
0
  6
CONTINUOUS
 62
     7
 66
     1
  0
VERTEX
  8
0
  6
CONTINUOUS
 62
     7
 10
77.00000000000001
 20
172.9000000000001
  0
VERTEX
  8
0
  6
CONTINUOUS
 62
     7
 10
77.0096073597984
 20
172.8991487686898
  0
VERTEX
  8
0
  6
CONTINUOUS
 62
     7
 10
77.03806023374437
 20
172.8983302497215
  0
VERTEX
  8
0
  6
CONTINUOUS
 62
     7
 10
77.08426519384874
 20
172.8975758983199
  0
VERTEX
  8
0
  6
CONTINUOUS
 62
     7
 10
77.14644660940674
 20
172.8969147037865
  0
VERTEX
  8
0
  6
CONTINUOUS
 62
     7
 10
77.22221488349021
 20
172.8963720754563
  0
VERTEX
  8
0
  6
CONTINUOUS
 62
     7
 10
77.30865828381746
 20
172.8959688662317
  0
VERTEX
  8
0
  6
CONTINUOUS
 62
     7
 10
77.40245483899194
 20
172.8957205712172
  0
VERTEX
  8
0
  6
CONTINUOUS
 62
     7
 10
77.50000000000001
 20
172.8956367322509
  0
VERTEX
  8
0
  6
CONTINUOUS
 62
     7
 10
77.59754516100807
 20
172.8957205712172
  0
VERTEX
  8
0
  6
CONTINUOUS
 62
     7
 10
77.69134171618255
 20
172.8959688662317
  0
VERTEX
  8
0
  6
CONTINUOUS
 62
     7
 10
77.77778511650982
 20
172.8963720754563
  0
VERTEX
  8
0
  6
CONTINUOUS
 62
     7
 10
77.85355339059329
 20
172.8969147037865
  0
VERTEX
  8
0
  6
CONTINUOUS
 62
     7
 10
77.91573480615128
 20
172.8975758983199
  0
VERTEX
  8
0
  6
CONTINUOUS
 62
     7
 10
77.96193976625565
 20
172.8983302497215
  0
VERTEX
  8
0
  6
CONTINUOUS
 62
     7
 10
77.99039264020163
 20
172.8991487686898
  0
VERTEX
  8
0
  6
CONTINUOUS
 62
     7
 10
78.00000000000001
 20
172.9000000000001
  0
SEQEND
  8
0
  6
CONTINUOUS
 62
     7
  0
LINE
  8
0
  6
CONTINUOUS
 62
     7
 10
79.90000000000002
 20
172.9000000000001
 11
78.00000000000001
 21
172.9000000000001
  0
LINE
  8
0
  6
CONTINUOUS
 62
     7
 10
76.50000000000003
 20
172.8751284267964
 11
76.50000000000003
 21
172.9
  0
LINE
  8
0
  6
CONTINUOUS
 62
     7
 10
84.00000000000001
 20
181.3999999999999
 11
84.00000000000001
 21
179.8999999999999
  0
LINE
  8
0
  6
CONTINUOUS
 62
     7
 10
75.67818283052307
 20
177.9218171694769
 11
74.9781828305231
 21
178.6218171694769
  0
LINE
  8
0
  6
CONTINUOUS
 62
     7
 10
98.95
 20
167.6
 11
97.74999999999999
 21
167.6
  0
POLYLINE
  8
0
  6
CONTINUOUS
 62
     7
 66
     1
  0
VERTEX
  8
0
  6
CONTINUOUS
 62
     7
 10
99.15
 20
167.8
  0
VERTEX
  8
0
  6
CONTINUOUS
 62
     7
 10
99.12154572200006
 20
167.6971794511614
  0
VERTEX
  8
0
  6
CONTINUOUS
 62
     7
 10
99.0442793473652
 20
167.6236157471303
  0
VERTEX
  8
0
  6
CONTINUOUS
 62
     7
 10
98.95
 20
167.6
  0
SEQEND
  8
0
  6
CONTINUOUS
 62
     7
  0
LINE
  8
0
  6
CONTINUOUS
 62
     7
 10
99.15
 20
170.2
 11
99.15
 21
167.8
  0
POLYLINE
  8
0
  6
CONTINUOUS
 62
     7
 66
     1
  0
VERTEX
  8
0
  6
CONTINUOUS
 62
     7
 10
98.95
 20
170.4
  0
VERTEX
  8
0
  6
CONTINUOUS
 62
     7
 10
99.05282054883865
 20
170.3715457220001
  0
VERTEX
  8
0
  6
CONTINUOUS
 62
     7
 10
99.12638425286968
 20
170.2942793473652
  0
VERTEX
  8
0
  6
CONTINUOUS
 62
     7
 10
99.15
 20
170.2
  0
SEQEND
  8
0
  6
CONTINUOUS
 62
     7
  0
LINE
  8
0
  6
CONTINUOUS
 62
     7
 10
96.18816942945924
 20
172.2617223111419
 11
102.0
 21
172.5342471391124
  0
ARC
  8
0
  6
CONTINUOUS
 62
     7
 10
102.1500000000001
 20
168.4
 40
1.000000000000001
 50
98.62692655868369
 51
180.0
  0
LINE
  8
0
  6
CONTINUOUS
 62
     7
 10
101.1500000000001
 20
168.4
 11
101.1500000000001
 21
165.9
  0
ARC
  8
0
  6
CONTINUOUS
 62
     7
 10
100.1500000000001
 20
165.9
 40
1.000000000000001
 50
269.9999999999999
 51
0.0
  0
LINE
  8
0
  6
CONTINUOUS
 62
     7
 10
98.25
 20
164.9
 11
100.1500000000001
 21
164.9
  0
POLYLINE
  8
0
  6
CONTINUOUS
 62
     7
 66
     1
  0
VERTEX
  8
0
  6
CONTINUOUS
 62
     7
 10
97.75
 20
165.4
  0
VERTEX
  8
0
  6
CONTINUOUS
 62
     7
 10
97.7506022718974
 20
165.3754661628363
  0
VERTEX
  8
0
  6
CONTINUOUS
 62
     7
 10
97.7524076366639
 20
165.3509914298352
  0
VERTEX
  8
0
  6
CONTINUOUS
 62
     7
 10
97.7554117450176
 20
165.3266347627723
  0
VERTEX
  8
0
  6
CONTINUOUS
 62
     7
 10
97.75960735979838
 20
165.3024548389919
  0
VERTEX
  8
0
  6
CONTINUOUS
 62
     7
 10
97.76498437340273
 20
165.2785099100484
  0
VERTEX
  8
0
  6
CONTINUOUS
 62
     7
 10
97.77152983213388
 20
165.2548576613728
  0
VERTEX
  8
0
  6
CONTINUOUS
 62
     7
 10
97.77922796740847
 20
165.2315550733039
  0
VERTEX
  8
0
  6
CONTINUOUS
 62
     7
 10
97.78806023374435
 20
165.2086582838175
  0
VERTEX
  8
0
  6
CONTINUOUS
 62
     7
 10
97.79800535343827
 20
165.1862224532849
  0
VERTEX
  8
0
  6
CONTINUOUS
 62
     7
 10
97.8090393678258
 20
165.164301631587
  0
VERTEX
  8
0
  6
CONTINUOUS
 62
     7
 10
97.82113569499987
 20
165.1429486279034
  0
VERTEX
  8
0
  6
CONTINUOUS
 62
     7
 10
97.83426519384872
 20
165.1222148834902
  0
VERTEX
  8
0
  6
CONTINUOUS
 62
     7
 10
97.84839623425967
 20
165.1021503477538
  0
VERTEX
  8
0
  6
CONTINUOUS
 62
     7
 10
97.86349477331862
 20
165.0828033579182
  0
VERTEX
  8
0
  6
CONTINUOUS
 62
     7
 10
97.87952443732252
 20
165.0642205225765
  0
VERTEX
  8
0
  6
CONTINUOUS
 62
     7
 10
97.89644660940671
 20
165.0464466094067
  0
VERTEX
  8
0
  6
CONTINUOUS
 62
     7
 10
97.91422052257649
 20
165.0295244373226
  0
VERTEX
  8
0
  6
CONTINUOUS
 62
     7
 10
97.93280335791817
 20
165.0134947733186
  0
VERTEX
  8
0
  6
CONTINUOUS
 62
     7
 10
97.95215034775379
 20
164.9983962342597
  0
VERTEX
  8
0
  6
CONTINUOUS
 62
     7
 10
97.9722148834902
 20
164.9842651938487
  0
VERTEX
  8
0
  6
CONTINUOUS
 62
     7
 10
97.99294862790339
 20
164.9711356949999
  0
VERTEX
  8
0
  6
CONTINUOUS
 62
     7
 10
98.014301631587
 20
164.9590393678259
  0
VERTEX
  8
0
  6
CONTINUOUS
 62
     7
 10
98.03622245328486
 20
164.9480053534383
  0
VERTEX
  8
0
  6
CONTINUOUS
 62
     7
 10
98.05865828381745
 20
164.9380602337444
  0
VERTEX
  8
0
  6
CONTINUOUS
 62
     7
 10
98.08155507330389
 20
164.9292279674085
  0
VERTEX
  8
0
  6
CONTINUOUS
 62
     7
 10
98.10485766137276
 20
164.9215298321339
  0
VERTEX
  8
0
  6
CONTINUOUS
 62
     7
 10
98.12850991004836
 20
164.9149843734027
  0
VERTEX
  8
0
  6
CONTINUOUS
 62
     7
 10
98.15245483899193
 20
164.9096073597984
  0
VERTEX
  8
0
  6
CONTINUOUS
 62
     7
 10
98.17663476277231
 20
164.9054117450176
  0
VERTEX
  8
0
  6
CONTINUOUS
 62
     7
 10
98.20099142983521
 20
164.9024076366639
  0
VERTEX
  8
0
  6
CONTINUOUS
 62
     7
 10
98.22546616283628
 20
164.9006022718974
  0
VERTEX
  8
0
  6
CONTINUOUS
 62
     7
 10
98.25
 20
164.9
  0
SEQEND
  8
0
  6
CONTINUOUS
 62
     7
  0
LINE
  8
0
  6
CONTINUOUS
 62
     7
 10
97.75
 20
165.4
 11
97.75
 21
167.6
  0
LINE
  8
0
  6
CONTINUOUS
 62
     7
 10
98.95
 20
170.4
 11
93.4354519681532
 21
170.4
  0
ARC
  8
0
  6
CONTINUOUS
 62
     7
 10
101.7827230812092
 20
181.0248664899924
 40
8.49339897926489
 50
271.4658923599795
 51
281.1756231440468
  0
LINE
  8
0
  6
CONTINUOUS
 62
     7
 10
103.4288880213598
 20
172.6925218493288
 11
103.5
 21
172.7452584050091
  0
LINE
  8
0
  6
CONTINUOUS
 62
     7
 10
100.1
 20
172.6157360406092
 11
99.34852052772692
 21
172.5935215301873
  0
LINE
  8
0
  6
CONTINUOUS
 62
     7
 10
100.1
 20
172.8315578461729
 11
103.5
 21
172.8315578461729
  0
LINE
  8
0
  6
CONTINUOUS
 62
     7
 10
103.5
 20
172.8315578461729
 11
103.5
 21
172.7452584050091
  0
LINE
  8
0
  6
CONTINUOUS
 62
     7
 10
61.0
 20
179.9
 11
63.5
 21
179.9
  0
ARC
  8
0
  6
CONTINUOUS
 62
     7
 10
60.99999999999999
 20
179.4
 40
0.5000000000000004
 50
89.99999999999962
 51
180.0
  0
LINE
  8
0
  6
CONTINUOUS
 62
     7
 10
63.5
 20
179.9
 11
70.5
 21
179.9
  0
LINE
  8
0
  6
CONTINUOUS
 62
     7
 10
60.5
 20
178.6
 11
63.5
 21
178.6
  0
LINE
  8
0
  6
CONTINUOUS
 62
     7
 10
60.5
 20
178.6
 11
60.5
 21
179.4
  0
LINE
  8
0
  6
CONTINUOUS
 62
     7
 10
70.50000000000318
 20
178.6
 11
63.5
 21
178.6
  0
LINE
  8
0
  6
CONTINUOUS
 62
     7
 10
66.2403623677696
 20
181.0043632677491
 11
66.25000000000023
 21
179.9000000000001
  0
LINE
  8
0
  6
CONTINUOUS
 62
     7
 10
64.75000000000023
 20
179.9
 11
64.75963763223083
 21
181.0043632677491
  0
ARC
  8
0
  6
CONTINUOUS
 62
     7
 10
65.74038140623752
 20
181.0
 40
0.5000000000000014
 50
0.5000000000000812
 51
90.0
  0
LINE
  8
0
  6
CONTINUOUS
 62
     7
 10
65.25961859376292
 20
181.5
 11
65.74038140623752
 21
181.5
  0
ARC
  8
0
  6
CONTINUOUS
 62
     7
 10
65.25961859376292
 20
181.0
 40
0.5000000000000004
 50
90.0
 51
179.5000000000004
  0
LINE
  8
0
  6
CONTINUOUS
 62
     7
 10
103.5
 20
172.7452584050091
 11
103.5000000000001
 21
169.4
  0
LINE
  8
0
  6
CONTINUOUS
 62
     7
 10
103.5
 20
169.4
 11
102.1500000000001
 21
169.4
  0
LINE
  8
0
  6
CONTINUOUS
 62
     7
 10
102.0
 20
169.3886859966643
 11
102.1500000000001
 21
169.4
  0
LINE
  8
0
  6
CONTINUOUS
 62
     7
 10
100.1
 20
177.991632111803
 11
100.1
 21
172.6157360406092
  0
ARC
  8
0
  6
CONTINUOUS
 62
     7
 10
81.49999999999999
 20
167.3
 40
0.5000000000000004
 50
36.86989764584621
 51
143.1301023541538
  0
POLYLINE
  8
0
  6
CONTINUOUS
 62
     7
 66
     1
  0
VERTEX
  8
0
  6
CONTINUOUS
 62
     7
 10
102.0
 20
172.9000000000001
  0
VERTEX
  8
0
  6
CONTINUOUS
 62
     7
 10
102.0096073597984
 20
172.8991487686898
  0
VERTEX
  8
0
  6
CONTINUOUS
 62
     7
 10
102.0380602337443
 20
172.8983302497215
  0
VERTEX
  8
0
  6
CONTINUOUS
 62
     7
 10
102.0842651938487
 20
172.8975758983199
  0
VERTEX
  8
0
  6
CONTINUOUS
 62
     7
 10
102.1464466094067
 20
172.8969147037865
  0
VERTEX
  8
0
  6
CONTINUOUS
 62
     7
 10
102.2222148834902
 20
172.8963720754563
  0
VERTEX
  8
0
  6
CONTINUOUS
 62
     7
 10
102.3086582838174
 20
172.8959688662317
  0
VERTEX
  8
0
  6
CONTINUOUS
 62
     7
 10
102.4024548389919
 20
172.8957205712172
  0
VERTEX
  8
0
  6
CONTINUOUS
 62
     7
 10
102.5
 20
172.8956367322509
  0
VERTEX
  8
0
  6
CONTINUOUS
 62
     7
 10
102.597545161008
 20
172.8957205712172
  0
VERTEX
  8
0
  6
CONTINUOUS
 62
     7
 10
102.6913417161825
 20
172.8959688662317
  0
VERTEX
  8
0
  6
CONTINUOUS
 62
     7
 10
102.7777851165098
 20
172.8963720754563
  0
VERTEX
  8
0
  6
CONTINUOUS
 62
     7
 10
102.8535533905932
 20
172.8969147037865
  0
VERTEX
  8
0
  6
CONTINUOUS
 62
     7
 10
102.9157348061512
 20
172.8975758983199
  0
VERTEX
  8
0
  6
CONTINUOUS
 62
     7
 10
102.9619397662556
 20
172.8983302497215
  0
VERTEX
  8
0
  6
CONTINUOUS
 62
     7
 10
102.9903926402016
 20
172.8991487686898
  0
VERTEX
  8
0
  6
CONTINUOUS
 62
     7
 10
103.0
 20
172.9000000000001
  0
SEQEND
  8
0
  6
CONTINUOUS
 62
     7
  0
LINE
  8
0
  6
CONTINUOUS
 62
     7
 10
103.5
 20
172.9000000000001
 11
103.0
 21
172.9000000000001
  0
LINE
  8
0
  6
CONTINUOUS
 62
     7
 10
102.0
 20
172.9000000000001
 11
100.1
 21
172.9000000000001
  0
LINE
  8
0
  6
CONTINUOUS
 62
     7
 10
103.5
 20
172.8315578461729
 11
103.5
 21
172.9000000000001
  0
ARC
  8
0
  6
CONTINUOUS
 62
     7
 10
98.49999999999997
 20
167.3
 40
0.5000000000000024
 50
36.86989764584814
 51
143.1301023541525
  0
LINE
  8
0
  6
CONTINUOUS
 62
     7
 10
107.2903688828678
 20
181.8999999999999
 11
107.1828105130584
 21
183.9523359562429
  0
LINE
  8
0
  6
CONTINUOUS
 62
     7
 10
100.8171894869416
 20
183.952335956243
 11
100.7096311171322
 21
181.8999999999999
  0
LINE
  8
0
  6
CONTINUOUS
 62
     7
 10
89.5
 20
169.4
 11
97.75
 21
169.3999999999989
  0
ARC
  8
0
  6
CONTINUOUS
 62
     7
 10
89.5
 20
169.9
 40
0.5000000000000004
 50
180.0
 51
269.9999999999999
  0
LINE
  8
0
  6
CONTINUOUS
 62
     7
 10
89.0
 20
169.9
 11
89.0
 21
170.4000000000001
  0
LINE
  8
0
  6
CONTINUOUS
 62
     7
 10
97.75
 20
169.3999999999989
 11
97.75
 21
167.6
  0
POLYLINE
  8
0
  6
CONTINUOUS
 62
     7
 66
     1
  0
VERTEX
  8
0
  6
CONTINUOUS
 62
     7
 10
106.1841809783038
 20
184.9
  0
VERTEX
  8
0
  6
CONTINUOUS
 62
     7
 10
106.2254580128375
 20
184.8991471669453
  0
VERTEX
  8
0
  6
CONTINUOUS
 62
     7
 10
106.2666444320817
 20
184.8965940892816
  0
VERTEX
  8
0
  6
CONTINUOUS
 62
     7
 10
106.3080134871038
 20
184.8923025494697
  0
VERTEX
  8
0
  6
CONTINUOUS
 62
     7
 10
106.3491078858595
 20
184.8863057919145
  0
VERTEX
  8
0
  6
CONTINUOUS
 62
     7
 10
106.3890021441973
 20
184.8787973564189
  0
VERTEX
  8
0
  6
CONTINUOUS
 62
     7
 10
106.4284874772178
 20
184.8696959855446
  0
VERTEX
  8
0
  6
CONTINUOUS
 62
     7
 10
106.4674453515184
 20
184.8590418629379
  0
VERTEX
  8
0
  6
CONTINUOUS
 62
     7
 10
106.5065341883911
 20
184.8466174096485
  0
VERTEX
  8
0
  6
CONTINUOUS
 62
     7
 10
106.5449642997788
 20
184.8326475748693
  0
VERTEX
  8
0
  6
CONTINUOUS
 62
     7
 10
106.5826265116593
 20
184.8171919956852
  0
VERTEX
  8
0
  6
CONTINUOUS
 62
     7
 10
106.625594705987
 20
184.7973002527992
  0
VERTEX
  8
0
  6
CONTINUOUS
 62
     7
 10
106.6673823394754
 20
184.7755057075962
  0
VERTEX
  8
0
  6
CONTINUOUS
 62
     7
 10
106.7078484817575
 20
184.7519227346579
  0
VERTEX
  8
0
  6
CONTINUOUS
 62
     7
 10
106.7478210516153
 20
184.7260171678022
  0
VERTEX
  8
0
  6
CONTINUOUS
 62
     7
 10
106.786304562784
 20
184.6983994320512
  0
VERTEX
  8
0
  6
CONTINUOUS
 62
     7
 10
106.8231868021891
 20
184.66920189615
  0
VERTEX
  8
0
  6
CONTINUOUS
 62
     7
 10
106.8540098705416
 20
184.642511718823
  0
VERTEX
  8
0
  6
CONTINUOUS
 62
     7
 10
106.8835794758533
 20
184.6147249230554
  0
VERTEX
  8
0
  6
CONTINUOUS
 62
     7
 10
106.9118455524421
 20
184.5859290020997
  0
VERTEX
  8
0
  6
CONTINUOUS
 62
     7
 10
106.9387580346262
 20
184.5562114492085
  0
VERTEX
  8
0
  6
CONTINUOUS
 62
     7
 10
106.9733854547052
 20
184.5141250441328
  0
VERTEX
  8
0
  6
CONTINUOUS
 62
     7
 10
107.0054647600028
 20
184.4705139414187
  0
VERTEX
  8
0
  6
CONTINUOUS
 62
     7
 10
107.0349199027469
 20
184.4255885105646
  0
VERTEX
  8
0
  6
CONTINUOUS
 62
     7
 10
107.058842887807
 20
184.3847260502137
  0
VERTEX
  8
0
  6
CONTINUOUS
 62
     7
 10
107.080705139212
 20
184.3429802459705
  0
VERTEX
  8
0
  6
CONTINUOUS
 62
     7
 10
107.1004808655885
 20
184.3004836814169
  0
VERTEX
  8
0
  6
CONTINUOUS
 62
     7
 10
107.1181442755629
 20
184.2573689401346
  0
VERTEX
  8
0
  6
CONTINUOUS
 62
     7
 10
107.1341438052768
 20
184.2123526224568
  0
VERTEX
  8
0
  6
CONTINUOUS
 62
     7
 10
107.1479312813763
 20
184.1667840944651
  0
VERTEX
  8
0
  6
CONTINUOUS
 62
     7
 10
107.1594984224636
 20
184.1207924541224
  0
VERTEX
  8
0
  6
CONTINUOUS
 62
     7
 10
107.1688369471407
 20
184.0745067993915
  0
VERTEX
  8
0
  6
CONTINUOUS
 62
     7
 10
107.1737423388458
 20
184.0441117478848
  0
VERTEX
  8
0
  6
CONTINUOUS
 62
     7
 10
107.1777038102677
 20
184.0136326641707
  0
VERTEX
  8
0
  6
CONTINUOUS
 62
     7
 10
107.1807301344186
 20
183.9830040066963
  0
VERTEX
  8
0
  6
CONTINUOUS
 62
     7
 10
107.1828105130584
 20
183.952335956243
  0
SEQEND
  8
0
  6
CONTINUOUS
 62
     7
  0
POLYLINE
  8
0
  6
CONTINUOUS
 62
     7
 66
     1
  0
VERTEX
  8
0
  6
CONTINUOUS
 62
     7
 10
100.8171894869416
 20
183.952335956243
  0
VERTEX
  8
0
  6
CONTINUOUS
 62
     7
 10
100.8212353283518
 20
184.0039205216727
  0
VERTEX
  8
0
  6
CONTINUOUS
 62
     7
 10
100.8279655512898
 20
184.0553761348336
  0
VERTEX
  8
0
  6
CONTINUOUS
 62
     7
 10
100.8373811869367
 20
184.1065415297496
  0
VERTEX
  8
0
  6
CONTINUOUS
 62
     7
 10
100.8497619498706
 20
184.158319556912
  0
VERTEX
  8
0
  6
CONTINUOUS
 62
     7
 10
100.8649589932616
 20
184.209613487038
  0
VERTEX
  8
0
  6
CONTINUOUS
 62
     7
 10
100.8829585556547
 20
184.260237908745
  0
VERTEX
  8
0
  6
CONTINUOUS
 62
     7
 10
100.9010976309606
 20
184.3040752988816
  0
VERTEX
  8
0
  6
CONTINUOUS
 62
     7
 10
100.9214254410642
 20
184.3472651897116
  0
VERTEX
  8
0
  6
CONTINUOUS
 62
     7
 10
100.9439141451496
 20
184.3896673432227
  0
VERTEX
  8
0
  6
CONTINUOUS
 62
     7
 10
100.9685359024011
 20
184.4311415214025
  0
VERTEX
  8
0
  6
CONTINUOUS
 62
     7
 10
100.9962824979939
 20
184.4730162815224
  0
VERTEX
  8
0
  6
CONTINUOUS
 62
     7
 10
101.0263390385252
 20
184.5137587477035
  0
VERTEX
  8
0
  6
CONTINUOUS
 62
     7
 10
101.05863714571
 20
184.5531949183199
  0
VERTEX
  8
0
  6
CONTINUOUS
 62
     7
 10
101.0931084412633
 20
184.5911507917455
  0
VERTEX
  8
0
  6
CONTINUOUS
 62
     7
 10
101.1286191965668
 20
184.626464063811
  0
VERTEX
  8
0
  6
CONTINUOUS
 62
     7
 10
101.1661426298495
 20
184.6602067262968
  0
VERTEX
  8
0
  6
CONTINUOUS
 62
     7
 10
101.2055713405798
 20
184.6922106839043
  0
VERTEX
  8
0
  6
CONTINUOUS
 62
     7
 10
101.2371718364462
 20
184.7155740569201
  0
VERTEX
  8
0
  6
CONTINUOUS
 62
     7
 10
101.2698664767346
 20
184.7378093428247
  0
VERTEX
  8
0
  6
CONTINUOUS
 62
     7
 10
101.3035837481529
 20
184.758841477458
  0
VERTEX
  8
0
  6
CONTINUOUS
 62
     7
 10
101.3382521374088
 20
184.77859539666
  0
VERTEX
  8
0
  6
CONTINUOUS
 62
     7
 10
101.3731208213256
 20
184.7966689150192
  0
VERTEX
  8
0
  6
CONTINUOUS
 62
     7
 10
101.4088472126681
 20
184.8134389936986
  0
VERTEX
  8
0
  6
CONTINUOUS
 62
     7
 10
101.4453434005355
 20
184.8288421901094
  0
VERTEX
  8
0
  6
CONTINUOUS
 62
     7
 10
101.4832224279033
 20
184.843067141233
  0
VERTEX
  8
0
  6
CONTINUOUS
 62
     7
 10
101.5218056649561
 20
184.8557992888202
  0
VERTEX
  8
0
  6
CONTINUOUS
 62
     7
 10
101.5609826287876
 20
184.8669841843843
  0
VERTEX
  8
0
  6
CONTINUOUS
 62
     7
 10
101.6020818283683
 20
184.8768886889168
  0
VERTEX
  8
0
  6
CONTINUOUS
 62
     7
 10
101.6436922832514
 20
184.8850723271758
  0
VERTEX
  8
0
  6
CONTINUOUS
 62
     7
 10
101.6856752342039
 20
184.8914951308896
  0
VERTEX
  8
0
  6
CONTINUOUS
 62
     7
 10
101.7288714987575
 20
184.8962100668211
  0
VERTEX
  8
0
  6
CONTINUOUS
 62
     7
 10
101.7723054505745
 20
184.8990500188673
  0
VERTEX
  8
0
  6
CONTINUOUS
 62
     7
 10
101.8158190216962
 20
184.9
  0
SEQEND
  8
0
  6
CONTINUOUS
 62
     7
  0
LINE
  8
0
  6
CONTINUOUS
 62
     7
 10
101.8158190216962
 20
184.9
 11
106.1841809783038
 21
184.9
  0
LINE
  8
0
  6
CONTINUOUS
 62
     7
 10
103.3401121232075
 20
185.1
 11
103.024790244895
 21
185.1
  0
LINE
  8
0
  6
CONTINUOUS
 62
     7
 10
103.3401121232075
 20
184.9
 11
103.3401121232075
 21
185.1
  0
LINE
  8
0
  6
CONTINUOUS
 62
     7
 10
102.1292765558297
 20
184.9
 11
102.1292765558297
 21
185.1
  0
LINE
  8
0
  6
CONTINUOUS
 62
     7
 10
102.1292765558297
 20
185.1
 11
102.83083326341
 21
185.1
  0
LINE
  8
0
  6
CONTINUOUS
 62
     7
 10
102.83083326341
 20
184.9
 11
102.83083326341
 21
185.1
  0
LINE
  8
0
  6
CONTINUOUS
 62
     7
 10
102.83083326341
 20
185.1
 11
103.024790244895
 21
185.1
  0
LINE
  8
0
  6
CONTINUOUS
 62
     7
 10
103.024790244895
 20
184.9
 11
103.024790244895
 21
185.1
  0
LINE
  8
0
  6
CONTINUOUS
 62
     7
 10
104.2389411576425
 20
184.9
 11
104.2389411576425
 21
185.1
  0
LINE
  8
0
  6
CONTINUOUS
 62
     7
 10
104.2389411576425
 20
185.1
 11
104.3726885587925
 21
185.1
  0
LINE
  8
0
  6
CONTINUOUS
 62
     7
 10
104.3726885587925
 20
184.9
 11
104.3726885587925
 21
185.1
  0
LINE
  8
0
  6
CONTINUOUS
 62
     7
 10
104.130958565515
 20
184.9
 11
104.130958565515
 21
185.1
  0
LINE
  8
0
  6
CONTINUOUS
 62
     7
 10
104.130958565515
 20
185.1
 11
104.2389411576425
 21
185.1
  0
LINE
  8
0
  6
CONTINUOUS
 62
     7
 10
104.3726885587925
 20
185.1
 11
104.470687535475
 21
185.1
  0
LINE
  8
0
  6
CONTINUOUS
 62
     7
 10
104.470687535475
 20
184.9
 11
104.470687535475
 21
185.1
  0
LINE
  8
0
  6
CONTINUOUS
 62
     7
 10
104.6207823567575
 20
184.9
 11
104.6207823567575
 21
185.1
  0
LINE
  8
0
  6
CONTINUOUS
 62
     7
 10
104.470687535475
 20
185.1
 11
104.6207823567575
 21
185.1
  0
LINE
  8
0
  6
CONTINUOUS
 62
     7
 10
104.6207823567575
 20
185.1
 11
104.98659411997
 21
185.1
  0
LINE
  8
0
  6
CONTINUOUS
 62
     7
 10
103.5107378821825
 20
184.9
 11
103.5107378821825
 21
185.1
  0
LINE
  8
0
  6
CONTINUOUS
 62
     7
 10
103.5107378821825
 20
185.1
 11
103.3401121232075
 21
185.1
  0
LINE
  8
0
  6
CONTINUOUS
 62
     7
 10
103.887942279525
 20
185.1
 11
104.130958565515
 21
185.1
  0
LINE
  8
0
  6
CONTINUOUS
 62
     7
 10
103.579055532035
 20
185.1
 11
103.887942279525
 21
185.1
  0
LINE
  8
0
  6
CONTINUOUS
 62
     7
 10
104.98659411997
 20
184.9
 11
104.98659411997
 21
185.1
  0
LINE
  8
0
  6
CONTINUOUS
 62
     7
 10
105.1691667365925
 20
184.9
 11
105.1691667365925
 21
185.1
  0
LINE
  8
0
  6
CONTINUOUS
 62
     7
 10
104.98659411997
 20
185.1
 11
105.1691667365925
 21
185.1
  0
LINE
  8
0
  6
CONTINUOUS
 62
     7
 10
105.8707234441723
 20
184.9
 11
105.8707234441723
 21
185.1
  0
LINE
  8
0
  6
CONTINUOUS
 62
     7
 10
105.1691667365925
 20
185.1
 11
105.8707234441723
 21
185.1
  0
LINE
  8
0
  6
CONTINUOUS
 62
     7
 10
103.5107378821825
 20
185.1
 11
103.579055532035
 21
185.1
  0
ARC
  8
0
  6
CONTINUOUS
 62
     7
 10
77.50000000000001
 20
172.9000000000001
 40
0.5000000000000004
 50
359.9999999999952
 51
180.0000000000048
  0
ARC
  8
0
  6
CONTINUOUS
 62
     7
 10
102.5
 20
172.9000000000001
 40
0.5000000000000004
 50
359.9999999999952
 51
180.0000000000048
  0
LINE
  8
0
  6
CONTINUOUS
 62
     7
 10
103.579055532035
 20
185.1
 11
103.579055532035
 21
184.9
  0
ENDBLK
  8
0
  0
ENDSEC
  0
SECTION
  2
ENTITIES
  0
INSERT
  8
0
  6
CONTINUOUS
 62
     7
  2
D_FRAME_VIEW_1872
 10
0.0
 20
0.0
 30
0.0
  0
INSERT
  8
0
  6
CONTINUOUS
 62
     7
  2
D_FRAME_VIEW_1995
 10
0.0
 20
0.0
 30
0.0
  0
INSERT
  8
0
  6
CONTINUOUS
 62
     7
  2
D_FRAME_VIEW_1506
 10
0.0
 20
0.0
 30
0.0
  0
TEXT
  8
0
  6
CONTINUOUS
 62
     7
 10
140.6537607852945
 20
208.3284200325122
 40
3.0
  1
MN-BK
  0
LINE
  8
0
  6
CENTER
 62
     1
 10
90.00000000000003
 20
160.0
 11
90.00000000000003
 21
190.0
  0
LINE
  8
0
  6
CENTER
 62
     1
 10
150.0
 20
160.0
 11
150.0
 21
190.0
  0
LINE
  8
0
  6
CENTER
 62
     1
 10
55.00000000000001
 20
225.0
 11
115.0
 21
225.0
  0
LINE
  8
0
  6
CENTER
 62
     1
 10
90.0
 20
217.5697768639403
 11
90.0
 21
232.4302231360597
  0
ENDSEC
  0
EOF
