  0
SECTION
  2
HEADER
  9
$ACADVER
  1
AC1004
  9
$INSBASE
 10
0.0
 20
0.0
  9
$EXTMIN
 10
55.00000000000001
 20
160.0
  9
$EXTMAX
 10
170.0
 20
245.0
  9
$LIMMIN
 10
0.0
 20
0.0
  9
$LIMMAX
 10
12.0
 20
9.0
  9
$ORTHOMODE
 70
     0
  9
$REGENMODE
 70
     1
  9
$FILLMODE
 70
     1
  9
$QTEXTMODE
 70
     0
  9
$DRAGMODE
 70
     2
  9
$LTSCALE
 40
1.0
  9
$OSMODE
 70
    37
  9
$ATTMODE
 70
     1
  9
$TEXTSIZE
 40
0.2
  9
$TRACEWID
 40
0.05
  9
$TEXTSTYLE
  7
STANDARD
  9
$CLAYER
  8
0
  9
$CELTYPE
  6
BYLAYER
  9
$CECOLOR
 62
   256
  9
$DIMSCALE
 40
1.0
  9
$DIMASZ
 40
3.0
  9
$DIMEXO
 40
0.0625
  9
$DIMDLI
 40
0.38
  9
$DIMRND
 40
0.0
  9
$DIMDLE
 40
0.0
  9
$DIMEXE
 40
1.5
  9
$DIMTP
 40
0.0
  9
$DIMTM
 40
0.0
  9
$DIMTXT
 40
3.0
  9
$DIMCEN
 40
0.09
  9
$DIMTSZ
 40
0.0
  9
$DIMTOL
 70
     0
  9
$DIMLIM
 70
     0
  9
$DIMTIH
 70
     1
  9
$DIMTOH
 70
     1
  9
$DIMSE1
 70
     0
  9
$DIMSE2
 70
     0
  9
$DIMTAD
 70
     1
  9
$DIMZIN
 70
     0
  9
$DIMBLK
  1

  9
$DIMASO
 70
     1
  9
$DIMSHO
 70
     1
  9
$DIMPOST
  1

  9
$DIMAPOST
  1

  9
$DIMALT
 70
     0
  9
$DIMALTD
 70
     2
  9
$DIMALTF
 40
25.4
  9
$DIMLFAC
 40
1.0
  9
$DIMTOFL
 70
     0
  9
$DIMTVP
 40
0.0
  9
$DIMTIX
 70
     0
  9
$DIMSOXD
 70
     0
  9
$DIMSAH
 70
     0
  9
$DIMBLK1
  1

  9
$DIMBLK2
  1

  9
$LUNITS
 70
     2
  9
$LUPREC
 70
     4
  9
$SKETCHINC
 40
0.1
  9
$FILLETRAD
 40
0.5
  9
$AUNITS
 70
     0
  9
$AUPREC
 70
     0
  9
$MENU
  1
.
  9
$ELEVATION
 40
0.0
  9
$THICKNESS
 40
0.0
  9
$LIMCHECK
 70
     0
  9
$CHAMFERA
 40
0.0
  9
$CHAMFERB
 40
0.0
  9
$SKPOLY
 70
     0
  9
$TDCREATE
 40
2460105.370541204
  9
$TDUPDATE
 40
2460105.370541424
  9
$TDINDWG
 40
0.0000000116
  9
$TDUSRTIMER
 40
0.0000000116
  9
$USRTIMER
 70
     1
  9
$ANGBASE
 50
0.0
  9
$ANGDIR
 70
     0
  9
$PDMODE
 70
     0
  9
$PDSIZE
 40
0.0
  9
$PLINEWID
 40
0.0
  9
$COORDS
 70
     1
  9
$SPLFRAME
 70
     0
  9
$SPLINETYPE
 70
     6
  9
$SPLINESEGS
 70
     8
  9
$ATTDIA
 70
     0
  9
$ATTREQ
 70
     1
  9
$SURFTAB1
 70
     6
  9
$SURFTAB2
 70
     6
  9
$SURFTYPE
 70
     6
  9
$SURFU
 70
     6
  9
$SURFV
 70
     6
  9
$UCSNAME
  2

  9
$UCSORG
 10
0.0
 20
0.0
 30
0.0
  9
$UCSXDIR
 10
1.0
 20
0.0
 30
0.0
  9
$UCSYDIR
 10
0.0
 20
1.0
 30
0.0
  9
$USERI1
 70
     0
  9
$USERI2
 70
     0
  9
$USERI3
 70
     0
  9
$USERI4
 70
     0
  9
$USERI5
 70
     0
  9
$USERR1
 40
0.0
  9
$USERR2
 40
0.0
  9
$USERR3
 40
0.0
  9
$USERR4
 40
0.0
  9
$USERR5
 40
0.0
  9
$WORLDVIEW
 70
     1
  0
ENDSEC
  0
SECTION
  2
TABLES
  0
TABLE
  2
LTYPE
 70
     2
  0
LTYPE
  2
CONTINUOUS
 70
     0
  3
Solid line
 72
    65
 73
     0
 40
0.0
  0
LTYPE
  2
CENTER
 70
     0
  3

 72
    65
 73
     0
 40
0.0
  0
ENDTAB
  0
TABLE
  2
LAYER
 70
     1
  0
LAYER
  2
0
 70
     0
 62
     7
  6
CONTINUOUS
  0
ENDTAB
  0
TABLE
  2
STYLE
 70
     2
  0
STYLE
  2
STANDARD
 70
     0
 40
0.0
 41
1.0
 50
0.0
 71
     0
 42
0.2
  3
txt
  4

  0
STYLE
  2
ＭＳ_ゴシック
 70
     0
 40
0.0
 41
1.0
 50
0.0
 71
     0
 42
0.2
  3
ＭＳ ゴシック.shx
  4

  0
ENDTAB
  0
TABLE
  2
VIEW
 70
     0
  0
ENDTAB
  0
ENDSEC
  0
SECTION
  2
BLOCKS
  0
BLOCK
  8
0
  2
D_FRAME_VIEW_1872
 70
     0
 10
0.0
 20
0.0
  0
CIRCLE
  8
0
  6
CONTINUOUS
 62
     7
 10
90.0
 20
225.0
 40
4.000000000000004
  0
LINE
  8
0
  6
CONTINUOUS
 62
     7
 10
73.81581902169616
 20
206.0
 11
72.81718948694159
 21
205.0013704652454
  0
LINE
  8
0
  6
CONTINUOUS
 62
     7
 10
78.18418097830383
 20
205.0
 11
72.81444667569825
 21
205.0
  0
LINE
  8
0
  6
CONTINUOUS
 62
     7
 10
72.81444667569825
 20
205.0
 11
72.81718948694159
 21
205.0013704652454
  0
LINE
  8
0
  6
CONTINUOUS
 62
     7
 10
101.8158190216962
 20
245.0
 11
106.1841809783038
 21
245.0
  0
LINE
  8
0
  6
CONTINUOUS
 62
     7
 10
73.1869850596284
 20
216.6933761370823
 11
71.00000000000003
 21
216.6933761370823
  0
LINE
  8
0
  6
CONTINUOUS
 62
     7
 10
71.00000000000003
 20
221.2500000000001
 11
78.65638946366701
 21
221.2500000000001
  0
ARC
  8
0
  6
CONTINUOUS
 62
     7
 10
78.65638946366711
 20
218.2500000000003
 40
2.999999999999836
 50
30.75470363302997
 51
90.00000000000188
  0
ARC
  8
0
  6
CONTINUOUS
 62
     7
 10
90.00000000000344
 20
225.000000000003
 40
10.20000000000459
 50
210.7547036330346
 51
223.3359227360778
  0
LINE
  8
0
  6
CONTINUOUS
 62
     7
 10
82.58110520360334
 20
218.0000000000001
 11
83.80373831775705
 21
216.8977570287502
  0
LINE
  8
0
  6
CONTINUOUS
 62
     7
 10
83.724697327285
 20
216.7985475541087
 11
83.80376691478253
 21
216.897735159003
  0
ARC
  8
0
  6
CONTINUOUS
 62
     7
 10
101.3436105363327
 20
231.7500000000001
 40
2.999999999999919
 50
210.7547036330303
 51
270.0000000000007
  0
ARC
  8
0
  6
CONTINUOUS
 62
     7
 10
89.99999999999864
 20
224.9999999999989
 40
10.20000000000185
 50
30.75470363303373
 51
52.59272992538877
  0
LINE
  8
0
  6
CONTINUOUS
 62
     7
 10
96.27530267271509
 20
233.2014524458913
 11
96.19623308548887
 21
233.1022648407896
  0
LINE
  8
0
  6
CONTINUOUS
 62
     7
 10
101.3436105363328
 20
228.7500000000002
 11
109.0
 21
228.7500000000002
  0
LINE
  8
0
  6
CONTINUOUS
 62
     7
 10
79.03788566764088
 20
216.573850226824
 11
78.8158865995104
 21
216.7985475541087
  0
LINE
  8
0
  6
CONTINUOUS
 62
     7
 10
79.03788566764088
 20
216.573850226824
 11
79.10630012419576
 21
216.4793268497353
  0
ARC
  8
0
  6
CONTINUOUS
 62
     7
 10
77.72017202579799
 20
215.7400516030633
 40
1.570948438208493
 50
358.2275992812442
 51
28.07270987238189
  0
LINE
  8
0
  6
CONTINUOUS
 62
     7
 10
100.9621143323591
 20
233.426149773176
 11
101.1841134004896
 21
233.2014524458913
  0
POLYLINE
  8
0
  6
CONTINUOUS
 62
     7
 66
     1
  0
VERTEX
  8
0
  6
CONTINUOUS
 62
     7
 10
100.9621143323591
 20
233.426149773176
  0
VERTEX
  8
0
  6
CONTINUOUS
 62
     7
 10
100.8937504184186
 20
233.5206066232062
  0
VERTEX
  8
0
  6
CONTINUOUS
 62
     7
 10
100.8412615177321
 20
233.621443757678
  0
SEQEND
  8
0
  6
CONTINUOUS
 62
     7
  0
ARC
  8
0
  6
CONTINUOUS
 62
     7
 10
102.4517341478284
 20
234.2861264617846
 40
1.742247166571921
 50
179.2629927053473
 51
202.4271753434886
  0
LINE
  8
0
  6
CONTINUOUS
 62
     7
 10
106.8158865995104
 20
233.2014524458913
 11
107.0378856676483
 21
233.4261497731845
  0
ARC
  8
0
  6
CONTINUOUS
 62
     7
 10
105.5416644724448
 20
234.2885025737866
 40
1.748819167958945
 50
337.1561736858833
 51
0.6563842626226801
  0
POLYLINE
  8
0
  6
CONTINUOUS
 62
     7
 66
     1
  0
VERTEX
  8
0
  6
CONTINUOUS
 62
     7
 10
107.1533175727929
 20
233.6095749146366
  0
VERTEX
  8
0
  6
CONTINUOUS
 62
     7
 10
107.096247983507
 20
233.504500981316
  0
VERTEX
  8
0
  6
CONTINUOUS
 62
     7
 10
107.0378856676483
 20
233.4261497731845
  0
SEQEND
  8
0
  6
CONTINUOUS
 62
     7
  0
ARC
  8
0
  6
CONTINUOUS
 62
     7
 10
74.458335527555
 20
215.7114974262134
 40
1.748819167958709
 50
157.1561736858812
 51
180.6563842626228
  0
POLYLINE
  8
0
  6
CONTINUOUS
 62
     7
 66
     1
  0
VERTEX
  8
0
  6
CONTINUOUS
 62
     7
 10
72.8466824272071
 20
216.3904250853633
  0
VERTEX
  8
0
  6
CONTINUOUS
 62
     7
 10
72.9019145308429
 20
216.4926084410814
  0
VERTEX
  8
0
  6
CONTINUOUS
 62
     7
 10
72.96271616104805
 20
216.5745384412116
  0
VERTEX
  8
0
  6
CONTINUOUS
 62
     7
 10
73.04395112723273
 20
216.6469301924021
  0
VERTEX
  8
0
  6
CONTINUOUS
 62
     7
 10
73.14122365482503
 20
216.6887489438831
  0
VERTEX
  8
0
  6
CONTINUOUS
 62
     7
 10
73.1869850596284
 20
216.6933761370823
  0
SEQEND
  8
0
  6
CONTINUOUS
 62
     7
  0
LINE
  8
0
  6
CONTINUOUS
 62
     7
 10
72.70963111713216
 20
215.65
 11
72.68342722749064
 21
215.15
  0
LINE
  8
0
  6
CONTINUOUS
 62
     7
 10
72.70963111713216
 20
215.6914632756823
 11
72.70963111713216
 21
215.65
  0
LINE
  8
0
  6
CONTINUOUS
 62
     7
 10
72.81444667569825
 20
205.0
 11
72.54263107039125
 21
205.0
  0
LINE
  8
0
  6
CONTINUOUS
 62
     7
 10
72.53798890941701
 20
215.15
 11
72.54263107039125
 21
205.0
  0
LINE
  8
0
  6
CONTINUOUS
 62
     7
 10
101.5073179708911
 20
245.0
 11
101.8158190216962
 21
245.0
  0
POLYLINE
  8
0
  6
CONTINUOUS
 62
     7
 66
     1
  0
VERTEX
  8
0
  6
CONTINUOUS
 62
     7
 10
101.5073179708911
 20
245.0
  0
VERTEX
  8
0
  6
CONTINUOUS
 62
     7
 10
101.3119511294896
 20
244.9807852804032
  0
VERTEX
  8
0
  6
CONTINUOUS
 62
     7
 10
101.1240745503147
 20
244.9238795325113
  0
VERTEX
  8
0
  6
CONTINUOUS
 62
     7
 10
100.9509082249419
 20
244.8314696123026
  0
VERTEX
  8
0
  6
CONTINUOUS
 62
     7
 10
100.7991068381423
 20
244.7071067811866
  0
VERTEX
  8
0
  6
CONTINUOUS
 62
     7
 10
100.6745040320794
 20
244.5555702330196
  0
VERTEX
  8
0
  6
CONTINUOUS
 62
     7
 10
100.5818882227122
 20
244.3826834323651
  0
VERTEX
  8
0
  6
CONTINUOUS
 62
     7
 10
100.5248185836551
 20
244.1950903220161
  0
VERTEX
  8
0
  6
CONTINUOUS
 62
     7
 10
100.5054882691321
 20
244.0
  0
SEQEND
  8
0
  6
CONTINUOUS
 62
     7
  0
LINE
  8
0
  6
CONTINUOUS
 62
     7
 10
79.49869653608111
 20
215.15
 11
79.49451173086787
 21
206.0
  0
LINE
  8
0
  6
CONTINUOUS
 62
     7
 10
79.29036888286784
 20
215.65
 11
79.29036888286784
 21
215.6914632756823
  0
LINE
  8
0
  6
CONTINUOUS
 62
     7
 10
79.31657277250936
 20
215.15
 11
79.29036888286784
 21
215.65
  0
POLYLINE
  8
0
  6
CONTINUOUS
 62
     7
 66
     1
  0
VERTEX
  8
0
  6
CONTINUOUS
 62
     7
 10
78.49268202910895
 20
205.0
  0
VERTEX
  8
0
  6
CONTINUOUS
 62
     7
 10
78.68804887051043
 20
205.0192147195968
  0
VERTEX
  8
0
  6
CONTINUOUS
 62
     7
 10
78.87592544968525
 20
205.0761204674887
  0
VERTEX
  8
0
  6
CONTINUOUS
 62
     7
 10
79.04909177505812
 20
205.1685303876974
  0
VERTEX
  8
0
  6
CONTINUOUS
 62
     7
 10
79.20089316185775
 20
205.2928932188134
  0
VERTEX
  8
0
  6
CONTINUOUS
 62
     7
 10
79.32549596792062
 20
205.4444297669804
  0
VERTEX
  8
0
  6
CONTINUOUS
 62
     7
 10
79.4181117772878
 20
205.6173165676349
  0
VERTEX
  8
0
  6
CONTINUOUS
 62
     7
 10
79.47518141634488
 20
205.8049096779839
  0
VERTEX
  8
0
  6
CONTINUOUS
 62
     7
 10
79.49451173086788
 20
206.0
  0
SEQEND
  8
0
  6
CONTINUOUS
 62
     7
  0
LINE
  8
0
  6
CONTINUOUS
 62
     7
 10
78.49268202910895
 20
205.0
 11
78.18418097830383
 21
205.0
  0
LINE
  8
0
  6
CONTINUOUS
 62
     7
 10
106.1841809783038
 20
245.0
 11
106.4559965836108
 21
245.0
  0
POLYLINE
  8
0
  6
CONTINUOUS
 62
     7
 66
     1
  0
VERTEX
  8
0
  6
CONTINUOUS
 62
     7
 10
107.4578262853697
 20
244.0
  0
VERTEX
  8
0
  6
CONTINUOUS
 62
     7
 10
107.4384959708467
 20
244.1950903220161
  0
VERTEX
  8
0
  6
CONTINUOUS
 62
     7
 10
107.3814263317897
 20
244.3826834323651
  0
VERTEX
  8
0
  6
CONTINUOUS
 62
     7
 10
107.2888105224225
 20
244.5555702330196
  0
VERTEX
  8
0
  6
CONTINUOUS
 62
     7
 10
107.1642077163596
 20
244.7071067811865
  0
VERTEX
  8
0
  6
CONTINUOUS
 62
     7
 10
107.01240632956
 20
244.8314696123026
  0
VERTEX
  8
0
  6
CONTINUOUS
 62
     7
 10
106.8392400041871
 20
244.9238795325113
  0
VERTEX
  8
0
  6
CONTINUOUS
 62
     7
 10
106.6513634250123
 20
244.9807852804032
  0
VERTEX
  8
0
  6
CONTINUOUS
 62
     7
 10
106.4559965836108
 20
245.0
  0
SEQEND
  8
0
  6
CONTINUOUS
 62
     7
  0
LINE
  8
0
  6
CONTINUOUS
 62
     7
 10
107.2903688828678
 20
234.35
 11
107.3165727725094
 21
234.85
  0
LINE
  8
0
  6
CONTINUOUS
 62
     7
 10
107.2903688828678
 20
234.3085367243177
 11
107.2903688828678
 21
234.35
  0
LINE
  8
0
  6
CONTINUOUS
 62
     7
 10
107.462011090583
 20
234.85
 11
107.4578262853697
 21
244.0
  0
LINE
  8
0
  6
CONTINUOUS
 62
     7
 10
100.5013034639189
 20
234.85
 11
100.5054882691321
 21
244.0
  0
LINE
  8
0
  6
CONTINUOUS
 62
     7
 10
100.7096311171322
 20
234.35
 11
100.7096311171322
 21
234.3085367243177
  0
LINE
  8
0
  6
CONTINUOUS
 62
     7
 10
100.6834272274906
 20
234.85
 11
100.7096311171322
 21
234.35
  0
ARC
  8
0
  6
CONTINUOUS
 62
     7
 10
89.99999999999864
 20
225.0000000000015
 40
10.20000000000185
 50
307.4072700746112
 51
329.2452963669663
  0
ARC
  8
0
  6
CONTINUOUS
 62
     7
 10
101.3436105363327
 20
218.2500000000002
 40
2.999999999999941
 50
89.9999999999992
 51
149.2452963669688
  0
LINE
  8
0
  6
CONTINUOUS
 62
     7
 10
101.3436105363328
 20
221.2500000000001
 11
109.0
 21
221.2500000000001
  0
LINE
  8
0
  6
CONTINUOUS
 62
     7
 10
96.19623308548873
 20
216.8977351592106
 11
96.27530267271537
 21
216.7985475541087
  0
ARC
  8
0
  6
CONTINUOUS
 62
     7
 10
78.65638946366701
 20
231.7500000000002
 40
3.000000000000029
 50
270.0
 51
329.2452963669686
  0
LINE
  8
0
  6
CONTINUOUS
 62
     7
 10
71.00000000000003
 20
228.7500000000002
 11
78.65638946366701
 21
228.7500000000002
  0
ARC
  8
0
  6
CONTINUOUS
 62
     7
 10
90.00000000000078
 20
224.9999999999993
 40
10.20000000000131
 50
129.5874276820743
 51
149.245296366967
  0
ARC
  8
0
  6
CONTINUOUS
 62
     7
 10
71.50000000000003
 20
216.15
 40
1.000000000000001
 50
180.0
 51
270.0
  0
LINE
  8
0
  6
CONTINUOUS
 62
     7
 10
72.68342722749063
 20
215.15
 11
71.50000000000003
 21
215.15
  0
LINE
  8
0
  6
CONTINUOUS
 62
     7
 10
70.50000000000003
 20
216.15
 11
70.50000000000003
 21
216.5738502268237
  0
LINE
  8
0
  6
CONTINUOUS
 62
     7
 10
70.50000000000003
 20
216.5738502268237
 11
71.00000000000003
 21
216.6933761370823
  0
LINE
  8
0
  6
CONTINUOUS
 62
     7
 10
96.50000000000007
 20
233.426149773176
 11
96.27530267271523
 21
233.2014524458912
  0
LINE
  8
0
  6
CONTINUOUS
 62
     7
 10
109.5
 20
233.85
 11
109.5
 21
233.426149773176
  0
POLYLINE
  8
0
  6
CONTINUOUS
 62
     7
 66
     1
  0
VERTEX
  8
0
  6
CONTINUOUS
 62
     7
 10
84.00000000000001
 20
216.5005882556497
  0
VERTEX
  8
0
  6
CONTINUOUS
 62
     7
 10
83.99947356855685
 20
216.5235263094707
  0
VERTEX
  8
0
  6
CONTINUOUS
 62
     7
 10
83.99789538274764
 20
216.5464160620406
  0
VERTEX
  8
0
  6
CONTINUOUS
 62
     7
 10
83.99526876579888
 20
216.5692093138176
  0
VERTEX
  8
0
  6
CONTINUOUS
 62
     7
 10
83.99159924864558
 20
216.5918580684637
  0
VERTEX
  8
0
  6
CONTINUOUS
 62
     7
 10
83.98689455828462
 20
216.6143146339128
  0
VERTEX
  8
0
  6
CONTINUOUS
 62
     7
 10
83.98116460150369
 20
216.6365317227962
  0
VERTEX
  8
0
  6
CONTINUOUS
 62
     7
 10
83.9744214440205
 20
216.6584625520171
  0
VERTEX
  8
0
  6
CONTINUOUS
 62
     7
 10
83.96667928507554
 20
216.6800609412633
  0
VERTEX
  8
0
  6
CONTINUOUS
 62
     7
 10
83.95795442753246
 20
216.70128141025
  0
VERTEX
  8
0
  6
CONTINUOUS
 62
     7
 10
83.94826524354859
 20
216.7220792744887
  0
VERTEX
  8
0
  6
CONTINUOUS
 62
     7
 10
83.93763213588842
 20
216.7424107393805
  0
VERTEX
  8
0
  6
CONTINUOUS
 62
     7
 10
83.92607749496077
 20
216.762232992436
  0
VERTEX
  8
0
  6
CONTINUOUS
 62
     7
 10
83.91362565167083
 20
216.7815042934259
  0
VERTEX
  8
0
  6
CONTINUOUS
 62
     7
 10
83.90030282618594
 20
216.8001840622751
  0
VERTEX
  8
0
  6
CONTINUOUS
 62
     7
 10
83.88613707272309
 20
216.818232964513
  0
VERTEX
  8
0
  6
CONTINUOUS
 62
     7
 10
83.87115822047443
 20
216.8356129941008
  0
VERTEX
  8
0
  6
CONTINUOUS
 62
     7
 10
83.8553978107952
 20
216.8522875534624
  0
VERTEX
  8
0
  6
CONTINUOUS
 62
     7
 10
83.83888903078622
 20
216.8682215305484
  0
VERTEX
  8
0
  6
CONTINUOUS
 62
     7
 10
83.82166664341105
 20
216.8833813727726
  0
VERTEX
  8
0
  6
CONTINUOUS
 62
     7
 10
83.80376691429466
 20
216.8977351576644
  0
SEQEND
  8
0
  6
CONTINUOUS
 62
     7
  0
LINE
  8
0
  6
CONTINUOUS
 62
     7
 10
84.00000000000001
 20
216.5005882556497
 11
84.00000000000001
 21
215.65
  0
LINE
  8
0
  6
CONTINUOUS
 62
     7
 10
83.50000000000001
 20
216.573850226824
 11
83.72469732728486
 21
216.7985475541088
  0
LINE
  8
0
  6
CONTINUOUS
 62
     7
 10
96.00000000000007
 20
215.15
 11
96.50000000000007
 21
215.65
  0
LINE
  8
0
  6
CONTINUOUS
 62
     7
 10
96.00000000000007
 20
215.1500000000001
 11
96.00000000000007
 21
216.5005882556499
  0
POLYLINE
  8
0
  6
CONTINUOUS
 62
     7
 66
     1
  0
VERTEX
  8
0
  6
CONTINUOUS
 62
     7
 10
96.00000000000006
 20
216.5005882556498
  0
VERTEX
  8
0
  6
CONTINUOUS
 62
     7
 10
96.00052643144379
 20
216.5235263094832
  0
VERTEX
  8
0
  6
CONTINUOUS
 62
     7
 10
96.0021046172547
 20
216.5464160620654
  0
VERTEX
  8
0
  6
CONTINUOUS
 62
     7
 10
96.00473123420629
 20
216.5692093138544
  0
VERTEX
  8
0
  6
CONTINUOUS
 62
     7
 10
96.00840075136351
 20
216.5918580685125
  0
VERTEX
  8
0
  6
CONTINUOUS
 62
     7
 10
96.0131054417295
 20
216.6143146339731
  0
VERTEX
  8
0
  6
CONTINUOUS
 62
     7
 10
96.01883539851652
 20
216.6365317228677
  0
VERTEX
  8
0
  6
CONTINUOUS
 62
     7
 10
96.02557855600685
 20
216.6584625520993
  0
VERTEX
  8
0
  6
CONTINUOUS
 62
     7
 10
96.03332071495998
 20
216.6800609413558
  0
VERTEX
  8
0
  6
CONTINUOUS
 62
     7
 10
96.04204557251224
 20
216.701281410352
  0
VERTEX
  8
0
  6
CONTINUOUS
 62
     7
 10
96.05173475650619
 20
216.7220792745996
  0
VERTEX
  8
0
  6
CONTINUOUS
 62
     7
 10
96.06236786417736
 20
216.7424107394997
  0
VERTEX
  8
0
  6
CONTINUOUS
 62
     7
 10
96.07392250511687
 20
216.7622329925625
  0
VERTEX
  8
0
  6
CONTINUOUS
 62
     7
 10
96.08637434841945
 20
216.781504293559
  0
VERTEX
  8
0
  6
CONTINUOUS
 62
     7
 10
96.09969717391775
 20
216.8001840624138
  0
VERTEX
  8
0
  6
CONTINUOUS
 62
     7
 10
96.11386292739469
 20
216.8182329646563
  0
VERTEX
  8
0
  6
CONTINUOUS
 62
     7
 10
96.12884177965806
 20
216.8356129942478
  0
VERTEX
  8
0
  6
CONTINUOUS
 62
     7
 10
96.1446021893526
 20
216.8522875536119
  0
VERTEX
  8
0
  6
CONTINUOUS
 62
     7
 10
96.16111096937735
 20
216.8682215306994
  0
VERTEX
  8
0
  6
CONTINUOUS
 62
     7
 10
96.17833335676872
 20
216.8833813729238
  0
VERTEX
  8
0
  6
CONTINUOUS
 62
     7
 10
96.19623308590167
 20
216.8977351578148
  0
SEQEND
  8
0
  6
CONTINUOUS
 62
     7
  0
LINE
  8
0
  6
CONTINUOUS
 62
     7
 10
96.27530267271534
 20
216.7985475541087
 11
96.50000000000007
 21
216.573850226824
  0
LINE
  8
0
  6
CONTINUOUS
 62
     7
 10
75.0
 20
236.85
 11
75.0
 21
241.35
  0
ARC
  8
0
  6
CONTINUOUS
 62
     7
 10
75.5
 20
241.35
 40
0.5000000000000004
 50
90.0
 51
180.0
  0
CIRCLE
  8
0
  6
CONTINUOUS
 62
     7
 10
79.5
 20
237.35
 40
3.500000000000003
  0
LINE
  8
0
  6
CONTINUOUS
 62
     7
 10
108.5
 20
215.15
 11
96.00000000000007
 21
215.1500000000001
  0
ARC
  8
0
  6
CONTINUOUS
 62
     7
 10
83.50000000000001
 20
215.65
 40
0.5000000000000004
 50
270.0
 51
0.0
  0
LINE
  8
0
  6
CONTINUOUS
 62
     7
 10
83.50000000000001
 20
215.15
 11
79.31657277250935
 21
215.15
  0
ARC
  8
0
  6
CONTINUOUS
 62
     7
 10
108.5
 20
233.85
 40
1.000000000000001
 50
0.0
 51
90.0
  0
LINE
  8
0
  6
CONTINUOUS
 62
     7
 10
96.50000000000007
 20
234.85
 11
100.6834272274906
 21
234.85
  0
LINE
  8
0
  6
CONTINUOUS
 62
     7
 10
75.5
 20
241.85
 11
83.49999999999999
 21
241.85
  0
POLYLINE
  8
0
  6
CONTINUOUS
 62
     7
 66
     1
  0
VERTEX
  8
0
  6
CONTINUOUS
 62
     7
 10
96.19623308590182
 20
233.1022648421855
  0
VERTEX
  8
0
  6
CONTINUOUS
 62
     7
 10
96.17833335676886
 20
233.1166186270764
  0
VERTEX
  8
0
  6
CONTINUOUS
 62
     7
 10
96.16111096937748
 20
233.1317784693009
  0
VERTEX
  8
0
  6
CONTINUOUS
 62
     7
 10
96.14460218935271
 20
233.1477124463883
  0
VERTEX
  8
0
  6
CONTINUOUS
 62
     7
 10
96.12884177965816
 20
233.1643870057525
  0
VERTEX
  8
0
  6
CONTINUOUS
 62
     7
 10
96.11386292739478
 20
233.1817670353439
  0
VERTEX
  8
0
  6
CONTINUOUS
 62
     7
 10
96.09969717391782
 20
233.1998159375864
  0
VERTEX
  8
0
  6
CONTINUOUS
 62
     7
 10
96.08637434841951
 20
233.2184957064413
  0
VERTEX
  8
0
  6
CONTINUOUS
 62
     7
 10
96.07392250511693
 20
233.2377670074378
  0
VERTEX
  8
0
  6
CONTINUOUS
 62
     7
 10
96.0623678641774
 20
233.2575892605006
  0
VERTEX
  8
0
  6
CONTINUOUS
 62
     7
 10
96.05173475650624
 20
233.2779207254007
  0
VERTEX
  8
0
  6
CONTINUOUS
 62
     7
 10
96.04204557251227
 20
233.2987185896482
  0
VERTEX
  8
0
  6
CONTINUOUS
 62
     7
 10
96.03332071496001
 20
233.3199390586445
  0
VERTEX
  8
0
  6
CONTINUOUS
 62
     7
 10
96.02557855600688
 20
233.3415374479009
  0
VERTEX
  8
0
  6
CONTINUOUS
 62
     7
 10
96.01883539851653
 20
233.3634682771326
  0
VERTEX
  8
0
  6
CONTINUOUS
 62
     7
 10
96.01310544172951
 20
233.3856853660272
  0
VERTEX
  8
0
  6
CONTINUOUS
 62
     7
 10
96.00840075136351
 20
233.4081419314878
  0
VERTEX
  8
0
  6
CONTINUOUS
 62
     7
 10
96.00473123420629
 20
233.4307906861459
  0
VERTEX
  8
0
  6
CONTINUOUS
 62
     7
 10
96.0021046172547
 20
233.453583937935
  0
VERTEX
  8
0
  6
CONTINUOUS
 62
     7
 10
96.00052643144379
 20
233.4764736905172
  0
VERTEX
  8
0
  6
CONTINUOUS
 62
     7
 10
96.00000000000006
 20
233.4994117443506
  0
SEQEND
  8
0
  6
CONTINUOUS
 62
     7
  0
LINE
  8
0
  6
CONTINUOUS
 62
     7
 10
96.00000000000007
 20
233.4994117443505
 11
96.00000000000007
 21
234.35
  0
LINE
  8
0
  6
CONTINUOUS
 62
     7
 10
83.98197074408193
 20
233.3663546068153
 11
83.9946035620369
 21
233.426149773176
  0
ARC
  8
0
  6
CONTINUOUS
 62
     7
 10
71.50000000000003
 20
233.85
 40
1.000000000000001
 50
90.0
 51
180.0
  0
LINE
  8
0
  6
CONTINUOUS
 62
     7
 10
83.99999999999999
 20
241.35
 11
83.99999999999999
 21
233.4994117443507
  0
LINE
  8
0
  6
CONTINUOUS
 62
     7
 10
83.99460356203694
 20
233.4261497731762
 11
83.99999999999999
 21
233.4994117443508
  0
ARC
  8
0
  6
CONTINUOUS
 62
     7
 10
83.49999999999999
 20
241.35
 40
0.5000000000000004
 50
0.0
 51
90.0
  0
ARC
  8
0
  6
CONTINUOUS
 62
     7
 10
73.0
 20
236.85
 40
2.000000000000002
 50
270.0
 51
0.0
  0
ARC
  8
0
  6
CONTINUOUS
 62
     7
 10
108.5
 20
216.15
 40
1.000000000000001
 50
270.0
 51
0.0
  0
ARC
  8
0
  6
CONTINUOUS
 62
     7
 10
96.50000000000007
 20
234.35
 40
0.5000000000000004
 50
90.0
 51
180.0
  0
LINE
  8
0
  6
CONTINUOUS
 62
     7
 10
107.3165727725093
 20
234.85
 11
108.5
 21
234.85
  0
LINE
  8
0
  6
CONTINUOUS
 62
     7
 10
71.50000000000003
 20
234.85
 11
73.0
 21
234.85
  0
LINE
  8
0
  6
CONTINUOUS
 62
     7
 10
70.50000000000003
 20
233.426149773176
 11
70.50000000000003
 21
233.85
  0
LINE
  8
0
  6
CONTINUOUS
 62
     7
 10
109.5
 20
216.5738502268237
 11
109.5
 21
216.15
  0
POLYLINE
  8
0
  6
CONTINUOUS
 62
     7
 66
     1
  0
VERTEX
  8
0
  6
CONTINUOUS
 62
     7
 10
70.50000000000003
 20
220.7500000000001
  0
VERTEX
  8
0
  6
CONTINUOUS
 62
     7
 10
70.50001259387776
 20
220.7535487630415
  0
VERTEX
  8
0
  6
CONTINUOUS
 62
     7
 10
70.50048434936252
 20
220.7720026082135
  0
VERTEX
  8
0
  6
CONTINUOUS
 62
     7
 10
70.50164097661508
 20
220.7904757187806
  0
VERTEX
  8
0
  6
CONTINUOUS
 62
     7
 10
70.50348424126909
 20
220.8089245393011
  0
VERTEX
  8
0
  6
CONTINUOUS
 62
     7
 10
70.50602857841861
 20
220.8274095256467
  0
VERTEX
  8
0
  6
CONTINUOUS
 62
     7
 10
70.50927087887133
 20
220.8458380387752
  0
VERTEX
  8
0
  6
CONTINUOUS
 62
     7
 10
70.51323269948509
 20
220.8642698348184
  0
VERTEX
  8
0
  6
CONTINUOUS
 62
     7
 10
70.5179062869492
 20
220.882610903914
  0
VERTEX
  8
0
  6
CONTINUOUS
 62
     7
 10
70.52330534831452
 20
220.9008714984829
  0
VERTEX
  8
0
  6
CONTINUOUS
 62
     7
 10
70.53078358684023
 20
220.9227308820723
  0
VERTEX
  8
0
  6
CONTINUOUS
 62
     7
 10
70.53935462476326
 20
220.9444372347907
  0
VERTEX
  8
0
  6
CONTINUOUS
 62
     7
 10
70.54901144300949
 20
220.9658919207929
  0
VERTEX
  8
0
  6
CONTINUOUS
 62
     7
 10
70.55985689344665
 20
220.9872215119959
  0
VERTEX
  8
0
  6
CONTINUOUS
 62
     7
 10
70.57183439521174
 20
221.0082135063786
  0
VERTEX
  8
0
  6
CONTINUOUS
 62
     7
 10
70.58507010070845
 20
221.0289859829346
  0
VERTEX
  8
0
  6
CONTINUOUS
 62
     7
 10
70.5994889928882
 20
221.0493174455029
  0
VERTEX
  8
0
  6
CONTINUOUS
 62
     7
 10
70.61515679180297
 20
221.0692110667015
  0
VERTEX
  8
0
  6
CONTINUOUS
 62
     7
 10
70.6271630496718
 20
221.0831554471945
  0
VERTEX
  8
0
  6
CONTINUOUS
 62
     7
 10
70.63978420704903
 20
221.0967630062576
  0
VERTEX
  8
0
  6
CONTINUOUS
 62
     7
 10
70.65309022200982
 20
221.1100743400521
  0
VERTEX
  8
0
  6
CONTINUOUS
 62
     7
 10
70.66701756973445
 20
221.122991556385
  0
VERTEX
  8
0
  6
CONTINUOUS
 62
     7
 10
70.6787172799122
 20
221.1331153510823
  0
VERTEX
  8
0
  6
CONTINUOUS
 62
     7
 10
70.69081920584884
 20
221.1429468622195
  0
VERTEX
  8
0
  6
CONTINUOUS
 62
     7
 10
70.7033731854178
 20
221.1525077384477
  0
VERTEX
  8
0
  6
CONTINUOUS
 62
     7
 10
70.71632624269938
 20
221.1617392371624
  0
VERTEX
  8
0
  6
CONTINUOUS
 62
     7
 10
70.72749965530394
 20
221.1692177979769
  0
VERTEX
  8
0
  6
CONTINUOUS
 62
     7
 10
70.73895687769478
 20
221.1764463486761
  0
VERTEX
  8
0
  6
CONTINUOUS
 62
     7
 10
70.75286599789337
 20
221.1846546968905
  0
VERTEX
  8
0
  6
CONTINUOUS
 62
     7
 10
70.76714488526227
 20
221.1924686379175
  0
VERTEX
  8
0
  6
CONTINUOUS
 62
     7
 10
70.78186364245735
 20
221.1999071334874
  0
VERTEX
  8
0
  6
CONTINUOUS
 62
     7
 10
70.79693351420079
 20
221.2069069952904
  0
VERTEX
  8
0
  6
CONTINUOUS
 62
     7
 10
70.81248039856985
 20
221.21350433811
  0
VERTEX
  8
0
  6
CONTINUOUS
 62
     7
 10
70.82835329419052
 20
221.2196141058197
  0
VERTEX
  8
0
  6
CONTINUOUS
 62
     7
 10
70.84464208639542
 20
221.225251261729
  0
VERTEX
  8
0
  6
CONTINUOUS
 62
     7
 10
70.86121980428695
 20
221.2303540957231
  0
VERTEX
  8
0
  6
CONTINUOUS
 62
     7
 10
70.87773208417747
 20
221.2348199542488
  0
VERTEX
  8
0
  6
CONTINUOUS
 62
     7
 10
70.89447335845448
 20
221.2387372790409
  0
VERTEX
  8
0
  6
CONTINUOUS
 62
     7
 10
70.91154384331925
 20
221.242113109679
  0
VERTEX
  8
0
  6
CONTINUOUS
 62
     7
 10
70.92878876243522
 20
221.2449029800321
  0
VERTEX
  8
0
  6
CONTINUOUS
 62
     7
 10
70.9463859270279
 20
221.2471169966201
  0
VERTEX
  8
0
  6
CONTINUOUS
 62
     7
 10
70.9640942079386
 20
221.2487091076937
  0
VERTEX
  8
0
  6
CONTINUOUS
 62
     7
 10
70.98202790827078
 20
221.2496766588511
  0
VERTEX
  8
0
  6
CONTINUOUS
 62
     7
 10
71.00000000000003
 20
221.2500000000001
  0
SEQEND
  8
0
  6
CONTINUOUS
 62
     7
  0
LINE
  8
0
  6
CONTINUOUS
 62
     7
 10
70.50000000000003
 20
220.7500000000002
 11
70.50000000000003
 21
216.5738502268237
  0
POLYLINE
  8
0
  6
CONTINUOUS
 62
     7
 66
     1
  0
VERTEX
  8
0
  6
CONTINUOUS
 62
     7
 10
109.0
 20
221.2500000000001
  0
VERTEX
  8
0
  6
CONTINUOUS
 62
     7
 10
109.0174719214221
 20
221.2496944236797
  0
VERTEX
  8
0
  6
CONTINUOUS
 62
     7
 10
109.0349085617897
 20
221.2487799036789
  0
VERTEX
  8
0
  6
CONTINUOUS
 62
     7
 10
109.0524159376412
 20
221.247244765071
  0
VERTEX
  8
0
  6
CONTINUOUS
 62
     7
 10
109.0698171235795
 20
221.2451015746847
  0
VERTEX
  8
0
  6
CONTINUOUS
 62
     7
 10
109.087287925288
 20
221.2423216548944
  0
VERTEX
  8
0
  6
CONTINUOUS
 62
     7
 10
109.1045821173601
 20
221.2389402629449
  0
VERTEX
  8
0
  6
CONTINUOUS
 62
     7
 10
109.1218017565938
 20
221.2349372570747
  0
VERTEX
  8
0
  6
CONTINUOUS
 62
     7
 10
109.1387801957131
 20
221.2303540957231
  0
VERTEX
  8
0
  6
CONTINUOUS
 62
     7
 10
109.1550039339629
 20
221.2253668439976
  0
VERTEX
  8
0
  6
CONTINUOUS
 62
     7
 10
109.1709515138929
 20
221.219867619546
  0
VERTEX
  8
0
  6
CONTINUOUS
 62
     7
 10
109.1867037854425
 20
221.2138335612704
  0
VERTEX
  8
0
  6
CONTINUOUS
 62
     7
 10
109.2021365057255
 20
221.2073191807187
  0
VERTEX
  8
0
  6
CONTINUOUS
 62
     7
 10
109.2173718134079
 20
221.2002770141342
  0
VERTEX
  8
0
  6
CONTINUOUS
 62
     7
 10
109.2322498774691
 20
221.1927866240253
  0
VERTEX
  8
0
  6
CONTINUOUS
 62
     7
 10
109.2468390879709
 20
221.1848222373717
  0
VERTEX
  8
0
  6
CONTINUOUS
 62
     7
 10
109.2610431223053
 20
221.1764463486761
  0
VERTEX
  8
0
  6
CONTINUOUS
 62
     7
 10
109.277667400324
 20
221.1658132660504
  0
VERTEX
  8
0
  6
CONTINUOUS
 62
     7
 10
109.2937040832033
 20
221.154645414542
  0
VERTEX
  8
0
  6
CONTINUOUS
 62
     7
 10
109.3092457073882
 20
221.1428956382713
  0
VERTEX
  8
0
  6
CONTINUOUS
 62
     7
 10
109.3241744870168
 20
221.1306716458676
  0
VERTEX
  8
0
  6
CONTINUOUS
 62
     7
 10
109.3357871091066
 20
221.1204685968413
  0
VERTEX
  8
0
  6
CONTINUOUS
 62
     7
 10
109.3469945417633
 20
221.1099927610197
  0
VERTEX
  8
0
  6
CONTINUOUS
 62
     7
 10
109.3578340179051
 20
221.099220254872
  0
VERTEX
  8
0
  6
CONTINUOUS
 62
     7
 10
109.3682641287475
 20
221.0882033877387
  0
VERTEX
  8
0
  6
CONTINUOUS
 62
     7
 10
109.3848432081971
 20
221.0692110667015
  0
VERTEX
  8
0
  6
CONTINUOUS
 62
     7
 10
109.3999889172764
 20
221.0500147763964
  0
VERTEX
  8
0
  6
CONTINUOUS
 62
     7
 10
109.4141055883247
 20
221.0302080686175
  0
VERTEX
  8
0
  6
CONTINUOUS
 62
     7
 10
109.4271424707244
 20
221.0099025003796
  0
VERTEX
  8
0
  6
CONTINUOUS
 62
     7
 10
109.4391984390583
 20
220.9889659622809
  0
VERTEX
  8
0
  6
CONTINUOUS
 62
     7
 10
109.4501590108476
 20
220.9676163251062
  0
VERTEX
  8
0
  6
CONTINUOUS
 62
     7
 10
109.4601049190392
 20
220.9457127064757
  0
VERTEX
  8
0
  6
CONTINUOUS
 62
     7
 10
109.468942095898
 20
220.9234742364008
  0
VERTEX
  8
0
  6
CONTINUOUS
 62
     7
 10
109.4766946516855
 20
220.9008714984829
  0
VERTEX
  8
0
  6
CONTINUOUS
 62
     7
 10
109.4820054320895
 20
220.8829314238105
  0
VERTEX
  8
0
  6
CONTINUOUS
 62
     7
 10
109.4866366572507
 20
220.8648249268232
  0
VERTEX
  8
0
  6
CONTINUOUS
 62
     7
 10
109.4905802945274
 20
220.8465969700429
  0
VERTEX
  8
0
  6
CONTINUOUS
 62
     7
 10
109.4938490318327
 20
220.8281865318196
  0
VERTEX
  8
0
  6
CONTINUOUS
 62
     7
 10
109.4964246973712
 20
220.8096868481324
  0
VERTEX
  8
0
  6
CONTINUOUS
 62
     7
 10
109.4983132103616
 20
220.7910358913533
  0
VERTEX
  8
0
  6
CONTINUOUS
 62
     7
 10
109.4995012356233
 20
220.772327463152
  0
VERTEX
  8
0
  6
CONTINUOUS
 62
     7
 10
109.4999874061223
 20
220.7535487630421
  0
VERTEX
  8
0
  6
CONTINUOUS
 62
     7
 10
109.5
 20
220.7500000000001
  0
SEQEND
  8
0
  6
CONTINUOUS
 62
     7
  0
LINE
  8
0
  6
CONTINUOUS
 62
     7
 10
109.5
 20
216.5738502268237
 11
109.5
 21
220.7500000000001
  0
LINE
  8
0
  6
CONTINUOUS
 62
     7
 10
83.80373831775701
 20
233.1022429712502
 11
83.98197074408193
 21
233.3663546068153
  0
LINE
  8
0
  6
CONTINUOUS
 62
     7
 10
83.80373831775701
 20
233.1022429712502
 11
83.49999999999999
 21
232.8606615497683
  0
LINE
  8
0
  6
CONTINUOUS
 62
     7
 10
109.5
 20
229.2500000000002
 11
109.5
 21
233.426149773176
  0
POLYLINE
  8
0
  6
CONTINUOUS
 62
     7
 66
     1
  0
VERTEX
  8
0
  6
CONTINUOUS
 62
     7
 10
109.5
 20
229.2500000000002
  0
VERTEX
  8
0
  6
CONTINUOUS
 62
     7
 10
109.4999874061223
 20
229.2464512369583
  0
VERTEX
  8
0
  6
CONTINUOUS
 62
     7
 10
109.4995156506375
 20
229.2279973917868
  0
VERTEX
  8
0
  6
CONTINUOUS
 62
     7
 10
109.498359023385
 20
229.2095242812196
  0
VERTEX
  8
0
  6
CONTINUOUS
 62
     7
 10
109.496515758731
 20
229.1910754606992
  0
VERTEX
  8
0
  6
CONTINUOUS
 62
     7
 10
109.4939714215814
 20
229.1725904743537
  0
VERTEX
  8
0
  6
CONTINUOUS
 62
     7
 10
109.4907291211287
 20
229.1541619612251
  0
VERTEX
  8
0
  6
CONTINUOUS
 62
     7
 10
109.486767300515
 20
229.135730165182
  0
VERTEX
  8
0
  6
CONTINUOUS
 62
     7
 10
109.4820937130508
 20
229.1173890960863
  0
VERTEX
  8
0
  6
CONTINUOUS
 62
     7
 10
109.4766946516855
 20
229.0991285015174
  0
VERTEX
  8
0
  6
CONTINUOUS
 62
     7
 10
109.4692164131598
 20
229.077269117928
  0
VERTEX
  8
0
  6
CONTINUOUS
 62
     7
 10
109.4606453752368
 20
229.0555627652097
  0
VERTEX
  8
0
  6
CONTINUOUS
 62
     7
 10
109.4509885569906
 20
229.0341080792074
  0
VERTEX
  8
0
  6
CONTINUOUS
 62
     7
 10
109.4401431065534
 20
229.0127784880045
  0
VERTEX
  8
0
  6
CONTINUOUS
 62
     7
 10
109.4281656047883
 20
228.9917864936217
  0
VERTEX
  8
0
  6
CONTINUOUS
 62
     7
 10
109.4149298992916
 20
228.9710140170658
  0
VERTEX
  8
0
  6
CONTINUOUS
 62
     7
 10
109.4005110071118
 20
228.9506825544975
  0
VERTEX
  8
0
  6
CONTINUOUS
 62
     7
 10
109.3848432081971
 20
228.9307889332989
  0
VERTEX
  8
0
  6
CONTINUOUS
 62
     7
 10
109.3728369503282
 20
228.9168445528058
  0
VERTEX
  8
0
  6
CONTINUOUS
 62
     7
 10
109.360215792951
 20
228.9032369937428
  0
VERTEX
  8
0
  6
CONTINUOUS
 62
     7
 10
109.3469097779902
 20
228.8899256599482
  0
VERTEX
  8
0
  6
CONTINUOUS
 62
     7
 10
109.3329824302656
 20
228.8770084436153
  0
VERTEX
  8
0
  6
CONTINUOUS
 62
     7
 10
109.3212827200879
 20
228.866884648918
  0
VERTEX
  8
0
  6
CONTINUOUS
 62
     7
 10
109.3091807941512
 20
228.8570531377808
  0
VERTEX
  8
0
  6
CONTINUOUS
 62
     7
 10
109.2966268145822
 20
228.8474922615527
  0
VERTEX
  8
0
  6
CONTINUOUS
 62
     7
 10
109.2836737573007
 20
228.838260762838
  0
VERTEX
  8
0
  6
CONTINUOUS
 62
     7
 10
109.2725003446961
 20
228.8307822020234
  0
VERTEX
  8
0
  6
CONTINUOUS
 62
     7
 10
109.2610431223053
 20
228.8235536513243
  0
VERTEX
  8
0
  6
CONTINUOUS
 62
     7
 10
109.2471340021067
 20
228.8153453031098
  0
VERTEX
  8
0
  6
CONTINUOUS
 62
     7
 10
109.2328551147378
 20
228.8075313620828
  0
VERTEX
  8
0
  6
CONTINUOUS
 62
     7
 10
109.2181363575427
 20
228.800092866513
  0
VERTEX
  8
0
  6
CONTINUOUS
 62
     7
 10
109.2030664857993
 20
228.79309300471
  0
VERTEX
  8
0
  6
CONTINUOUS
 62
     7
 10
109.1875196014302
 20
228.7864956618903
  0
VERTEX
  8
0
  6
CONTINUOUS
 62
     7
 10
109.1716467058095
 20
228.7803858941806
  0
VERTEX
  8
0
  6
CONTINUOUS
 62
     7
 10
109.1553579136046
 20
228.7747487382714
  0
VERTEX
  8
0
  6
CONTINUOUS
 62
     7
 10
109.1387801957131
 20
228.7696459042772
  0
VERTEX
  8
0
  6
CONTINUOUS
 62
     7
 10
109.1222679158226
 20
228.7651800457515
  0
VERTEX
  8
0
  6
CONTINUOUS
 62
     7
 10
109.1055266415456
 20
228.7612627209595
  0
VERTEX
  8
0
  6
CONTINUOUS
 62
     7
 10
109.0884561566808
 20
228.7578868903213
  0
VERTEX
  8
0
  6
CONTINUOUS
 62
     7
 10
109.0712112375648
 20
228.7550970199683
  0
VERTEX
  8
0
  6
CONTINUOUS
 62
     7
 10
109.0536140729722
 20
228.7528830033802
  0
VERTEX
  8
0
  6
CONTINUOUS
 62
     7
 10
109.0359057920614
 20
228.7512908923067
  0
VERTEX
  8
0
  6
CONTINUOUS
 62
     7
 10
109.0179720917293
 20
228.7503233411492
  0
VERTEX
  8
0
  6
CONTINUOUS
 62
     7
 10
109.0
 20
228.7500000000002
  0
SEQEND
  8
0
  6
CONTINUOUS
 62
     7
  0
LINE
  8
0
  6
CONTINUOUS
 62
     7
 10
70.50000000000003
 20
233.4261497731761
 11
70.50000000000003
 21
229.2500000000002
  0
POLYLINE
  8
0
  6
CONTINUOUS
 62
     7
 66
     1
  0
VERTEX
  8
0
  6
CONTINUOUS
 62
     7
 10
71.00000000000003
 20
228.7500000000002
  0
VERTEX
  8
0
  6
CONTINUOUS
 62
     7
 10
70.98252807857794
 20
228.7503055763206
  0
VERTEX
  8
0
  6
CONTINUOUS
 62
     7
 10
70.96509143821031
 20
228.7512200963214
  0
VERTEX
  8
0
  6
CONTINUOUS
 62
     7
 10
70.9475840623588
 20
228.7527552349293
  0
VERTEX
  8
0
  6
CONTINUOUS
 62
     7
 10
70.93018287642059
 20
228.7548984253157
  0
VERTEX
  8
0
  6
CONTINUOUS
 62
     7
 10
70.91271207471209
 20
228.757678345106
  0
VERTEX
  8
0
  6
CONTINUOUS
 62
     7
 10
70.89541788263998
 20
228.7610597370555
  0
VERTEX
  8
0
  6
CONTINUOUS
 62
     7
 10
70.87819824340627
 20
228.7650627429257
  0
VERTEX
  8
0
  6
CONTINUOUS
 62
     7
 10
70.86121980428695
 20
228.7696459042772
  0
VERTEX
  8
0
  6
CONTINUOUS
 62
     7
 10
70.84499606603717
 20
228.7746331560028
  0
VERTEX
  8
0
  6
CONTINUOUS
 62
     7
 10
70.82904848610711
 20
228.7801323804543
  0
VERTEX
  8
0
  6
CONTINUOUS
 62
     7
 10
70.8132962145575
 20
228.7861664387299
  0
VERTEX
  8
0
  6
CONTINUOUS
 62
     7
 10
70.7978634942745
 20
228.7926808192817
  0
VERTEX
  8
0
  6
CONTINUOUS
 62
     7
 10
70.78262818659215
 20
228.7997229858661
  0
VERTEX
  8
0
  6
CONTINUOUS
 62
     7
 10
70.7677501225309
 20
228.8072133759751
  0
VERTEX
  8
0
  6
CONTINUOUS
 62
     7
 10
70.75316091202919
 20
228.8151777626287
  0
VERTEX
  8
0
  6
CONTINUOUS
 62
     7
 10
70.73895687769478
 20
228.8235536513243
  0
VERTEX
  8
0
  6
CONTINUOUS
 62
     7
 10
70.72233259967608
 20
228.8341867339499
  0
VERTEX
  8
0
  6
CONTINUOUS
 62
     7
 10
70.70629591679678
 20
228.8453545854584
  0
VERTEX
  8
0
  6
CONTINUOUS
 62
     7
 10
70.69075429261181
 20
228.8571043617291
  0
VERTEX
  8
0
  6
CONTINUOUS
 62
     7
 10
70.67582551298325
 20
228.8693283541328
  0
VERTEX
  8
0
  6
CONTINUOUS
 62
     7
 10
70.66421289089347
 20
228.8795314031591
  0
VERTEX
  8
0
  6
CONTINUOUS
 62
     7
 10
70.65300545823673
 20
228.8900072389807
  0
VERTEX
  8
0
  6
CONTINUOUS
 62
     7
 10
70.64216598209497
 20
228.9007797451284
  0
VERTEX
  8
0
  6
CONTINUOUS
 62
     7
 10
70.6317358712525
 20
228.9117966122617
  0
VERTEX
  8
0
  6
CONTINUOUS
 62
     7
 10
70.61515679180297
 20
228.9307889332989
  0
VERTEX
  8
0
  6
CONTINUOUS
 62
     7
 10
70.6000110827237
 20
228.9499852236039
  0
VERTEX
  8
0
  6
CONTINUOUS
 62
     7
 10
70.58589441167537
 20
228.9697919313828
  0
VERTEX
  8
0
  6
CONTINUOUS
 62
     7
 10
70.57285752927567
 20
228.9900974996208
  0
VERTEX
  8
0
  6
CONTINUOUS
 62
     7
 10
70.56080156094174
 20
229.0110340377195
  0
VERTEX
  8
0
  6
CONTINUOUS
 62
     7
 10
70.54984098915241
 20
229.0323836748941
  0
VERTEX
  8
0
  6
CONTINUOUS
 62
     7
 10
70.53989508096087
 20
229.0542872935247
  0
VERTEX
  8
0
  6
CONTINUOUS
 62
     7
 10
70.53105790410204
 20
229.0765257635995
  0
VERTEX
  8
0
  6
CONTINUOUS
 62
     7
 10
70.52330534831452
 20
229.0991285015174
  0
VERTEX
  8
0
  6
CONTINUOUS
 62
     7
 10
70.51799456791056
 20
229.1170685761898
  0
VERTEX
  8
0
  6
CONTINUOUS
 62
     7
 10
70.51336334274937
 20
229.1351750731772
  0
VERTEX
  8
0
  6
CONTINUOUS
 62
     7
 10
70.50941970547267
 20
229.1534030299574
  0
VERTEX
  8
0
  6
CONTINUOUS
 62
     7
 10
70.50615096816738
 20
229.1718134681808
  0
VERTEX
  8
0
  6
CONTINUOUS
 62
     7
 10
70.50357530262887
 20
229.190313151868
  0
VERTEX
  8
0
  6
CONTINUOUS
 62
     7
 10
70.50168678963846
 20
229.2089641086471
  0
VERTEX
  8
0
  6
CONTINUOUS
 62
     7
 10
70.50049876437673
 20
229.2276725368484
  0
VERTEX
  8
0
  6
CONTINUOUS
 62
     7
 10
70.50001259387776
 20
229.2464512369586
  0
VERTEX
  8
0
  6
CONTINUOUS
 62
     7
 10
70.50000000000003
 20
229.2500000000002
  0
SEQEND
  8
0
  6
CONTINUOUS
 62
     7
  0
POLYLINE
  8
0
  6
CONTINUOUS
 62
     7
 66
     1
  0
VERTEX
  8
0
  6
CONTINUOUS
 62
     7
 10
66.25000000000023
 20
229.250019038468
  0
VERTEX
  8
0
  6
CONTINUOUS
 62
     7
 10
66.24039320291975
 20
229.3475625137191
  0
VERTEX
  8
0
  6
CONTINUOUS
 62
     7
 10
66.21194195982237
 20
229.44135634704
  0
VERTEX
  8
0
  6
CONTINUOUS
 62
     7
 10
66.165739530355
 20
229.5277964423724
  0
VERTEX
  8
0
  6
CONTINUOUS
 62
     7
 10
66.1035612763728
 20
229.6035612763727
  0
VERTEX
  8
0
  6
CONTINUOUS
 62
     7
 10
66.02779644237249
 20
229.6657395303549
  0
VERTEX
  8
0
  6
CONTINUOUS
 62
     7
 10
65.94135634704007
 20
229.7119419598223
  0
VERTEX
  8
0
  6
CONTINUOUS
 62
     7
 10
65.84756251371918
 20
229.7403932029197
  0
VERTEX
  8
0
  6
CONTINUOUS
 62
     7
 10
65.75001903846814
 20
229.7500000000001
  0
SEQEND
  8
0
  6
CONTINUOUS
 62
     7
  0
POLYLINE
  8
0
  6
CONTINUOUS
 62
     7
 66
     1
  0
VERTEX
  8
0
  6
CONTINUOUS
 62
     7
 10
64.7500000000002
 20
220.7499809615321
  0
VERTEX
  8
0
  6
CONTINUOUS
 62
     7
 10
64.75960679708068
 20
220.6524374862811
  0
VERTEX
  8
0
  6
CONTINUOUS
 62
     7
 10
64.78805804017806
 20
220.5586436529602
  0
VERTEX
  8
0
  6
CONTINUOUS
 62
     7
 10
64.83426046964543
 20
220.4722035576278
  0
VERTEX
  8
0
  6
CONTINUOUS
 62
     7
 10
64.89643872362763
 20
220.3964387236275
  0
VERTEX
  8
0
  6
CONTINUOUS
 62
     7
 10
64.97220355762794
 20
220.3342604696453
  0
VERTEX
  8
0
  6
CONTINUOUS
 62
     7
 10
65.05864365296036
 20
220.2880580401779
  0
VERTEX
  8
0
  6
CONTINUOUS
 62
     7
 10
65.15243748628124
 20
220.2596067970805
  0
VERTEX
  8
0
  6
CONTINUOUS
 62
     7
 10
65.24998096153229
 20
220.25
  0
SEQEND
  8
0
  6
CONTINUOUS
 62
     7
  0
POLYLINE
  8
0
  6
CONTINUOUS
 62
     7
 66
     1
  0
VERTEX
  8
0
  6
CONTINUOUS
 62
     7
 10
65.75001903846814
 20
220.25
  0
VERTEX
  8
0
  6
CONTINUOUS
 62
     7
 10
65.84756251371918
 20
220.2596067970805
  0
VERTEX
  8
0
  6
CONTINUOUS
 62
     7
 10
65.94135634704007
 20
220.2880580401779
  0
VERTEX
  8
0
  6
CONTINUOUS
 62
     7
 10
66.02779644237249
 20
220.3342604696453
  0
VERTEX
  8
0
  6
CONTINUOUS
 62
     7
 10
66.1035612763728
 20
220.3964387236275
  0
VERTEX
  8
0
  6
CONTINUOUS
 62
     7
 10
66.165739530355
 20
220.4722035576278
  0
VERTEX
  8
0
  6
CONTINUOUS
 62
     7
 10
66.21194195982237
 20
220.5586436529602
  0
VERTEX
  8
0
  6
CONTINUOUS
 62
     7
 10
66.24039320291975
 20
220.6524374862811
  0
VERTEX
  8
0
  6
CONTINUOUS
 62
     7
 10
66.25000000000023
 20
220.7499809615321
  0
SEQEND
  8
0
  6
CONTINUOUS
 62
     7
  0
POLYLINE
  8
0
  6
CONTINUOUS
 62
     7
 66
     1
  0
VERTEX
  8
0
  6
CONTINUOUS
 62
     7
 10
65.24998096153229
 20
229.7500000000001
  0
VERTEX
  8
0
  6
CONTINUOUS
 62
     7
 10
65.15243748628124
 20
229.7403932029197
  0
VERTEX
  8
0
  6
CONTINUOUS
 62
     7
 10
65.05864365296036
 20
229.7119419598223
  0
VERTEX
  8
0
  6
CONTINUOUS
 62
     7
 10
64.97220355762794
 20
229.6657395303549
  0
VERTEX
  8
0
  6
CONTINUOUS
 62
     7
 10
64.89643872362763
 20
229.6035612763727
  0
VERTEX
  8
0
  6
CONTINUOUS
 62
     7
 10
64.83426046964543
 20
229.5277964423724
  0
VERTEX
  8
0
  6
CONTINUOUS
 62
     7
 10
64.78805804017806
 20
229.44135634704
  0
VERTEX
  8
0
  6
CONTINUOUS
 62
     7
 10
64.75960679708068
 20
229.3475625137191
  0
VERTEX
  8
0
  6
CONTINUOUS
 62
     7
 10
64.7500000000002
 20
229.250019038468
  0
SEQEND
  8
0
  6
CONTINUOUS
 62
     7
  0
LINE
  8
0
  6
CONTINUOUS
 62
     7
 10
66.25000000000023
 20
220.7499809615321
 11
66.25000000000023
 21
229.250019038468
  0
LINE
  8
0
  6
CONTINUOUS
 62
     7
 10
65.2499809615323
 20
220.2500000000001
 11
65.75001903846814
 21
220.2500000000001
  0
LINE
  8
0
  6
CONTINUOUS
 62
     7
 10
65.75001903846814
 20
229.7500000000001
 11
65.24998096153232
 21
229.7500000000001
  0
LINE
  8
0
  6
CONTINUOUS
 62
     7
 10
64.75000000000023
 20
229.250019038468
 11
64.75000000000023
 21
220.7499809615321
  0
LINE
  8
0
  6
CONTINUOUS
 62
     7
 10
96.00000000000007
 20
215.1500000000001
 11
83.50000000000001
 21
215.15
  0
LINE
  8
0
  6
CONTINUOUS
 62
     7
 10
83.99999999999999
 20
234.85
 11
96.50000000000007
 21
234.85
  0
LINE
  8
0
  6
CONTINUOUS
 62
     7
 10
109.5
 20
229.2500000000002
 11
109.5
 21
220.7500000000001
  0
LINE
  8
0
  6
CONTINUOUS
 62
     7
 10
60.5
 20
221.0
 11
60.5
 21
229.0
  0
LINE
  8
0
  6
CONTINUOUS
 62
     7
 10
63.5
 20
232.0
 11
70.5
 21
232.0
  0
LINE
  8
0
  6
CONTINUOUS
 62
     7
 10
70.5
 20
218.0
 11
63.5
 21
218.0
  0
LINE
  8
0
  6
CONTINUOUS
 62
     7
 10
69.49999999999999
 20
230.0
 11
70.49999999999999
 21
230.0
  0
LINE
  8
0
  6
CONTINUOUS
 62
     7
 10
69.49999999999999
 20
218.7
 11
69.49999999999999
 21
230.0
  0
LINE
  8
0
  6
CONTINUOUS
 62
     7
 10
69.49999999999999
 20
218.7
 11
70.5
 21
218.7
  0
LINE
  8
0
  6
CONTINUOUS
 62
     7
 10
70.49999999999999
 20
220.7500000000001
 11
70.49999999999999
 21
229.2500000000002
  0
ARC
  8
0
  6
CONTINUOUS
 62
     7
 10
63.5
 20
229.0
 40
3.000000000000003
 50
90.0
 51
180.0
  0
ARC
  8
0
  6
CONTINUOUS
 62
     7
 10
63.5
 20
221.0
 40
3.000000000000003
 50
180.0
 51
270.0
  0
CIRCLE
  8
0
  6
CONTINUOUS
 62
     7
 10
79.5
 20
237.35
 40
1.249999999999987
  0
CIRCLE
  8
0
  6
CONTINUOUS
 62
     7
 10
90.0
 20
225.0
 40
5.430223136059689
  0
ENDBLK
  8
0
  0
BLOCK
  8
0
  2
D_FRAME_VIEW_1995
 70
     0
 10
0.0
 20
0.0
  0
LINE
  8
0
  6
CONTINUOUS
 62
     7
 10
141.5
 20
167.5
 11
143.0
 21
167.5
  0
ARC
  8
0
  6
CONTINUOUS
 62
     7
 10
141.5
 20
168.0
 40
0.5000000000000004
 50
180.0
 51
270.0
  0
LINE
  8
0
  6
CONTINUOUS
 62
     7
 10
141.0
 20
168.0
 11
141.0
 21
170.4
  0
LINE
  8
0
  6
CONTINUOUS
 62
     7
 10
141.0
 20
170.4
 11
143.0
 21
170.4
  0
LINE
  8
0
  6
CONTINUOUS
 62
     7
 10
157.0
 20
167.5
 11
143.0
 21
167.5
  0
ARC
  8
0
  6
CONTINUOUS
 62
     7
 10
140.65
 20
181.3999999999999
 40
0.5000000000000004
 50
90.0
 51
180.0
  0
LINE
  8
0
  6
CONTINUOUS
 62
     7
 10
140.65
 20
181.8999999999999
 11
141.15
 21
181.8999999999999
  0
LINE
  8
0
  6
CONTINUOUS
 62
     7
 10
159.85
 20
181.3999999999999
 11
159.85
 21
178.6248715732037
  0
LINE
  8
0
  6
CONTINUOUS
 62
     7
 10
158.85
 20
178.6161447054129
 11
159.85
 21
178.6248715732037
  0
LINE
  8
0
  6
CONTINUOUS
 62
     7
 10
158.85
 20
181.8999999999999
 11
159.35
 21
181.8999999999999
  0
ARC
  8
0
  6
CONTINUOUS
 62
     7
 10
159.35
 20
181.3999999999999
 40
0.5000000000000004
 50
0.0
 51
90.0
  0
LINE
  8
0
  6
CONTINUOUS
 62
     7
 10
140.15
 20
178.7470477222743
 11
141.15
 21
178.7383208544835
  0
LINE
  8
0
  6
CONTINUOUS
 62
     7
 10
140.15
 20
178.7470477222743
 11
140.15
 21
181.3999999999999
  0
LINE
  8
0
  6
CONTINUOUS
 62
     7
 10
145.7500000000001
 20
179.4
 11
146.2500000000001
 21
179.9
  0
LINE
  8
0
  6
CONTINUOUS
 62
     7
 10
146.2500000000001
 20
180.2894289005082
 11
145.7500000000001
 21
179.8880176322503
  0
LINE
  8
0
  6
CONTINUOUS
 62
     7
 10
146.2500000000001
 20
180.2894289005082
 11
146.2500000000001
 21
179.9
  0
ARC
  8
0
  6
CONTINUOUS
 62
     7
 10
150.0
 20
198.15
 40
18.25
 50
281.8575671494538
 51
296.7048522475759
  0
LINE
  8
0
  6
CONTINUOUS
 62
     7
 10
154.2500000000002
 20
179.8880176322504
 11
153.7500000000002
 21
180.2894289005083
  0
LINE
  8
0
  6
CONTINUOUS
 62
     7
 10
146.2500000000001
 20
179.9
 11
153.7500000000002
 21
179.9
  0
LINE
  8
0
  6
CONTINUOUS
 62
     7
 10
153.7500000000002
 20
179.9
 11
154.2500000000002
 21
179.4
  0
ARC
  8
0
  6
CONTINUOUS
 62
     7
 10
158.426149773176
 20
181.3999999999998
 40
0.5000000000000071
 50
90.0
 51
116.7048522475761
  0
LINE
  8
0
  6
CONTINUOUS
 62
     7
 10
158.426149773176
 20
181.8999999999999
 11
158.85
 21
181.8999999999999
  0
ARC
  8
0
  6
CONTINUOUS
 62
     7
 10
150.0
 20
198.15
 40
18.24999999999999
 50
243.295147752424
 51
258.1424328505473
  0
ARC
  8
0
  6
CONTINUOUS
 62
     7
 10
141.573850226824
 20
181.3999999999998
 40
0.5000000000000004
 50
63.29514775242393
 51
90.0
  0
LINE
  8
0
  6
CONTINUOUS
 62
     7
 10
157.0
 20
178.6
 11
141.15
 21
178.7383208544835
  0
LINE
  8
0
  6
CONTINUOUS
 62
     7
 10
158.85
 20
178.6161447054129
 11
157.0
 21
178.6
  0
LINE
  8
0
  6
CONTINUOUS
 62
     7
 10
141.15
 20
181.8999999999999
 11
141.573850226824
 21
181.8999999999999
  0
LINE
  8
0
  6
CONTINUOUS
 62
     7
 10
153.7500000000002
 20
179.9
 11
153.7500000000002
 21
180.2894289005083
  0
LINE
  8
0
  6
CONTINUOUS
 62
     7
 10
159.85
 20
178.6248715732037
 11
169.0
 21
178.7047224134891
  0
LINE
  8
0
  6
CONTINUOUS
 62
     7
 10
170.0
 20
183.9
 11
170.0
 21
178.7134492812799
  0
LINE
  8
0
  6
CONTINUOUS
 62
     7
 10
169.0
 20
178.7047224134891
 11
170.0
 21
178.7134492812799
  0
ARC
  8
0
  6
CONTINUOUS
 62
     7
 10
150.0
 20
198.15
 40
18.25000000000001
 50
296.704852247576
 51
297.4310014537045
  0
ARC
  8
0
  6
CONTINUOUS
 62
     7
 10
150.0
 20
198.15
 40
18.25000000000001
 50
297.4310014537045
 51
310.6586833720128
  0
LINE
  8
0
  6
CONTINUOUS
 62
     7
 10
162.747548783982
 20
184.9
 11
169.0
 21
184.9
  0
ARC
  8
0
  6
CONTINUOUS
 62
     7
 10
162.747548783982
 20
184.4
 40
0.5000000000000037
 50
89.99999999999966
 51
132.833428066067
  0
LINE
  8
0
  6
CONTINUOUS
 62
     7
 10
161.8908155169477
 20
184.3054701653716
 11
162.4076141497425
 21
184.7666666666667
  0
ARC
  8
0
  6
CONTINUOUS
 62
     7
 10
169.0
 20
183.9
 40
1.000000000000001
 50
0.0
 51
90.0
  0
LINE
  8
0
  6
CONTINUOUS
 62
     7
 10
164.2500605833473
 20
184.9
 11
164.2500605833473
 21
185.1
  0
LINE
  8
0
  6
CONTINUOUS
 62
     7
 10
164.2500605833469
 20
185.1
 11
164.3663949351873
 21
185.1
  0
LINE
  8
0
  6
CONTINUOUS
 62
     7
 10
164.3663949351873
 20
184.9
 11
164.3663949351873
 21
185.1
  0
LINE
  8
0
  6
CONTINUOUS
 62
     7
 10
163.5
 20
184.9
 11
163.5
 21
185.1
  0
LINE
  8
0
  6
CONTINUOUS
 62
     7
 10
163.5
 20
185.1
 11
164.2500605833473
 21
185.1
  0
LINE
  8
0
  6
CONTINUOUS
 62
     7
 10
164.769245008973
 20
185.1
 11
167.25
 21
185.1
  0
LINE
  8
0
  6
CONTINUOUS
 62
     7
 10
167.25
 20
184.9
 11
167.25
 21
185.1
  0
LINE
  8
0
  6
CONTINUOUS
 62
     7
 10
140.15
 20
178.0470477222743
 11
156.9999999999999
 21
177.9
  0
LINE
  8
0
  6
CONTINUOUS
 62
     7
 10
140.15
 20
178.0470477222743
 11
140.15
 21
178.7470477222743
  0
LINE
  8
0
  6
CONTINUOUS
 62
     7
 10
164.5753000052586
 20
184.9
 11
164.5753000052586
 21
185.1
  0
LINE
  8
0
  6
CONTINUOUS
 62
     7
 10
164.3663949351873
 20
185.1
 11
164.5753000052586
 21
185.1
  0
LINE
  8
0
  6
CONTINUOUS
 62
     7
 10
164.644602825495
 20
184.9
 11
164.644602825495
 21
185.1
  0
LINE
  8
0
  6
CONTINUOUS
 62
     7
 10
164.5753000052587
 20
185.1
 11
164.644602825495
 21
185.1
  0
LINE
  8
0
  6
CONTINUOUS
 62
     7
 10
156.9999999999999
 20
177.9
 11
159.85
 21
177.9248715732037
  0
LINE
  8
0
  6
CONTINUOUS
 62
     7
 10
159.85
 20
178.6248715732037
 11
159.85
 21
177.9248715732037
  0
LINE
  8
0
  6
CONTINUOUS
 62
     7
 10
164.644602825495
 20
185.1
 11
164.684358202771
 21
185.1
  0
LINE
  8
0
  6
CONTINUOUS
 62
     7
 10
164.684358202771
 20
184.9
 11
164.684358202771
 21
185.1
  0
LINE
  8
0
  6
CONTINUOUS
 62
     7
 10
164.7229160073963
 20
184.9
 11
164.7229160073963
 21
185.1
  0
LINE
  8
0
  6
CONTINUOUS
 62
     7
 10
164.684358202771
 20
185.1
 11
164.7229160073963
 21
185.1
  0
LINE
  8
0
  6
CONTINUOUS
 62
     7
 10
164.7414149678759
 20
184.9
 11
164.7414149678759
 21
185.1
  0
LINE
  8
0
  6
CONTINUOUS
 62
     7
 10
164.7229160073963
 20
185.1
 11
164.7414149678759
 21
185.1
  0
LINE
  8
0
  6
CONTINUOUS
 62
     7
 10
164.75
 20
184.9
 11
164.75
 21
185.1
  0
LINE
  8
0
  6
CONTINUOUS
 62
     7
 10
164.7414149678758
 20
185.1
 11
164.75
 21
185.1
  0
LINE
  8
0
  6
CONTINUOUS
 62
     7
 10
167.375
 20
185.1
 11
167.25
 21
185.1
  0
LINE
  8
0
  6
CONTINUOUS
 62
     7
 10
168.5
 20
184.9
 11
168.5
 21
185.1
  0
LINE
  8
0
  6
CONTINUOUS
 62
     7
 10
167.375
 20
185.1
 11
168.5
 21
185.1
  0
LINE
  8
0
  6
CONTINUOUS
 62
     7
 10
164.7622008467928
 20
185.1
 11
164.769245008973
 21
185.1
  0
LINE
  8
0
  6
CONTINUOUS
 62
     7
 10
159.8500000000001
 20
169.4
 11
159.85
 21
172.8751284267964
  0
LINE
  8
0
  6
CONTINUOUS
 62
     7
 10
159.8500000000001
 20
169.4
 11
148.0947441116743
 21
169.4
  0
LINE
  8
0
  6
CONTINUOUS
 62
     7
 10
149.1573059810031
 20
172.8315578461729
 11
148.0947441116743
 21
172.7452584050091
  0
LINE
  8
0
  6
CONTINUOUS
 62
     7
 10
149.1573059810031
 20
172.8315578461729
 11
157.0
 21
172.9000000000001
  0
LINE
  8
0
  6
CONTINUOUS
 62
     7
 10
157.0
 20
172.9000000000001
 11
159.85
 21
172.8751284267964
  0
LINE
  8
0
  6
CONTINUOUS
 62
     7
 10
145.4966679003209
 20
169.3886859966643
 11
145.5892501484008
 21
169.4
  0
LINE
  8
0
  6
CONTINUOUS
 62
     7
 10
145.4966679003209
 20
172.5342471391124
 11
148.0947441116743
 21
172.7452584050091
  0
LINE
  8
0
  6
CONTINUOUS
 62
     7
 10
148.0947441116743
 20
169.4
 11
145.5892501484008
 21
169.4
  0
LINE
  8
0
  6
CONTINUOUS
 62
     7
 10
159.85
 20
177.9248715732037
 11
170.0
 21
178.0134492812799
  0
LINE
  8
0
  6
CONTINUOUS
 62
     7
 10
170.0
 20
178.7134492812799
 11
170.0
 21
178.0134492812799
  0
ARC
  8
0
  6
CONTINUOUS
 62
     7
 10
146.4443062887932
 20
168.4290079589919
 40
1.438678589566989
 50
151.4506800851162
 51
181.1553284173041
  0
POLYLINE
  8
0
  6
CONTINUOUS
 62
     7
 66
     1
  0
VERTEX
  8
0
  6
CONTINUOUS
 62
     7
 10
145.1805623098461
 20
169.1165741301734
  0
VERTEX
  8
0
  6
CONTINUOUS
 62
     7
 10
145.2390485811177
 20
169.2028287078564
  0
VERTEX
  8
0
  6
CONTINUOUS
 62
     7
 10
145.3263139484631
 20
169.2954999069194
  0
VERTEX
  8
0
  6
CONTINUOUS
 62
     7
 10
145.4216564050255
 20
169.3600222447525
  0
VERTEX
  8
0
  6
CONTINUOUS
 62
     7
 10
145.4966679003209
 20
169.3886859966643
  0
SEQEND
  8
0
  6
CONTINUOUS
 62
     7
  0
LINE
  8
0
  6
CONTINUOUS
 62
     7
 10
159.85
 20
168.3999999999989
 11
159.8500000000001
 21
169.4
  0
LINE
  8
0
  6
CONTINUOUS
 62
     7
 10
143.8512196331305
 20
167.8
 11
143.7357495792926
 21
167.6
  0
LINE
  8
0
  6
CONTINUOUS
 62
     7
 10
143.8512196331305
 20
170.2
 11
143.8512196331305
 21
167.8
  0
LINE
  8
0
  6
CONTINUOUS
 62
     7
 10
143.7357495792926
 20
170.4
 11
143.8512196331305
 21
170.2
  0
LINE
  8
0
  6
CONTINUOUS
 62
     7
 10
141.0
 20
170.4
 11
140.5519237886467
 21
170.4
  0
LINE
  8
0
  6
CONTINUOUS
 62
     7
 10
140.5519237886467
 20
172.1326435564383
 11
140.9279974000795
 21
172.1631876060979
  0
LINE
  8
0
  6
CONTINUOUS
 62
     7
 10
140.9279974000795
 20
172.1631876060979
 11
140.9279974000795
 21
173.4000000000001
  0
LINE
  8
0
  6
CONTINUOUS
 62
     7
 10
142.1412059559347
 20
173.4000000000001
 11
142.1412059559347
 21
172.2617223111419
  0
LINE
  8
0
  6
CONTINUOUS
 62
     7
 10
145.0059201715098
 20
168.4
 11
145.0059201715098
 21
165.9
  0
POLYLINE
  8
0
  6
CONTINUOUS
 62
     7
 66
     1
  0
VERTEX
  8
0
  6
CONTINUOUS
 62
     7
 10
144.4285699023202
 20
164.9
  0
VERTEX
  8
0
  6
CONTINUOUS
 62
     7
 10
144.5412053522525
 20
164.9192147195968
  0
VERTEX
  8
0
  6
CONTINUOUS
 62
     7
 10
144.6495122850106
 20
164.9761204674887
  0
VERTEX
  8
0
  6
CONTINUOUS
 62
     7
 10
144.7253872600713
 20
165.0422713899997
  0
VERTEX
  8
0
  6
CONTINUOUS
 62
     7
 10
144.7948370357042
 20
165.1269895466373
  0
VERTEX
  8
0
  6
CONTINUOUS
 62
     7
 10
144.8563582340002
 20
165.228441045153
  0
VERTEX
  8
0
  6
CONTINUOUS
 62
     7
 10
144.908619106806
 20
165.3444297669804
  0
SEQEND
  8
0
  6
CONTINUOUS
 62
     7
  0
ARC
  8
0
  6
CONTINUOUS
 62
     7
 10
143.4404917185743
 20
165.8878592571814
 40
1.565475531235234
 50
339.6878938191974
 51
0.4443507949433183
  0
LINE
  8
0
  6
CONTINUOUS
 62
     7
 10
143.3316043908598
 20
164.9
 11
144.4285699023202
 21
164.9
  0
POLYLINE
  8
0
  6
CONTINUOUS
 62
     7
 66
     1
  0
VERTEX
  8
0
  6
CONTINUOUS
 62
     7
 10
143.042929256265
 20
165.4
  0
VERTEX
  8
0
  6
CONTINUOUS
 62
     7
 10
143.0432769781071
 20
165.3754661628363
  0
VERTEX
  8
0
  6
CONTINUOUS
 62
     7
 10
143.044319305941
 20
165.3509914298352
  0
VERTEX
  8
0
  6
CONTINUOUS
 62
     7
 10
143.0460537287077
 20
165.3266347627723
  0
VERTEX
  8
0
  6
CONTINUOUS
 62
     7
 10
143.0484760680308
 20
165.3024548389919
  0
VERTEX
  8
0
  6
CONTINUOUS
 62
     7
 10
143.0515804882827
 20
165.2785099100484
  0
VERTEX
  8
0
  6
CONTINUOUS
 62
     7
 10
143.0553595106431
 20
165.2548576613728
  0
VERTEX
  8
0
  6
CONTINUOUS
 62
     7
 10
143.0598040311162
 20
165.2315550733039
  0
VERTEX
  8
0
  6
CONTINUOUS
 62
     7
 10
143.0649033424627
 20
165.2086582838175
  0
VERTEX
  8
0
  6
CONTINUOUS
 62
     7
 10
143.0706451599951
 20
165.1862224532849
  0
VERTEX
  8
0
  6
CONTINUOUS
 62
     7
 10
143.077015651172
 20
165.164301631587
  0
VERTEX
  8
0
  6
CONTINUOUS
 62
     7
 10
143.0839994689222
 20
165.1429486279034
  0
VERTEX
  8
0
  6
CONTINUOUS
 62
     7
 10
143.0915797886169
 20
165.1222148834902
  0
VERTEX
  8
0
  6
CONTINUOUS
 62
     7
 10
143.0997383486021
 20
165.1021503477538
  0
VERTEX
  8
0
  6
CONTINUOUS
 62
     7
 10
143.1084554941922
 20
165.0828033579182
  0
VERTEX
  8
0
  6
CONTINUOUS
 62
     7
 10
143.1177102250198
 20
165.0642205225765
  0
VERTEX
  8
0
  6
CONTINUOUS
 62
     7
 10
143.1274802456279
 20
165.0464466094067
  0
VERTEX
  8
0
  6
CONTINUOUS
 62
     7
 10
143.137742019181
 20
165.0295244373226
  0
VERTEX
  8
0
  6
CONTINUOUS
 62
     7
 10
143.1484708241678
 20
165.0134947733186
  0
VERTEX
  8
0
  6
CONTINUOUS
 62
     7
 10
143.1596408139574
 20
164.9983962342597
  0
VERTEX
  8
0
  6
CONTINUOUS
 62
     7
 10
143.171225079066
 20
164.9842651938487
  0
VERTEX
  8
0
  6
CONTINUOUS
 62
     7
 10
143.1831957119843
 20
164.9711356949999
  0
VERTEX
  8
0
  6
CONTINUOUS
 62
     7
 10
143.195523874409
 20
164.9590393678259
  0
VERTEX
  8
0
  6
CONTINUOUS
 62
     7
 10
143.2081798667171
 20
164.9480053534383
  0
VERTEX
  8
0
  6
CONTINUOUS
 62
     7
 10
143.2211331995146
 20
164.9380602337444
  0
VERTEX
  8
0
  6
CONTINUOUS
 62
     7
 10
143.2343526670882
 20
164.9292279674085
  0
VERTEX
  8
0
  6
CONTINUOUS
 62
     7
 10
143.2478064225826
 20
164.9215298321339
  0
VERTEX
  8
0
  6
CONTINUOUS
 62
     7
 10
143.2614620547224
 20
164.9149843734027
  0
VERTEX
  8
0
  6
CONTINUOUS
 62
     7
 10
143.2752866658937
 20
164.9096073597984
  0
VERTEX
  8
0
  6
CONTINUOUS
 62
     7
 10
143.2892469513973
 20
164.9054117450176
  0
VERTEX
  8
0
  6
CONTINUOUS
 62
     7
 10
143.3033092796826
 20
164.9024076366639
  0
VERTEX
  8
0
  6
CONTINUOUS
 62
     7
 10
143.3174397733691
 20
164.9006022718974
  0
VERTEX
  8
0
  6
CONTINUOUS
 62
     7
 10
143.3316043908598
 20
164.9
  0
SEQEND
  8
0
  6
CONTINUOUS
 62
     7
  0
LINE
  8
0
  6
CONTINUOUS
 62
     7
 10
143.042929256265
 20
165.4
 11
143.042929256265
 21
167.5
  0
LINE
  8
0
  6
CONTINUOUS
 62
     7
 10
142.1412059559347
 20
172.2617223111419
 11
145.4966679003209
 21
172.5342471391124
  0
LINE
  8
0
  6
CONTINUOUS
 62
     7
 10
159.85
 20
164.9
 11
144.4285699023202
 21
164.9
  0
LINE
  8
0
  6
CONTINUOUS
 62
     7
 10
159.85
 20
165.8999999999988
 11
159.85
 21
164.9
  0
LINE
  8
0
  6
CONTINUOUS
 62
     7
 10
159.8500000000004
 20
168.3999999999989
 11
159.8500000000004
 21
165.8999999999988
  0
LINE
  8
0
  6
CONTINUOUS
 62
     7
 10
157.0000000000001
 20
173.4000000000001
 11
157.0
 21
177.9
  0
LINE
  8
0
  6
CONTINUOUS
 62
     7
 10
159.85
 20
172.8751284267964
 11
159.85
 21
177.9248715732037
  0
LINE
  8
0
  6
CONTINUOUS
 62
     7
 10
146.5
 20
177.991632111803
 11
146.5
 21
172.6157360406092
  0
LINE
  8
0
  6
CONTINUOUS
 62
     7
 10
146.2264838404305
 20
172.5935215301873
 11
146.2264838404305
 21
177.9940190511662
  0
LINE
  8
0
  6
CONTINUOUS
 62
     7
 10
142.1412059559347
 20
173.4000000000001
 11
140.9279974000795
 21
173.4000000000001
  0
LINE
  8
0
  6
CONTINUOUS
 62
     7
 10
140.15
 20
172.1
 11
140.15
 21
178.0470477222743
  0
LINE
  8
0
  6
CONTINUOUS
 62
     7
 10
140.15
 20
172.1
 11
140.5519237886467
 21
172.1326435564383
  0
LINE
  8
0
  6
CONTINUOUS
 62
     7
 10
140.5519237886467
 20
170.4
 11
140.15
 21
170.4
  0
LINE
  8
0
  6
CONTINUOUS
 62
     7
 10
140.15
 20
170.4
 11
140.15
 21
172.1
  0
LINE
  8
0
  6
CONTINUOUS
 62
     7
 10
143.3316043908598
 20
164.9
 11
140.15
 21
164.9
  0
LINE
  8
0
  6
CONTINUOUS
 62
     7
 10
140.15
 20
164.9
 11
140.15
 21
165.3999999999988
  0
LINE
  8
0
  6
CONTINUOUS
 62
     7
 10
141.2
 20
167.6
 11
140.1499999999996
 21
167.6
  0
LINE
  8
0
  6
CONTINUOUS
 62
     7
 10
140.1499999999996
 20
167.6
 11
140.1499999999996
 21
165.3999999999988
  0
LINE
  8
0
  6
CONTINUOUS
 62
     7
 10
140.15
 20
167.8
 11
140.15
 21
167.6
  0
LINE
  8
0
  6
CONTINUOUS
 62
     7
 10
140.15
 20
170.4
 11
140.15
 21
170.2
  0
LINE
  8
0
  6
CONTINUOUS
 62
     7
 10
140.15
 20
170.2
 11
140.15
 21
167.8
  0
LINE
  8
0
  6
CONTINUOUS
 62
     7
 10
140.15
 20
177.9248715732037
 11
131.0
 21
178.0047224134891
  0
LINE
  8
0
  6
CONTINUOUS
 62
     7
 10
130.0
 20
178.0134492812799
 11
130.0
 21
183.9
  0
LINE
  8
0
  6
CONTINUOUS
 62
     7
 10
131.0
 20
178.0047224134891
 11
130.0
 21
178.0134492812799
  0
ARC
  8
0
  6
CONTINUOUS
 62
     7
 10
150.0
 20
198.15
 40
18.25000000000001
 50
229.3413166279873
 51
242.5248021875011
  0
ARC
  8
0
  6
CONTINUOUS
 62
     7
 10
150.0
 20
198.15
 40
18.25000000000001
 50
242.5248021875011
 51
243.2951477524239
  0
LINE
  8
0
  6
CONTINUOUS
 62
     7
 10
131.0
 20
184.9
 11
137.252451216018
 21
184.9
  0
ARC
  8
0
  6
CONTINUOUS
 62
     7
 10
137.252451216018
 20
184.4
 40
0.5000000000000004
 50
49.50000000000033
 51
90.00000000000021
  0
ARC
  8
0
  6
CONTINUOUS
 62
     7
 10
137.252451216018
 20
184.4
 40
0.5000000000000081
 50
47.16657193393235
 51
49.50000000000033
  0
LINE
  8
0
  6
CONTINUOUS
 62
     7
 10
137.5923858502575
 20
184.7666666666667
 11
138.1091844830523
 21
184.3054701653716
  0
ARC
  8
0
  6
CONTINUOUS
 62
     7
 10
131.0
 20
183.9
 40
1.000000000000001
 50
90.0
 51
180.0
  0
LINE
  8
0
  6
CONTINUOUS
 62
     7
 10
145.2554767969019
 20
180.5275787640232
 11
145.2596376322307
 21
181.0043632677491
  0
LINE
  8
0
  6
CONTINUOUS
 62
     7
 10
154.7403623677695
 20
181.0043632677491
 11
154.7445233746265
 21
180.5275591088192
  0
LINE
  8
0
  6
CONTINUOUS
 62
     7
 10
145.7596185937627
 20
181.5
 11
154.2403814062374
 21
181.5
  0
ARC
  8
0
  6
CONTINUOUS
 62
     7
 10
154.2403814062374
 20
181.0
 40
0.5000000000000016
 50
0.5000000000000828
 51
90.0
  0
ARC
  8
0
  6
CONTINUOUS
 62
     7
 10
145.7596185937627
 20
181.0
 40
0.5000000000000016
 50
90.0
 51
179.5000000000004
  0
LINE
  8
0
  6
CONTINUOUS
 62
     7
 10
164.7622008467928
 20
185.1
 11
164.7622008467928
 21
184.9
  0
ARC
  8
0
  6
CONTINUOUS
 62
     7
 10
157.0
 20
172.9000000000001
 40
0.5000000000000018
 50
359.4999999999952
 51
180.5000000000049
  0
ENDBLK
  8
0
  0
BLOCK
  8
0
  2
D_FRAME_VIEW_1506
 70
     0
 10
0.0
 20
0.0
  0
LINE
  8
0
  6
CONTINUOUS
 62
     7
 10
80.99999999999999
 20
168.0
 11
80.99999999999999
 21
170.3936491673104
  0
LINE
  8
0
  6
CONTINUOUS
 62
     7
 10
97.0
 20
167.5
 11
98.5
 21
167.5
  0
ARC
  8
0
  6
CONTINUOUS
 62
     7
 10
98.5
 20
168.0
 40
0.5000000000000004
 50
270.0
 51
0.0
  0
LINE
  8
0
  6
CONTINUOUS
 62
     7
 10
97.0
 20
167.5
 11
83.0
 21
167.5
  0
LINE
  8
0
  6
CONTINUOUS
 62
     7
 10
82.25000000000011
 20
167.5
 11
82.99999999999999
 21
167.5
  0
ARC
  8
0
  6
CONTINUOUS
 62
     7
 10
81.49999999999999
 20
168.0
 40
0.4999999999999837
 50
180.0
 51
233.1301023541555
  0
LINE
  8
0
  6
CONTINUOUS
 62
     7
 10
97.0
 20
170.4
 11
94.21154273188007
 21
170.4
  0
LINE
  8
0
  6
CONTINUOUS
 62
     7
 10
99.0
 20
170.4
 11
99.0
 21
168.0
  0
LINE
  8
0
  6
CONTINUOUS
 62
     7
 10
97.0
 20
170.4
 11
99.0
 21
170.4
  0
ARC
  8
0
  6
CONTINUOUS
 62
     7
 10
78.18418097830383
 20
183.9
 40
1.000000000000002
 50
2.999999999999923
 51
89.99999999999996
  0
LINE
  8
0
  6
CONTINUOUS
 62
     7
 10
79.1828105130584
 20
183.952335956243
 11
79.49451173086787
 21
178.0047224134891
  0
LINE
  8
0
  6
CONTINUOUS
 62
     7
 10
79.49451173086787
 20
178.0047224134891
 11
78.49268202910895
 21
178.0134492812799
  0
LINE
  8
0
  6
CONTINUOUS
 62
     7
 10
70.50000000000003
 20
178.6161447054129
 11
71.50000000000003
 21
178.6248715732037
  0
LINE
  8
0
  6
CONTINUOUS
 62
     7
 10
71.50000000000003
 20
178.6248715732037
 11
72.53798890941701
 21
178.6248715732037
  0
LINE
  8
0
  6
CONTINUOUS
 62
     7
 10
72.54263107039125
 20
178.7134492812799
 11
74.54263107039125
 21
178.7134492812799
  0
LINE
  8
0
  6
CONTINUOUS
 62
     7
 10
74.9781828305231
 20
178.6218171694769
 11
74.53782883490064
 21
178.6218171694769
  0
LINE
  8
0
  6
CONTINUOUS
 62
     7
 10
70.50000000000318
 20
178.6
 11
74.99999999999999
 21
178.6
  0
LINE
  8
0
  6
CONTINUOUS
 62
     7
 10
70.50000000000003
 20
178.6161447054129
 11
70.50000000000318
 21
178.6
  0
LINE
  8
0
  6
CONTINUOUS
 62
     7
 10
72.53798890941701
 20
178.6248715732037
 11
72.54263107039125
 21
178.7134492812799
  0
LINE
  8
0
  6
CONTINUOUS
 62
     7
 10
74.54263107039125
 20
178.7134492812799
 11
74.53782883490064
 21
178.6218171694769
  0
LINE
  8
0
  6
CONTINUOUS
 62
     7
 10
78.49268202910895
 20
178.0134492812799
 11
77.49405437510684
 21
178.0134492812799
  0
LINE
  8
0
  6
CONTINUOUS
 62
     7
 10
74.75679811848687
 20
182.8
 11
77.24320188151307
 21
182.8
  0
LINE
  8
0
  6
CONTINUOUS
 62
     7
 10
77.24320188151307
 20
182.8
 11
77.49405437510684
 21
178.0134492812799
  0
LINE
  8
0
  6
CONTINUOUS
 62
     7
 10
72.81444667569825
 20
183.9
 11
72.54263107039125
 21
178.7134492812799
  0
LINE
  8
0
  6
CONTINUOUS
 62
     7
 10
74.75679811848687
 20
182.8
 11
74.54263107039125
 21
178.7134492812799
  0
POLYLINE
  8
0
  6
CONTINUOUS
 62
     7
 66
     1
  0
VERTEX
  8
0
  6
CONTINUOUS
 62
     7
 10
73.81581902169616
 20
184.9
  0
VERTEX
  8
0
  6
CONTINUOUS
 62
     7
 10
73.76838568756753
 20
184.8988744059257
  0
VERTEX
  8
0
  6
CONTINUOUS
 62
     7
 10
73.72105913479855
 20
184.8955001576269
  0
VERTEX
  8
0
  6
CONTINUOUS
 62
     7
 10
73.6739459043639
 20
184.8898848511713
  0
VERTEX
  8
0
  6
CONTINUOUS
 62
     7
 10
73.62715205700961
 20
184.8820411276703
  0
VERTEX
  8
0
  6
CONTINUOUS
 62
     7
 10
73.58078293449024
 20
184.8719866448213
  0
VERTEX
  8
0
  6
CONTINUOUS
 62
     7
 10
73.53494292242488
 20
184.8597440371569
  0
VERTEX
  8
0
  6
CONTINUOUS
 62
     7
 10
73.48973521530542
 20
184.8453408650903
  0
VERTEX
  8
0
  6
CONTINUOUS
 62
     7
 10
73.44526158418633
 20
184.8288095528719
  0
VERTEX
  8
0
  6
CONTINUOUS
 62
     7
 10
73.40162214757895
 20
184.8101873155958
  0
VERTEX
  8
0
  6
CONTINUOUS
 62
     7
 10
73.35891514606574
 20
184.7895160754219
  0
VERTEX
  8
0
  6
CONTINUOUS
 62
     7
 10
73.31723672114241
 20
184.766842367201
  0
VERTEX
  8
0
  6
CONTINUOUS
 62
     7
 10
73.27668069878517
 20
184.7422172337163
  0
VERTEX
  8
0
  6
CONTINUOUS
 62
     7
 10
73.2373383782309
 20
184.7156961107766
  0
VERTEX
  8
0
  6
CONTINUOUS
 62
     7
 10
73.19929832644539
 20
184.6873387024194
  0
VERTEX
  8
0
  6
CONTINUOUS
 62
     7
 10
73.16264617874239
 20
184.6572088465065
  0
VERTEX
  8
0
  6
CONTINUOUS
 62
     7
 10
73.1274644460024
 20
184.6253743710123
  0
VERTEX
  8
0
  6
CONTINUOUS
 62
     7
 10
73.09383232892526
 20
184.5919069413308
  0
VERTEX
  8
0
  6
CONTINUOUS
 62
     7
 10
73.0618255397343
 20
184.5568818989431
  0
VERTEX
  8
0
  6
CONTINUOUS
 62
     7
 10
73.03151613173402
 20
184.5203780918094
  0
VERTEX
  8
0
  6
CONTINUOUS
 62
     7
 10
73.00297233710455
 20
184.4824776968678
  0
VERTEX
  8
0
  6
CONTINUOUS
 62
     7
 10
72.97625841329803
 20
184.4432660350382
  0
VERTEX
  8
0
  6
CONTINUOUS
 62
     7
 10
72.95143449838315
 20
184.4028313791491
  0
VERTEX
  8
0
  6
CONTINUOUS
 62
     7
 10
72.92855647566296
 20
184.3612647552184
  0
VERTEX
  8
0
  6
CONTINUOUS
 62
     7
 10
72.90767584787108
 20
184.3186597375374
  0
VERTEX
  8
0
  6
CONTINUOUS
 62
     7
 10
72.88883962122932
 20
184.275112238017
  0
VERTEX
  8
0
  6
CONTINUOUS
 62
     7
 10
72.87209019962788
 20
184.230720290272
  0
VERTEX
  8
0
  6
CONTINUOUS
 62
     7
 10
72.85746528916616
 20
184.1855838289291
  0
VERTEX
  8
0
  6
CONTINUOUS
 62
     7
 10
72.84499781326923
 20
184.139804464655
  0
VERTEX
  8
0
  6
CONTINUOUS
 62
     7
 10
72.83471583857113
 20
184.0934852554122
  0
VERTEX
  8
0
  6
CONTINUOUS
 62
     7
 10
72.8266425117314
 20
184.0467304744554
  0
VERTEX
  8
0
  6
CONTINUOUS
 62
     7
 10
72.82079600732774
 20
183.9996453755934
  0
VERTEX
  8
0
  6
CONTINUOUS
 62
     7
 10
72.81718948694159
 20
183.952335956243
  0
SEQEND
  8
0
  6
CONTINUOUS
 62
     7
  0
LINE
  8
0
  6
CONTINUOUS
 62
     7
 10
73.81581902169616
 20
184.9
 11
78.18418097830383
 21
184.9
  0
LINE
  8
0
  6
CONTINUOUS
 62
     7
 10
72.81444667569825
 20
183.9
 11
72.81718948694159
 21
183.952335956243
  0
LINE
  8
0
  6
CONTINUOUS
 62
     7
 10
77.49885661059746
 20
177.921817169477
 11
75.67818283052307
 21
177.9218171694769
  0
LINE
  8
0
  6
CONTINUOUS
 62
     7
 10
79.49869653608111
 20
177.9248715732037
 11
79.49451173086787
 21
178.0047224134891
  0
LINE
  8
0
  6
CONTINUOUS
 62
     7
 10
79.49869653608111
 20
177.9248715732037
 11
79.92487157320369
 21
177.9248715732037
  0
LINE
  8
0
  6
CONTINUOUS
 62
     7
 10
79.92487157320369
 20
177.9248715732037
 11
79.90000000000002
 21
177.9
  0
LINE
  8
0
  6
CONTINUOUS
 62
     7
 10
75.69999999999996
 20
177.9
 11
79.90000000000002
 21
177.9
  0
LINE
  8
0
  6
CONTINUOUS
 62
     7
 10
75.69999999999996
 20
177.9
 11
75.67818283052307
 21
177.9218171694769
  0
LINE
  8
0
  6
CONTINUOUS
 62
     7
 10
77.49885661059746
 20
177.921817169477
 11
77.49405437510684
 21
178.0134492812799
  0
LINE
  8
0
  6
CONTINUOUS
 62
     7
 10
77.37596662761896
 20
180.266697732242
 11
74.62403337238099
 21
180.266697732242
  0
ARC
  8
0
  6
CONTINUOUS
 62
     7
 10
79.85000000000001
 20
165.9
 40
1.000000000000001
 50
180.0000000000682
 51
270.0
  0
LINE
  8
0
  6
CONTINUOUS
 62
     7
 10
78.85000000000001
 20
168.3999999999989
 11
78.85000000000001
 21
165.8999999999988
  0
ARC
  8
0
  6
CONTINUOUS
 62
     7
 10
77.85
 20
168.4
 40
1.000000000000001
 50
359.9999999999339
 51
90.0000000000033
  0
LINE
  8
0
  6
CONTINUOUS
 62
     7
 10
77.84999999999995
 20
169.4
 11
76.50000000000006
 21
169.4
  0
LINE
  8
0
  6
CONTINUOUS
 62
     7
 10
76.50000000000003
 20
172.8751284267964
 11
76.50000000000006
 21
169.4
  0
LINE
  8
0
  6
CONTINUOUS
 62
     7
 10
79.92487157320369
 20
172.8751284267964
 11
76.50000000000003
 21
172.8751284267964
  0
LINE
  8
0
  6
CONTINUOUS
 62
     7
 10
79.92487157320369
 20
177.9248715732037
 11
79.92487157320369
 21
172.8751284267964
  0
LINE
  8
0
  6
CONTINUOUS
 62
     7
 10
96.00000000000007
 20
179.8999999999999
 11
83.50000000000001
 21
179.9
  0
LINE
  8
0
  6
CONTINUOUS
 62
     7
 10
96.00000000000007
 20
181.3999999999999
 11
96.00000000000007
 21
179.8999999999999
  0
LINE
  8
0
  6
CONTINUOUS
 62
     7
 10
105.1470477222743
 20
178.7470477222743
 11
108.5
 21
178.7470477222743
  0
LINE
  8
0
  6
CONTINUOUS
 62
     7
 10
104.4470477222743
 20
178.0470477222743
 11
105.1470477222743
 21
178.7470477222743
  0
LINE
  8
0
  6
CONTINUOUS
 62
     7
 10
90.25000000000001
 20
178.0470477222743
 11
104.4470477222743
 21
178.0470477222743
  0
LINE
  8
0
  6
CONTINUOUS
 62
     7
 10
91.93545196815319
 20
172.1
 11
90.25000000000003
 21
172.1
  0
LINE
  8
0
  6
CONTINUOUS
 62
     7
 10
81.05000000000001
 20
170.4
 11
91.93545196815319
 21
170.4
  0
ARC
  8
0
  6
CONTINUOUS
 62
     7
 10
81.05000000000001
 20
170.2
 40
0.1999999999999919
 50
90.0
 51
180.0000000000002
  0
LINE
  8
0
  6
CONTINUOUS
 62
     7
 10
80.85000000000002
 20
170.2
 11
80.85000000000002
 21
167.8
  0
ARC
  8
0
  6
CONTINUOUS
 62
     7
 10
81.05000000000001
 20
167.8
 40
0.2000000000000057
 50
180.0
 51
270.0000000000005
  0
LINE
  8
0
  6
CONTINUOUS
 62
     7
 10
82.25000000000011
 20
167.6
 11
82.25000000000011
 21
165.3999999999988
  0
LINE
  8
0
  6
CONTINUOUS
 62
     7
 10
79.85000000000001
 20
164.9
 11
81.75000000000014
 21
164.9
  0
LINE
  8
0
  6
CONTINUOUS
 62
     7
 10
83.49999999999999
 20
177.9
 11
83.49999999999999
 21
172.9
  0
LINE
  8
0
  6
CONTINUOUS
 62
     7
 10
89.0
 20
172.9
 11
83.49999999999999
 21
172.9
  0
LINE
  8
0
  6
CONTINUOUS
 62
     7
 10
89.0
 20
172.9
 11
89.0
 21
177.9
  0
LINE
  8
0
  6
CONTINUOUS
 62
     7
 10
89.0
 20
177.9
 11
83.49999999999999
 21
177.9
  0
LINE
  8
0
  6
CONTINUOUS
 62
     7
 10
81.05000000000001
 20
167.6
 11
82.25000000000011
 21
167.6
  0
ARC
  8
0
  6
CONTINUOUS
 62
     7
 10
81.75000000000014
 20
165.4
 40
0.5000000000000004
 50
270.0000000000002
 51
359.9999999998603
  0
LINE
  8
0
  6
CONTINUOUS
 62
     7
 10
100.1
 20
177.9
 11
104.3
 21
177.9
  0
LINE
  8
0
  6
CONTINUOUS
 62
     7
 10
100.1
 20
177.991632111803
 11
99.34852052772692
 21
177.9940190511662
  0
LINE
  8
0
  6
CONTINUOUS
 62
     7
 10
90.25000000000003
 20
178.0470477222743
 11
99.3485205277269
 21
177.9940190511662
  0
LINE
  8
0
  6
CONTINUOUS
 62
     7
 10
104.4470477222743
 20
178.0470477222743
 11
104.3
 21
177.9
  0
LINE
  8
0
  6
CONTINUOUS
 62
     7
 10
96.18816942945925
 20
173.4000000000001
 11
96.18816942945924
 21
172.2617223111419
  0
LINE
  8
0
  6
CONTINUOUS
 62
     7
 10
96.18816942945926
 20
173.4000000000001
 11
94.08683057054076
 21
173.4000000000001
  0
LINE
  8
0
  6
CONTINUOUS
 62
     7
 10
94.08683057054078
 20
172.1631876060979
 11
94.08683057054076
 21
173.4000000000001
  0
POLYLINE
  8
0
  6
CONTINUOUS
 62
     7
 66
     1
  0
VERTEX
  8
0
  6
CONTINUOUS
 62
     7
 10
90.25000000000001
 20
172.1000000000001
  0
VERTEX
  8
0
  6
CONTINUOUS
 62
     7
 10
92.20745681827
 20
172.1159560231972
  0
VERTEX
  8
0
  6
CONTINUOUS
 62
     7
 10
94.08683057054077
 20
172.1631876060979
  0
SEQEND
  8
0
  6
CONTINUOUS
 62
     7
  0
LINE
  8
0
  6
CONTINUOUS
 62
     7
 10
99.34852052772692
 20
172.5935215301873
 11
99.34852052772692
 21
177.9940190511662
  0
POLYLINE
  8
0
  6
CONTINUOUS
 62
     7
 66
     1
  0
VERTEX
  8
0
  6
CONTINUOUS
 62
     7
 10
96.18816942945922
 20
172.261722311142
  0
VERTEX
  8
0
  6
CONTINUOUS
 62
     7
 10
97.47818409120083
 20
172.3565298456561
  0
VERTEX
  8
0
  6
CONTINUOUS
 62
     7
 10
98.54270424757605
 20
172.4682917814539
  0
VERTEX
  8
0
  6
CONTINUOUS
 62
     7
 10
99.34852052772693
 20
172.5935215301873
  0
SEQEND
  8
0
  6
CONTINUOUS
 62
     7
  0
LINE
  8
0
  6
CONTINUOUS
 62
     7
 10
93.43545196815319
 20
172.1326435564383
 11
94.08683057054078
 21
172.1631876060979
  0
LINE
  8
0
  6
CONTINUOUS
 62
     7
 10
91.93545196815319
 20
172.1
 11
93.43545196815319
 21
172.1326435564383
  0
LINE
  8
0
  6
CONTINUOUS
 62
     7
 10
108.5
 20
178.7470477222743
 11
109.5
 21
178.7383208544835
  0
LINE
  8
0
  6
CONTINUOUS
 62
     7
 10
109.5
 20
178.6
 11
109.5
 21
178.7383208544835
  0
LINE
  8
0
  6
CONTINUOUS
 62
     7
 10
109.5
 20
178.6
 11
105.0
 21
178.6
  0
LINE
  8
0
  6
CONTINUOUS
 62
     7
 10
70.50000000000003
 20
178.6161447054129
 11
70.50000000000003
 21
181.3999999999999
  0
LINE
  8
0
  6
CONTINUOUS
 62
     7
 10
109.5
 20
181.3999999999999
 11
109.5
 21
178.7383208544835
  0
LINE
  8
0
  6
CONTINUOUS
 62
     7
 10
93.43545196815319
 20
170.4
 11
91.93545196815319
 21
170.4
  0
LINE
  8
0
  6
CONTINUOUS
 62
     7
 10
108.5
 20
181.8999999999999
 11
109.0
 21
181.8999999999999
  0
ARC
  8
0
  6
CONTINUOUS
 62
     7
 10
109.0
 20
181.3999999999999
 40
0.5000000000000004
 50
359.9999999999996
 51
89.99999999999962
  0
LINE
  8
0
  6
CONTINUOUS
 62
     7
 10
71.00000000000003
 20
181.8999999999999
 11
71.50000000000003
 21
181.8999999999999
  0
ARC
  8
0
  6
CONTINUOUS
 62
     7
 10
71.00000000000003
 20
181.3999999999999
 40
0.5000000000000004
 50
90.0
 51
180.0
  0
POLYLINE
  8
0
  6
CONTINUOUS
 62
     7
 66
     1
  0
VERTEX
  8
0
  6
CONTINUOUS
 62
     7
 10
96.00000000000007
 20
181.3999999999999
  0
VERTEX
  8
0
  6
CONTINUOUS
 62
     7
 10
96.00060227189748
 20
181.4245338371637
  0
VERTEX
  8
0
  6
CONTINUOUS
 62
     7
 10
96.00240763666396
 20
181.4490085701647
  0
VERTEX
  8
0
  6
CONTINUOUS
 62
     7
 10
96.00541174501767
 20
181.4733652372276
  0
VERTEX
  8
0
  6
CONTINUOUS
 62
     7
 10
96.00960735979845
 20
181.497545161008
  0
VERTEX
  8
0
  6
CONTINUOUS
 62
     7
 10
96.0149843734028
 20
181.5214900899516
  0
VERTEX
  8
0
  6
CONTINUOUS
 62
     7
 10
96.02152983213396
 20
181.5451423386272
  0
VERTEX
  8
0
  6
CONTINUOUS
 62
     7
 10
96.02922796740854
 20
181.568444926696
  0
VERTEX
  8
0
  6
CONTINUOUS
 62
     7
 10
96.03806023374442
 20
181.5913417161825
  0
VERTEX
  8
0
  6
CONTINUOUS
 62
     7
 10
96.04800535343834
 20
181.6137775467151
  0
VERTEX
  8
0
  6
CONTINUOUS
 62
     7
 10
96.05903936782589
 20
181.635698368413
  0
VERTEX
  8
0
  6
CONTINUOUS
 62
     7
 10
96.07113569499994
 20
181.6570513720966
  0
VERTEX
  8
0
  6
CONTINUOUS
 62
     7
 10
96.0842651938488
 20
181.6777851165097
  0
VERTEX
  8
0
  6
CONTINUOUS
 62
     7
 10
96.09839623425974
 20
181.6978496522462
  0
VERTEX
  8
0
  6
CONTINUOUS
 62
     7
 10
96.11349477331869
 20
181.7171966420818
  0
VERTEX
  8
0
  6
CONTINUOUS
 62
     7
 10
96.12952443732259
 20
181.7357794774235
  0
VERTEX
  8
0
  6
CONTINUOUS
 62
     7
 10
96.14644660940678
 20
181.7535533905932
  0
VERTEX
  8
0
  6
CONTINUOUS
 62
     7
 10
96.16422052257656
 20
181.7704755626774
  0
VERTEX
  8
0
  6
CONTINUOUS
 62
     7
 10
96.18280335791825
 20
181.7865052266813
  0
VERTEX
  8
0
  6
CONTINUOUS
 62
     7
 10
96.20215034775386
 20
181.8016037657403
  0
VERTEX
  8
0
  6
CONTINUOUS
 62
     7
 10
96.22221488349027
 20
181.8157348061512
  0
VERTEX
  8
0
  6
CONTINUOUS
 62
     7
 10
96.24294862790346
 20
181.8288643050001
  0
VERTEX
  8
0
  6
CONTINUOUS
 62
     7
 10
96.26430163158707
 20
181.8409606321741
  0
VERTEX
  8
0
  6
CONTINUOUS
 62
     7
 10
96.28622245328492
 20
181.8519946465617
  0
VERTEX
  8
0
  6
CONTINUOUS
 62
     7
 10
96.30865828381751
 20
181.8619397662556
  0
VERTEX
  8
0
  6
CONTINUOUS
 62
     7
 10
96.33155507330396
 20
181.8707720325915
  0
VERTEX
  8
0
  6
CONTINUOUS
 62
     7
 10
96.35485766137283
 20
181.8784701678661
  0
VERTEX
  8
0
  6
CONTINUOUS
 62
     7
 10
96.37850991004842
 20
181.8850156265972
  0
VERTEX
  8
0
  6
CONTINUOUS
 62
     7
 10
96.402454838992
 20
181.8903926402016
  0
VERTEX
  8
0
  6
CONTINUOUS
 62
     7
 10
96.42663476277238
 20
181.8945882549823
  0
VERTEX
  8
0
  6
CONTINUOUS
 62
     7
 10
96.45099142983527
 20
181.8975923633361
  0
VERTEX
  8
0
  6
CONTINUOUS
 62
     7
 10
96.47546616283636
 20
181.8993977281025
  0
VERTEX
  8
0
  6
CONTINUOUS
 62
     7
 10
96.50000000000006
 20
181.8999999999999
  0
SEQEND
  8
0
  6
CONTINUOUS
 62
     7
  0
LINE
  8
0
  6
CONTINUOUS
 62
     7
 10
96.50000000000007
 20
181.8999999999999
 11
108.5
 21
181.8999999999999
  0
LINE
  8
0
  6
CONTINUOUS
 62
     7
 10
84.00000000000001
 20
181.3999999999999
 11
84.00000000000001
 21
179.8999999999999
  0
LINE
  8
0
  6
CONTINUOUS
 62
     7
 10
79.92487157320369
 20
172.8751284267964
 11
79.90000000000002
 21
172.9000000000001
  0
LINE
  8
0
  6
CONTINUOUS
 62
     7
 10
79.90000000000002
 20
172.9000000000001
 11
79.90000000000002
 21
177.9
  0
LINE
  8
0
  6
CONTINUOUS
 62
     7
 10
77.00000000000001
 20
172.9000000000001
 11
76.50000000000003
 21
172.9000000000001
  0
POLYLINE
  8
0
  6
CONTINUOUS
 62
     7
 66
     1
  0
VERTEX
  8
0
  6
CONTINUOUS
 62
     7
 10
77.00000000000001
 20
172.9000000000001
  0
VERTEX
  8
0
  6
CONTINUOUS
 62
     7
 10
77.0096073597984
 20
172.8991487686898
  0
VERTEX
  8
0
  6
CONTINUOUS
 62
     7
 10
77.03806023374437
 20
172.8983302497215
  0
VERTEX
  8
0
  6
CONTINUOUS
 62
     7
 10
77.08426519384874
 20
172.8975758983199
  0
VERTEX
  8
0
  6
CONTINUOUS
 62
     7
 10
77.14644660940674
 20
172.8969147037865
  0
VERTEX
  8
0
  6
CONTINUOUS
 62
     7
 10
77.22221488349021
 20
172.8963720754563
  0
VERTEX
  8
0
  6
CONTINUOUS
 62
     7
 10
77.30865828381746
 20
172.8959688662317
  0
VERTEX
  8
0
  6
CONTINUOUS
 62
     7
 10
77.40245483899194
 20
172.8957205712172
  0
VERTEX
  8
0
  6
CONTINUOUS
 62
     7
 10
77.50000000000001
 20
172.8956367322509
  0
VERTEX
  8
0
  6
CONTINUOUS
 62
     7
 10
77.59754516100807
 20
172.8957205712172
  0
VERTEX
  8
0
  6
CONTINUOUS
 62
     7
 10
77.69134171618255
 20
172.8959688662317
  0
VERTEX
  8
0
  6
CONTINUOUS
 62
     7
 10
77.77778511650982
 20
172.8963720754563
  0
VERTEX
  8
0
  6
CONTINUOUS
 62
     7
 10
77.85355339059329
 20
172.8969147037865
  0
VERTEX
  8
0
  6
CONTINUOUS
 62
     7
 10
77.91573480615128
 20
172.8975758983199
  0
VERTEX
  8
0
  6
CONTINUOUS
 62
     7
 10
77.96193976625565
 20
172.8983302497215
  0
VERTEX
  8
0
  6
CONTINUOUS
 62
     7
 10
77.99039264020163
 20
172.8991487686898
  0
VERTEX
  8
0
  6
CONTINUOUS
 62
     7
 10
78.00000000000001
 20
172.9000000000001
  0
SEQEND
  8
0
  6
CONTINUOUS
 62
     7
  0
LINE
  8
0
  6
CONTINUOUS
 62
     7
 10
79.90000000000002
 20
172.9000000000001
 11
78.00000000000001
 21
172.9000000000001
  0
LINE
  8
0
  6
CONTINUOUS
 62
     7
 10
76.50000000000003
 20
172.8751284267964
 11
76.50000000000003
 21
172.9000000000001
  0
LINE
  8
0
  6
CONTINUOUS
 62
     7
 10
71.50000000000003
 20
181.8999999999999
 11
72.70963111713216
 21
181.8999999999999
  0
LINE
  8
0
  6
CONTINUOUS
 62
     7
 10
79.29036888286784
 20
181.8999999999999
 11
83.50000000000001
 21
181.8999999999999
  0
ARC
  8
0
  6
CONTINUOUS
 62
     7
 10
83.50000000000001
 20
181.3999999999999
 40
0.5000000000000004
 50
0.0
 51
90.00000000000009
  0
LINE
  8
0
  6
CONTINUOUS
 62
     7
 10
75.67818283052307
 20
177.9218171694769
 11
74.9781828305231
 21
178.6218171694769
  0
LINE
  8
0
  6
CONTINUOUS
 62
     7
 10
98.95
 20
167.6
 11
98.8
 21
167.6
  0
POLYLINE
  8
0
  6
CONTINUOUS
 62
     7
 66
     1
  0
VERTEX
  8
0
  6
CONTINUOUS
 62
     7
 10
99.15
 20
167.8
  0
VERTEX
  8
0
  6
CONTINUOUS
 62
     7
 10
99.12154572200006
 20
167.6971794511614
  0
VERTEX
  8
0
  6
CONTINUOUS
 62
     7
 10
99.0442793473652
 20
167.6236157471303
  0
VERTEX
  8
0
  6
CONTINUOUS
 62
     7
 10
98.95
 20
167.6
  0
SEQEND
  8
0
  6
CONTINUOUS
 62
     7
  0
LINE
  8
0
  6
CONTINUOUS
 62
     7
 10
99.15
 20
170.2
 11
99.15
 21
167.8
  0
LINE
  8
0
  6
CONTINUOUS
 62
     7
 10
99.0
 20
170.3936491673104
 11
99.15
 21
170.2
  0
LINE
  8
0
  6
CONTINUOUS
 62
     7
 10
96.18816942945924
 20
172.2617223111419
 11
102.0
 21
172.5342471391124
  0
ARC
  8
0
  6
CONTINUOUS
 62
     7
 10
102.1500000000001
 20
168.4
 40
1.000000000000001
 50
98.62692655868335
 51
180.0
  0
LINE
  8
0
  6
CONTINUOUS
 62
     7
 10
101.1500000000001
 20
168.4
 11
101.1500000000001
 21
165.9
  0
ARC
  8
0
  6
CONTINUOUS
 62
     7
 10
100.1500000000001
 20
165.9
 40
1.000000000000001
 50
270.0
 51
0.0
  0
LINE
  8
0
  6
CONTINUOUS
 62
     7
 10
98.25
 20
164.9
 11
100.1500000000001
 21
164.9
  0
POLYLINE
  8
0
  6
CONTINUOUS
 62
     7
 66
     1
  0
VERTEX
  8
0
  6
CONTINUOUS
 62
     7
 10
97.75
 20
165.4
  0
VERTEX
  8
0
  6
CONTINUOUS
 62
     7
 10
97.7506022718974
 20
165.3754661628363
  0
VERTEX
  8
0
  6
CONTINUOUS
 62
     7
 10
97.7524076366639
 20
165.3509914298352
  0
VERTEX
  8
0
  6
CONTINUOUS
 62
     7
 10
97.7554117450176
 20
165.3266347627723
  0
VERTEX
  8
0
  6
CONTINUOUS
 62
     7
 10
97.75960735979838
 20
165.3024548389919
  0
VERTEX
  8
0
  6
CONTINUOUS
 62
     7
 10
97.76498437340273
 20
165.2785099100484
  0
VERTEX
  8
0
  6
CONTINUOUS
 62
     7
 10
97.7715298321339
 20
165.2548576613728
  0
VERTEX
  8
0
  6
CONTINUOUS
 62
     7
 10
97.77922796740847
 20
165.2315550733039
  0
VERTEX
  8
0
  6
CONTINUOUS
 62
     7
 10
97.78806023374435
 20
165.2086582838175
  0
VERTEX
  8
0
  6
CONTINUOUS
 62
     7
 10
97.79800535343827
 20
165.1862224532849
  0
VERTEX
  8
0
  6
CONTINUOUS
 62
     7
 10
97.80903936782582
 20
165.164301631587
  0
VERTEX
  8
0
  6
CONTINUOUS
 62
     7
 10
97.82113569499987
 20
165.1429486279034
  0
VERTEX
  8
0
  6
CONTINUOUS
 62
     7
 10
97.83426519384872
 20
165.1222148834902
  0
VERTEX
  8
0
  6
CONTINUOUS
 62
     7
 10
97.84839623425967
 20
165.1021503477538
  0
VERTEX
  8
0
  6
CONTINUOUS
 62
     7
 10
97.86349477331862
 20
165.0828033579182
  0
VERTEX
  8
0
  6
CONTINUOUS
 62
     7
 10
97.87952443732252
 20
165.0642205225765
  0
VERTEX
  8
0
  6
CONTINUOUS
 62
     7
 10
97.89644660940671
 20
165.0464466094067
  0
VERTEX
  8
0
  6
CONTINUOUS
 62
     7
 10
97.91422052257649
 20
165.0295244373226
  0
VERTEX
  8
0
  6
CONTINUOUS
 62
     7
 10
97.93280335791817
 20
165.0134947733186
  0
VERTEX
  8
0
  6
CONTINUOUS
 62
     7
 10
97.95215034775379
 20
164.9983962342597
  0
VERTEX
  8
0
  6
CONTINUOUS
 62
     7
 10
97.9722148834902
 20
164.9842651938487
  0
VERTEX
  8
0
  6
CONTINUOUS
 62
     7
 10
97.99294862790339
 20
164.9711356949999
  0
VERTEX
  8
0
  6
CONTINUOUS
 62
     7
 10
98.014301631587
 20
164.9590393678259
  0
VERTEX
  8
0
  6
CONTINUOUS
 62
     7
 10
98.03622245328486
 20
164.9480053534383
  0
VERTEX
  8
0
  6
CONTINUOUS
 62
     7
 10
98.05865828381745
 20
164.9380602337444
  0
VERTEX
  8
0
  6
CONTINUOUS
 62
     7
 10
98.08155507330389
 20
164.9292279674085
  0
VERTEX
  8
0
  6
CONTINUOUS
 62
     7
 10
98.10485766137276
 20
164.9215298321339
  0
VERTEX
  8
0
  6
CONTINUOUS
 62
     7
 10
98.12850991004836
 20
164.9149843734027
  0
VERTEX
  8
0
  6
CONTINUOUS
 62
     7
 10
98.15245483899193
 20
164.9096073597984
  0
VERTEX
  8
0
  6
CONTINUOUS
 62
     7
 10
98.17663476277231
 20
164.9054117450176
  0
VERTEX
  8
0
  6
CONTINUOUS
 62
     7
 10
98.20099142983521
 20
164.9024076366639
  0
VERTEX
  8
0
  6
CONTINUOUS
 62
     7
 10
98.22546616283628
 20
164.9006022718974
  0
VERTEX
  8
0
  6
CONTINUOUS
 62
     7
 10
98.25
 20
164.9
  0
SEQEND
  8
0
  6
CONTINUOUS
 62
     7
  0
LINE
  8
0
  6
CONTINUOUS
 62
     7
 10
97.75
 20
165.4
 11
97.75
 21
167.5
  0
LINE
  8
0
  6
CONTINUOUS
 62
     7
 10
94.21154273188007
 20
170.4
 11
93.43545196815319
 21
170.4
  0
ARC
  8
0
  6
CONTINUOUS
 62
     7
 10
101.7827230812092
 20
181.0248664899918
 40
8.493398979264233
 50
271.4658923599793
 51
281.1756231440474
  0
LINE
  8
0
  6
CONTINUOUS
 62
     7
 10
103.4288880213598
 20
172.6925218493288
 11
103.5
 21
172.7452584050091
  0
LINE
  8
0
  6
CONTINUOUS
 62
     7
 10
100.1
 20
172.6157360406092
 11
99.34852052772692
 21
172.5935215301873
  0
LINE
  8
0
  6
CONTINUOUS
 62
     7
 10
100.1
 20
172.8315578461729
 11
103.5
 21
172.8315578461729
  0
LINE
  8
0
  6
CONTINUOUS
 62
     7
 10
103.5
 20
172.8315578461729
 11
103.5
 21
172.7452584050091
  0
LINE
  8
0
  6
CONTINUOUS
 62
     7
 10
63.5
 20
179.9
 11
70.5
 21
179.9
  0
LINE
  8
0
  6
CONTINUOUS
 62
     7
 10
61.0
 20
179.9
 11
63.5
 21
179.9
  0
ARC
  8
0
  6
CONTINUOUS
 62
     7
 10
60.99999999999999
 20
179.4
 40
0.5000000000000004
 50
89.99999999999962
 51
180.0
  0
LINE
  8
0
  6
CONTINUOUS
 62
     7
 10
60.5
 20
178.6
 11
63.5
 21
178.6
  0
LINE
  8
0
  6
CONTINUOUS
 62
     7
 10
60.5
 20
178.6
 11
60.5
 21
179.4
  0
LINE
  8
0
  6
CONTINUOUS
 62
     7
 10
70.50000000000318
 20
178.6
 11
63.5
 21
178.6
  0
LINE
  8
0
  6
CONTINUOUS
 62
     7
 10
66.2403623677696
 20
181.0043632677491
 11
66.25000000000023
 21
179.9
  0
LINE
  8
0
  6
CONTINUOUS
 62
     7
 10
64.75000000000023
 20
179.9
 11
64.75963763223083
 21
181.0043632677491
  0
ARC
  8
0
  6
CONTINUOUS
 62
     7
 10
65.25961859376292
 20
181.0
 40
0.5000000000000004
 50
90.0
 51
179.5000000000004
  0
LINE
  8
0
  6
CONTINUOUS
 62
     7
 10
65.25961859376292
 20
181.5
 11
65.74038140623752
 21
181.5
  0
ARC
  8
0
  6
CONTINUOUS
 62
     7
 10
65.74038140623752
 20
181.0
 40
0.5000000000000016
 50
0.5000000000000812
 51
90.0
  0
LINE
  8
0
  6
CONTINUOUS
 62
     7
 10
103.5
 20
172.7452584050091
 11
103.5000000000001
 21
169.4
  0
LINE
  8
0
  6
CONTINUOUS
 62
     7
 10
103.5
 20
169.4
 11
102.1500000000001
 21
169.4
  0
LINE
  8
0
  6
CONTINUOUS
 62
     7
 10
102.0
 20
169.3886859966643
 11
102.1500000000001
 21
169.4
  0
LINE
  8
0
  6
CONTINUOUS
 62
     7
 10
100.1
 20
177.991632111803
 11
100.1
 21
172.6157360406092
  0
ARC
  8
0
  6
CONTINUOUS
 62
     7
 10
81.49999999999999
 20
167.3
 40
0.5000000000000004
 50
135.5729959991762
 51
143.1301023541538
  0
POLYLINE
  8
0
  6
CONTINUOUS
 62
     7
 66
     1
  0
VERTEX
  8
0
  6
CONTINUOUS
 62
     7
 10
102.0
 20
172.9000000000001
  0
VERTEX
  8
0
  6
CONTINUOUS
 62
     7
 10
102.0096073597984
 20
172.8991487686898
  0
VERTEX
  8
0
  6
CONTINUOUS
 62
     7
 10
102.0380602337443
 20
172.8983302497215
  0
VERTEX
  8
0
  6
CONTINUOUS
 62
     7
 10
102.0842651938487
 20
172.8975758983199
  0
VERTEX
  8
0
  6
CONTINUOUS
 62
     7
 10
102.1464466094067
 20
172.8969147037865
  0
VERTEX
  8
0
  6
CONTINUOUS
 62
     7
 10
102.2222148834902
 20
172.8963720754563
  0
VERTEX
  8
0
  6
CONTINUOUS
 62
     7
 10
102.3086582838174
 20
172.8959688662317
  0
VERTEX
  8
0
  6
CONTINUOUS
 62
     7
 10
102.4024548389919
 20
172.8957205712172
  0
VERTEX
  8
0
  6
CONTINUOUS
 62
     7
 10
102.5
 20
172.8956367322509
  0
VERTEX
  8
0
  6
CONTINUOUS
 62
     7
 10
102.597545161008
 20
172.8957205712172
  0
VERTEX
  8
0
  6
CONTINUOUS
 62
     7
 10
102.6913417161825
 20
172.8959688662317
  0
VERTEX
  8
0
  6
CONTINUOUS
 62
     7
 10
102.7777851165098
 20
172.8963720754563
  0
VERTEX
  8
0
  6
CONTINUOUS
 62
     7
 10
102.8535533905932
 20
172.8969147037865
  0
VERTEX
  8
0
  6
CONTINUOUS
 62
     7
 10
102.9157348061512
 20
172.8975758983199
  0
VERTEX
  8
0
  6
CONTINUOUS
 62
     7
 10
102.9619397662556
 20
172.8983302497215
  0
VERTEX
  8
0
  6
CONTINUOUS
 62
     7
 10
102.9903926402016
 20
172.8991487686898
  0
VERTEX
  8
0
  6
CONTINUOUS
 62
     7
 10
103.0
 20
172.9000000000001
  0
SEQEND
  8
0
  6
CONTINUOUS
 62
     7
  0
LINE
  8
0
  6
CONTINUOUS
 62
     7
 10
103.5
 20
172.9000000000001
 11
103.0
 21
172.9000000000001
  0
LINE
  8
0
  6
CONTINUOUS
 62
     7
 10
102.0
 20
172.9000000000001
 11
100.1
 21
172.9000000000001
  0
LINE
  8
0
  6
CONTINUOUS
 62
     7
 10
103.5
 20
172.8315578461729
 11
103.5
 21
172.9000000000001
  0
ARC
  8
0
  6
CONTINUOUS
 62
     7
 10
98.49999999999997
 20
167.3
 40
0.5000000000000131
 50
36.86989764584814
 51
44.42700400091461
  0
LINE
  8
0
  6
CONTINUOUS
 62
     7
 10
100.8171894869416
 20
183.952335956243
 11
100.7096311171322
 21
181.8999999999999
  0
LINE
  8
0
  6
CONTINUOUS
 62
     7
 10
107.2903688828678
 20
181.8999999999999
 11
107.1828105130584
 21
183.952335956243
  0
POLYLINE
  8
0
  6
CONTINUOUS
 62
     7
 66
     1
  0
VERTEX
  8
0
  6
CONTINUOUS
 62
     7
 10
106.1841809783038
 20
184.9
  0
VERTEX
  8
0
  6
CONTINUOUS
 62
     7
 10
106.2254584896006
 20
184.8991477203403
  0
VERTEX
  8
0
  6
CONTINUOUS
 62
     7
 10
106.2667360008975
 20
184.896586508159
  0
VERTEX
  8
0
  6
CONTINUOUS
 62
     7
 10
106.3080136247566
 20
184.892303116831
  0
VERTEX
  8
0
  6
CONTINUOUS
 62
     7
 10
106.3491078858595
 20
184.8863057919145
  0
VERTEX
  8
0
  6
CONTINUOUS
 62
     7
 10
106.3790720621177
 20
184.8808247242632
  0
VERTEX
  8
0
  6
CONTINUOUS
 62
     7
 10
106.4088055990053
 20
184.8744453703388
  0
VERTEX
  8
0
  6
CONTINUOUS
 62
     7
 10
106.4384123406886
 20
184.8671432658949
  0
VERTEX
  8
0
  6
CONTINUOUS
 62
     7
 10
106.4677197419164
 20
184.8589607758032
  0
VERTEX
  8
0
  6
CONTINUOUS
 62
     7
 10
106.4969653920781
 20
184.8498239828294
  0
VERTEX
  8
0
  6
CONTINUOUS
 62
     7
 10
106.52584249643
 20
184.8398230721959
  0
VERTEX
  8
0
  6
CONTINUOUS
 62
     7
 10
106.5544500481461
 20
184.828924387607
  0
VERTEX
  8
0
  6
CONTINUOUS
 62
     7
 10
106.5826265116593
 20
184.8171919956852
  0
VERTEX
  8
0
  6
CONTINUOUS
 62
     7
 10
106.6148547649848
 20
184.8025076672615
  0
VERTEX
  8
0
  6
CONTINUOUS
 62
     7
 10
106.638761004768
 20
184.7907058102564
  0
VERTEX
  8
0
  6
CONTINUOUS
 62
     7
 10
106.6622727129984
 20
184.7783099072746
  0
VERTEX
  8
0
  6
CONTINUOUS
 62
     7
 10
106.6854486402298
 20
184.7652921941568
  0
VERTEX
  8
0
  6
CONTINUOUS
 62
     7
 10
106.7081969402954
 20
184.7517084428242
  0
VERTEX
  8
0
  6
CONTINUOUS
 62
     7
 10
106.7307171442369
 20
184.7374354155573
  0
VERTEX
  8
0
  6
CONTINUOUS
 62
     7
 10
106.7527738257984
 20
184.7226190939785
  0
VERTEX
  8
0
  6
CONTINUOUS
 62
     7
 10
106.7744204118393
 20
184.7072281440742
  0
VERTEX
  8
0
  6
CONTINUOUS
 62
     7
 10
106.7955763339535
 20
184.691325292841
  0
VERTEX
  8
0
  6
CONTINUOUS
 62
     7
 10
106.8231868021891
 20
184.66920189615
  0
VERTEX
  8
0
  6
CONTINUOUS
 62
     7
 10
106.8538999633785
 20
184.6426146248429
  0
VERTEX
  8
0
  6
CONTINUOUS
 62
     7
 10
106.8834417098539
 20
184.6148667213628
  0
VERTEX
  8
0
  6
CONTINUOUS
 62
     7
 10
106.9117238133531
 20
184.5860622589594
  0
VERTEX
  8
0
  6
CONTINUOUS
 62
     7
 10
106.938974451306
 20
184.5559625089236
  0
VERTEX
  8
0
  6
CONTINUOUS
 62
     7
 10
106.9648788741312
 20
184.5249086296818
  0
VERTEX
  8
0
  6
CONTINUOUS
 62
     7
 10
106.9896428359037
 20
184.4926476153261
  0
VERTEX
  8
0
  6
CONTINUOUS
 62
     7
 10
107.0129855711156
 20
184.4595381550297
  0
VERTEX
  8
0
  6
CONTINUOUS
 62
     7
 10
107.0349199027469
 20
184.4255885105646
  0
VERTEX
  8
0
  6
CONTINUOUS
 62
     7
 10
107.0587490931797
 20
184.3849026834764
  0
VERTEX
  8
0
  6
CONTINUOUS
 62
     7
 10
107.0805945324763
 20
184.3432186141127
  0
VERTEX
  8
0
  6
CONTINUOUS
 62
     7
 10
107.100388057306
 20
184.3007051140006
  0
VERTEX
  8
0
  6
CONTINUOUS
 62
     7
 10
107.1183029612923
 20
184.2569539478668
  0
VERTEX
  8
0
  6
CONTINUOUS
 62
     7
 10
107.1340869434471
 20
184.2125358497599
  0
VERTEX
  8
0
  6
CONTINUOUS
 62
     7
 10
107.1478693176129
 20
184.1670295576891
  0
VERTEX
  8
0
  6
CONTINUOUS
 62
     7
 10
107.1594504504783
 20
184.1210191318516
  0
VERTEX
  8
0
  6
CONTINUOUS
 62
     7
 10
107.1688369471407
 20
184.0745067993915
  0
VERTEX
  8
0
  6
CONTINUOUS
 62
     7
 10
107.1737423959702
 20
184.0441117644961
  0
VERTEX
  8
0
  6
CONTINUOUS
 62
     7
 10
107.1777063311001
 20
184.0136106216473
  0
VERTEX
  8
0
  6
CONTINUOUS
 62
     7
 10
107.1807302009779
 20
183.9830038962205
  0
VERTEX
  8
0
  6
CONTINUOUS
 62
     7
 10
107.1828105130584
 20
183.952335956243
  0
SEQEND
  8
0
  6
CONTINUOUS
 62
     7
  0
POLYLINE
  8
0
  6
CONTINUOUS
 62
     7
 66
     1
  0
VERTEX
  8
0
  6
CONTINUOUS
 62
     7
 10
100.8171894869416
 20
183.952335956243
  0
VERTEX
  8
0
  6
CONTINUOUS
 62
     7
 10
100.8199637779659
 20
183.9909523695954
  0
VERTEX
  8
0
  6
CONTINUOUS
 62
     7
 10
100.8242449342513
 20
184.0295408395364
  0
VERTEX
  8
0
  6
CONTINUOUS
 62
     7
 10
100.830069181519
 20
184.0682178723876
  0
VERTEX
  8
0
  6
CONTINUOUS
 62
     7
 10
100.8374304998326
 20
184.1067749991793
  0
VERTEX
  8
0
  6
CONTINUOUS
 62
     7
 10
100.8464080713446
 20
184.1454432914922
  0
VERTEX
  8
0
  6
CONTINUOUS
 62
     7
 10
100.8569624774753
 20
184.1838910488282
  0
VERTEX
  8
0
  6
CONTINUOUS
 62
     7
 10
100.869157384243
 20
184.2222293347517
  0
VERTEX
  8
0
  6
CONTINUOUS
 62
     7
 10
100.8829585556547
 20
184.260237908745
  0
VERTEX
  8
0
  6
CONTINUOUS
 62
     7
 10
100.9010287087008
 20
184.3039290571992
  0
VERTEX
  8
0
  6
CONTINUOUS
 62
     7
 10
100.9212930327481
 20
184.3470159450138
  0
VERTEX
  8
0
  6
CONTINUOUS
 62
     7
 10
100.9439336498378
 20
184.3897100145386
  0
VERTEX
  8
0
  6
CONTINUOUS
 62
     7
 10
100.9688159368973
 20
184.4315879742255
  0
VERTEX
  8
0
  6
CONTINUOUS
 62
     7
 10
100.9963086800132
 20
184.4730643941781
  0
VERTEX
  8
0
  6
CONTINUOUS
 62
     7
 10
101.0261027831974
 20
184.513472299824
  0
VERTEX
  8
0
  6
CONTINUOUS
 62
     7
 10
101.0584479256653
 20
184.5529847034173
  0
VERTEX
  8
0
  6
CONTINUOUS
 62
     7
 10
101.0931084412633
 20
184.5911507917455
  0
VERTEX
  8
0
  6
CONTINUOUS
 62
     7
 10
101.1195437451846
 20
184.6177748528046
  0
VERTEX
  8
0
  6
CONTINUOUS
 62
     7
 10
101.147145905555
 20
184.6435564966767
  0
VERTEX
  8
0
  6
CONTINUOUS
 62
     7
 10
101.1724058489887
 20
184.6655188878985
  0
VERTEX
  8
0
  6
CONTINUOUS
 62
     7
 10
101.1985083698303
 20
184.6867194920002
  0
VERTEX
  8
0
  6
CONTINUOUS
 62
     7
 10
101.2255658512108
 20
184.7072179569218
  0
VERTEX
  8
0
  6
CONTINUOUS
 62
     7
 10
101.2534311258936
 20
184.726873542118
  0
VERTEX
  8
0
  6
CONTINUOUS
 62
     7
 10
101.2950082539716
 20
184.7536721526571
  0
VERTEX
  8
0
  6
CONTINUOUS
 62
     7
 10
101.3164417083566
 20
184.7663845459599
  0
VERTEX
  8
0
  6
CONTINUOUS
 62
     7
 10
101.3382521374088
 20
184.77859539666
  0
VERTEX
  8
0
  6
CONTINUOUS
 62
     7
 10
101.3643152806518
 20
184.7922692260876
  0
VERTEX
  8
0
  6
CONTINUOUS
 62
     7
 10
101.3908865480511
 20
184.8052250509359
  0
VERTEX
  8
0
  6
CONTINUOUS
 62
     7
 10
101.4180750754962
 20
184.8174963146383
  0
VERTEX
  8
0
  6
CONTINUOUS
 62
     7
 10
101.4457036487394
 20
184.8289857968242
  0
VERTEX
  8
0
  6
CONTINUOUS
 62
     7
 10
101.4738690088544
 20
184.8397179892008
  0
VERTEX
  8
0
  6
CONTINUOUS
 62
     7
 10
101.5024245023003
 20
184.8496230174194
  0
VERTEX
  8
0
  6
CONTINUOUS
 62
     7
 10
101.5315190369233
 20
184.8587353746776
  0
VERTEX
  8
0
  6
CONTINUOUS
 62
     7
 10
101.5609826287876
 20
184.8669841843843
  0
VERTEX
  8
0
  6
CONTINUOUS
 62
     7
 10
101.5917467889505
 20
184.8745725393794
  0
VERTEX
  8
0
  6
CONTINUOUS
 62
     7
 10
101.6228376595835
 20
184.8812024224782
  0
VERTEX
  8
0
  6
CONTINUOUS
 62
     7
 10
101.6544048276368
 20
184.8868865435449
  0
VERTEX
  8
0
  6
CONTINUOUS
 62
     7
 10
101.686185086462
 20
184.8915619208278
  0
VERTEX
  8
0
  6
CONTINUOUS
 62
     7
 10
101.7183080633056
 20
184.8952342360307
  0
VERTEX
  8
0
  6
CONTINUOUS
 62
     7
 10
101.7505623172939
 20
184.8978685096397
  0
VERTEX
  8
0
  6
CONTINUOUS
 62
     7
 10
101.7831457703564
 20
184.8994660867918
  0
VERTEX
  8
0
  6
CONTINUOUS
 62
     7
 10
101.8158190216962
 20
184.9
  0
SEQEND
  8
0
  6
CONTINUOUS
 62
     7
  0
LINE
  8
0
  6
CONTINUOUS
 62
     7
 10
101.8158190216962
 20
184.9
 11
106.1841809783038
 21
184.9
  0
LINE
  8
0
  6
CONTINUOUS
 62
     7
 10
104.470687535475
 20
184.9
 11
104.470687535475
 21
185.1
  0
LINE
  8
0
  6
CONTINUOUS
 62
     7
 10
104.470687535475
 20
185.1
 11
104.6207823567575
 21
185.1
  0
LINE
  8
0
  6
CONTINUOUS
 62
     7
 10
104.6207823567575
 20
184.9
 11
104.6207823567575
 21
185.1
  0
LINE
  8
0
  6
CONTINUOUS
 62
     7
 10
104.3726885587925
 20
184.9
 11
104.3726885587925
 21
185.1
  0
LINE
  8
0
  6
CONTINUOUS
 62
     7
 10
104.3726885587925
 20
185.1
 11
104.470687535475
 21
185.1
  0
LINE
  8
0
  6
CONTINUOUS
 62
     7
 10
104.2389411576425
 20
184.9
 11
104.2389411576425
 21
185.1
  0
LINE
  8
0
  6
CONTINUOUS
 62
     7
 10
104.2389411576425
 20
185.1
 11
104.3726885587925
 21
185.1
  0
LINE
  8
0
  6
CONTINUOUS
 62
     7
 10
104.130958565515
 20
184.9
 11
104.130958565515
 21
185.1
  0
LINE
  8
0
  6
CONTINUOUS
 62
     7
 10
104.130958565515
 20
185.1
 11
104.2389411576425
 21
185.1
  0
LINE
  8
0
  6
CONTINUOUS
 62
     7
 10
102.83083326341
 20
184.9
 11
102.83083326341
 21
185.1
  0
LINE
  8
0
  6
CONTINUOUS
 62
     7
 10
102.83083326341
 20
185.1
 11
103.024790244895
 21
185.1
  0
LINE
  8
0
  6
CONTINUOUS
 62
     7
 10
103.024790244895
 20
184.9
 11
103.024790244895
 21
185.1
  0
LINE
  8
0
  6
CONTINUOUS
 62
     7
 10
104.6207823567575
 20
185.1
 11
104.98659411997
 21
185.1
  0
LINE
  8
0
  6
CONTINUOUS
 62
     7
 10
103.5107378821825
 20
185.1
 11
103.3401121232075
 21
185.1
  0
LINE
  8
0
  6
CONTINUOUS
 62
     7
 10
103.5107378821825
 20
184.9
 11
103.5107378821825
 21
185.1
  0
LINE
  8
0
  6
CONTINUOUS
 62
     7
 10
103.3401121232075
 20
184.9
 11
103.3401121232075
 21
185.1
  0
LINE
  8
0
  6
CONTINUOUS
 62
     7
 10
103.887942279525
 20
185.1
 11
104.130958565515
 21
185.1
  0
LINE
  8
0
  6
CONTINUOUS
 62
     7
 10
103.579055532035
 20
185.1
 11
103.887942279525
 21
185.1
  0
LINE
  8
0
  6
CONTINUOUS
 62
     7
 10
102.1292765558297
 20
184.9
 11
102.1292765558297
 21
185.1
  0
LINE
  8
0
  6
CONTINUOUS
 62
     7
 10
102.1292765558297
 20
185.1
 11
102.83083326341
 21
185.1
  0
LINE
  8
0
  6
CONTINUOUS
 62
     7
 10
103.3401121232075
 20
185.1
 11
103.024790244895
 21
185.1
  0
LINE
  8
0
  6
CONTINUOUS
 62
     7
 10
105.1691667365925
 20
184.9
 11
105.1691667365925
 21
185.1
  0
LINE
  8
0
  6
CONTINUOUS
 62
     7
 10
105.8707234441723
 20
184.9
 11
105.8707234441723
 21
185.1
  0
LINE
  8
0
  6
CONTINUOUS
 62
     7
 10
105.1691667365925
 20
185.1
 11
105.8707234441723
 21
185.1
  0
LINE
  8
0
  6
CONTINUOUS
 62
     7
 10
104.98659411997
 20
184.9
 11
104.98659411997
 21
185.1
  0
LINE
  8
0
  6
CONTINUOUS
 62
     7
 10
104.98659411997
 20
185.1
 11
105.1691667365925
 21
185.1
  0
LINE
  8
0
  6
CONTINUOUS
 62
     7
 10
103.5107378821825
 20
185.1
 11
103.579055532035
 21
185.1
  0
ARC
  8
0
  6
CONTINUOUS
 62
     7
 10
77.50000000000001
 20
172.9000000000001
 40
0.5000000000000004
 50
359.9999999999952
 51
180.0000000000048
  0
ARC
  8
0
  6
CONTINUOUS
 62
     7
 10
102.5
 20
172.9000000000001
 40
0.5000000000000004
 50
359.9999999999952
 51
180.0000000000048
  0
LINE
  8
0
  6
CONTINUOUS
 62
     7
 10
103.579055532035
 20
185.1
 11
103.579055532035
 21
184.9
  0
ENDBLK
  8
0
  0
ENDSEC
  0
SECTION
  2
ENTITIES
  0
INSERT
  8
0
  6
CONTINUOUS
 62
     7
  2
D_FRAME_VIEW_1872
 10
0.0
 20
0.0
 30
0.0
  0
INSERT
  8
0
  6
CONTINUOUS
 62
     7
  2
D_FRAME_VIEW_1995
 10
0.0
 20
0.0
 30
0.0
  0
INSERT
  8
0
  6
CONTINUOUS
 62
     7
  2
D_FRAME_VIEW_1506
 10
0.0
 20
0.0
 30
0.0
  0
TEXT
  8
0
  6
CONTINUOUS
 62
     7
 10
138.9083062398399
 20
208.3284200325122
 40
3.0
  1
MN-BW3K
  0
LINE
  8
0
  6
CENTER
 62
     1
 10
90.00000000000003
 20
160.0
 11
90.00000000000003
 21
190.0
  0
LINE
  8
0
  6
CENTER
 62
     1
 10
150.0
 20
160.0
 11
150.0
 21
190.0
  0
LINE
  8
0
  6
CENTER
 62
     1
 10
55.00000000000001
 20
225.0
 11
115.0
 21
225.0
  0
LINE
  8
0
  6
CENTER
 62
     1
 10
90.0
 20
217.5697768639403
 11
90.0
 21
232.4302231360597
  0
ENDSEC
  0
EOF
