  0
SECTION
  2
HEADER
  9
$ACADVER
  1
AC1006
  9
$DWGCODEPAGE
  3
ansi_932
  9
$INSBASE
 10
0.0
 20
0.0
 30
0.0
  9
$EXTMIN
 10
-186.549955522
 20
214.3311565454545
  9
$EXTMAX
 10
-132.1096289198
 20
267.0154018793
  9
$LIMMIN
 10
0.0
 20
0.0
  9
$LIMMAX
 10
12.0
 20
9.0
  9
$ORTHOMODE
 70
     0
  9
$REGENMODE
 70
     1
  9
$FILLMODE
 70
     1
  9
$QTEXTMODE
 70
     0
  9
$MIRRTEXT
 70
     1
  9
$DRAGMODE
 70
     2
  9
$LTSCALE
 40
1.0
  9
$OSMODE
 70
    37
  9
$ATTMODE
 70
     1
  9
$TEXTSIZE
 40
0.2
  9
$TRACEWID
 40
0.05
  9
$TEXTSTYLE
  7
STANDARD
  9
$CLAYER
  8
0
  9
$CELTYPE
  6
BYLAYER
  9
$CECOLOR
 62
   256
  9
$DIMSCALE
 40
1.0
  9
$DIMASZ
 40
0.9
  9
$DIMEXO
 40
0.0625
  9
$DIMDLI
 40
0.38
  9
$DIMRND
 40
0.0
  9
$DIMDLE
 40
0.0
  9
$DIMEXE
 40
0.45
  9
$DIMTP
 40
0.0
  9
$DIMTM
 40
0.0
  9
$DIMTXT
 40
3.0
  9
$DIMCEN
 40
0.09
  9
$DIMTSZ
 40
0.0
  9
$DIMTOL
 70
     0
  9
$DIMLIM
 70
     0
  9
$DIMTIH
 70
     1
  9
$DIMTOH
 70
     1
  9
$DIMSE1
 70
     0
  9
$DIMSE2
 70
     0
  9
$DIMTAD
 70
     1
  9
$DIMZIN
 70
     0
  9
$DIMBLK
  1

  9
$DIMASO
 70
     1
  9
$DIMSHO
 70
     1
  9
$DIMPOST
  1

  9
$DIMAPOST
  1

  9
$DIMALT
 70
     0
  9
$DIMALTD
 70
     2
  9
$DIMALTF
 40
25.4
  9
$DIMLFAC
 40
1.0
  9
$DIMTOFL
 70
     0
  9
$DIMTVP
 40
0.0
  9
$DIMTIX
 70
     0
  9
$DIMSOXD
 70
     0
  9
$DIMSAH
 70
     0
  9
$DIMBLK1
  1

  9
$DIMBLK2
  1

  9
$LUNITS
 70
     2
  9
$LUPREC
 70
     4
  9
$SKETCHINC
 40
0.1
  9
$FILLETRAD
 40
0.5
  9
$AUNITS
 70
     0
  9
$AUPREC
 70
     0
  9
$MENU
  1
.
  9
$ELEVATION
 40
0.0
  9
$THICKNESS
 40
0.0
  9
$LIMCHECK
 70
     0
  9
$CHAMFERA
 40
0.0
  9
$CHAMFERB
 40
0.0
  9
$SKPOLY
 70
     0
  9
$TDCREATE
 40
2460445.544337141
  9
$TDUPDATE
 40
2460445.544337326
  9
$TDINDWG
 40
0.0000000116
  9
$TDUSRTIMER
 40
0.0000000116
  9
$USRTIMER
 70
     1
  9
$ANGBASE
 50
0.0
  9
$ANGDIR
 70
     0
  9
$PDMODE
 70
     0
  9
$PDSIZE
 40
0.0
  9
$PLINEWID
 40
0.0
  9
$COORDS
 70
     1
  9
$SPLFRAME
 70
     0
  9
$SPLINETYPE
 70
     6
  9
$SPLINESEGS
 70
     8
  9
$ATTDIA
 70
     0
  9
$ATTREQ
 70
     1
  9
$HANDLING
 70
     1
  9
$HANDSEED
  5
CA
  9
$SURFTAB1
 70
     6
  9
$SURFTAB2
 70
     6
  9
$SURFTYPE
 70
     6
  9
$SURFU
 70
     6
  9
$SURFV
 70
     6
  9
$UCSNAME
  2

  9
$UCSORG
 10
0.0
 20
0.0
 30
0.0
  9
$UCSXDIR
 10
1.0
 20
0.0
 30
0.0
  9
$UCSYDIR
 10
0.0
 20
1.0
 30
0.0
  9
$USERI1
 70
     0
  9
$USERI2
 70
     0
  9
$USERI3
 70
     0
  9
$USERI4
 70
     0
  9
$USERI5
 70
     0
  9
$USERR1
 40
0.0
  9
$USERR2
 40
0.0
  9
$USERR3
 40
0.0
  9
$USERR4
 40
0.0
  9
$USERR5
 40
0.0
  9
$WORLDVIEW
 70
     1
  0
ENDSEC
  0
SECTION
  2
TABLES
  0
TABLE
  2
VPORT
 70
     1
  0
VPORT
  2
*ACTIVE
 70
     0
 10
0.0
 20
0.0
 11
1.0
 21
1.0
 12
-159.3297922209
 22
240.6732792123773
 13
0.0
 23
0.0
 14
0.5
 24
0.5
 15
0.5
 25
0.5
 16
0.0
 26
0.0
 36
1.0
 17
0.0
 27
0.0
 37
0.0
 40
52.68424533384547
 41
1.6
 42
50.0
 43
0.0
 44
0.0
 50
0.0
 51
0.0
 71
     0
 72
   100
 73
     1
 74
     3
 75
     0
 76
     0
 77
     0
 78
     0
  0
ENDTAB
  0
TABLE
  2
LTYPE
 70
     1
  0
LTYPE
  2
CONTINUOUS
 70
     0
  3
Solid line
 72
    65
 73
     0
 40
0.0
  0
ENDTAB
  0
TABLE
  2
LAYER
 70
     2
  0
LAYER
  2
0
 70
     0
 62
     7
  6
CONTINUOUS
  0
LAYER
  2
1
 70
     0
 62
     7
  6
CONTINUOUS
  0
ENDTAB
  0
TABLE
  2
STYLE
 70
     2
  0
STYLE
  2
STANDARD
 70
     0
 40
0.0
 41
1.0
 50
0.0
 71
     0
 42
0.2
  3
txt
  4

  0
STYLE
  2
ＭＳ_ゴシック
 70
     0
 40
0.0
 41
1.0
 50
0.0
 71
     0
 42
0.2
  3
ＭＳ ゴシック.shx
  4

  0
ENDTAB
  0
TABLE
  2
VIEW
 70
     0
  0
ENDTAB
  0
TABLE
  2
UCS
 70
     0
  0
ENDTAB
  0
ENDSEC
  0
SECTION
  2
BLOCKS
  0
ENDSEC
  0
SECTION
  2
ENTITIES
  0
LINE
  5
70
  8
1
  6
CONTINUOUS
 62
     7
 10
-186.299956522
 20
247.1154028793
 30
0.0
 11
-160.299955522
 21
247.1154028793
 31
0.0
  0
LINE
  5
71
  8
1
  6
CONTINUOUS
 62
     7
 10
-160.299955522
 20
261.2154028793
 30
0.0
 11
-160.299955522
 21
267.0154018793
 31
0.0
  0
LINE
  5
72
  8
1
  6
CONTINUOUS
 62
     7
 10
-160.299955522
 20
264.9154018793
 30
0.0
 11
-186.299956522
 21
264.9154018793
 31
0.0
  0
LINE
  5
73
  8
1
  6
CONTINUOUS
 62
     7
 10
-160.299955522
 20
265.9154023793
 30
0.0
 11
-186.299956522
 21
265.9154023793
 31
0.0
  0
TEXT
  5
74
  8
1
  6
CONTINUOUS
 62
     7
 10
-167.9716313145242
 20
213.7610990238839
 30
0.0
 40
5.0
  1
MN-W3TF
 41
0.936295
  0
LINE
  5
75
  8
1
  6
CONTINUOUS
 62
     7
 10
-160.299955522
 20
267.0154018793
 30
0.0
 11
-186.299956522
 21
267.0154018793
 31
0.0
  0
LINE
  5
76
  8
1
  6
CONTINUOUS
 62
     7
 10
-184.549956022
 20
250.8154018793
 30
0.0
 11
-186.299956522
 21
250.8154018793
 31
0.0
  0
LINE
  5
77
  8
1
  6
CONTINUOUS
 62
     7
 10
-184.549956022
 20
261.2154028793
 30
0.0
 11
-186.299956522
 21
261.2154028793
 31
0.0
  0
LINE
  5
78
  8
1
  6
CONTINUOUS
 62
     7
 10
-162.049956022
 20
261.2154028793
 30
0.0
 11
-160.299955522
 21
261.2154028793
 31
0.0
  0
LINE
  5
79
  8
1
  6
CONTINUOUS
 62
     7
 10
-162.049956022
 20
250.8154018793
 30
0.0
 11
-160.299955522
 21
250.8154018793
 31
0.0
  0
LINE
  5
7A
  8
1
  6
CONTINUOUS
 62
     7
 10
-186.549955522
 20
251.0154028793
 30
0.0
 11
-186.549955522
 21
261.0154018793
 31
0.0
  0
ARC
  5
7B
  8
1
  6
CONTINUOUS
 62
     7
 10
-153.0096284198
 20
236.4926745456
 30
0.0
 40
1.0000005
 50
0.0
 51
45.0
  0
LINE
  5
7C
  8
1
  6
CONTINUOUS
 62
     7
 10
-133.2096284198
 20
237.9068880456
 30
0.0
 11
-132.7096289198
 21
237.9068880456
 31
0.0
  0
LINE
  5
7D
  8
1
  6
CONTINUOUS
 62
     7
 10
-133.6096289198
 20
227.3068875456
 30
0.0
 11
-133.6096289198
 21
225.3068880456
 31
0.0
  0
LINE
  5
7E
  8
1
  6
CONTINUOUS
 62
     7
 10
-162.049956022
 20
225.3068880456
 30
0.0
 11
-184.549956022
 21
225.3068880456
 31
0.0
  0
LINE
  5
7F
  8
1
  6
CONTINUOUS
 62
     7
 10
-162.049956022
 20
227.3068875456
 30
0.0
 11
-184.549956022
 21
227.3068875456
 31
0.0
  0
LINE
  5
80
  8
1
  6
CONTINUOUS
 62
     7
 10
-160.049956522
 20
232.3068885456
 30
0.0
 11
-160.049956522
 21
227.3068875456
 31
0.0
  0
LINE
  5
81
  8
1
  6
CONTINUOUS
 62
     7
 10
-152.0096279198
 20
232.2242475456
 30
0.0
 11
-152.0096279198
 21
236.4926745456
 31
0.0
  0
LINE
  5
82
  8
1
  6
CONTINUOUS
 62
     7
 10
-138.1096289198
 20
229.6068885456
 30
0.0
 11
-135.2946119198
 21
229.6068885456
 31
0.0
  0
LINE
  5
83
  8
1
  6
CONTINUOUS
 62
     7
 10
-160.049956522
 20
251.0154028793
 30
0.0
 11
-162.049956022
 21
251.0154028793
 31
0.0
  0
ARC
  5
84
  8
1
  6
CONTINUOUS
 62
     7
 10
-140.1096284198
 20
230.3068875456
 30
0.0
 40
1.9999995
 50
0.0
 51
90.0
  0
ARC
  5
85
  8
1
  6
CONTINUOUS
 62
     7
 10
-162.049956022
 20
227.3068875456
 30
0.0
 40
1.9999995
 50
270.0
 51
0.0
  0
LINE
  5
86
  8
1
  6
CONTINUOUS
 62
     7
 10
-160.299955522
 20
233.1068880456
 30
0.0
 11
-186.299956522
 21
233.1068880456
 31
0.0
  0
ARC
  5
87
  8
1
  6
CONTINUOUS
 62
     7
 10
-135.2946119198
 20
230.1068880456
 30
0.0
 40
0.4999994999999999
 50
270.0
 51
345.0
  0
ARC
  5
88
  8
1
  6
CONTINUOUS
 62
     7
 10
-144.6096284198
 20
229.3068885456
 30
0.0
 40
0.4999994999999999
 50
90.0
 51
180.0
  0
LINE
  5
89
  8
1
  6
CONTINUOUS
 62
     7
 10
-151.4849174198
 20
227.6068875456
 30
0.0
 11
-148.1096279198
 21
227.6068875456
 31
0.0
  0
ARC
  5
8A
  8
1
  6
CONTINUOUS
 62
     7
 10
-133.2096284198
 20
236.4926745456
 30
0.0
 40
1.0000005
 50
135.0
 51
180.0
  0
LINE
  5
8B
  8
1
  6
CONTINUOUS
 62
     7
 10
-132.7096289198
 20
237.9068880456
 30
0.0
 11
-132.7096289198
 21
233.1068880456
 31
0.0
  0
LINE
  5
8C
  8
1
  6
CONTINUOUS
 62
     7
 10
-153.0096284198
 20
237.9068880456
 30
0.0
 11
-153.5096279198
 21
237.9068880456
 31
0.0
  0
LINE
  5
8D
  8
1
  6
CONTINUOUS
 62
     7
 10
-134.7343394198
 20
227.6068875456
 30
0.0
 11
-138.1096289198
 21
227.6068875456
 31
0.0
  0
LINE
  5
8E
  8
1
  6
CONTINUOUS
 62
     7
 10
-141.2096279198
 20
229.6068885456
 30
0.0
 11
-145.0096289198
 21
229.6068885456
 31
0.0
  0
LINE
  5
8F
  8
1
  6
CONTINUOUS
 62
     7
 10
-162.049956022
 20
227.3068875456
 30
0.0
 11
-162.049956022
 21
227.6068875456
 31
0.0
  0
LINE
  5
90
  8
1
  6
CONTINUOUS
 62
     7
 10
-160.299955522
 20
232.3068885456
 30
0.0
 11
-160.049956522
 21
232.3068885456
 31
0.0
  0
LINE
  5
91
  8
1
  6
CONTINUOUS
 62
     7
 10
-134.2096289198
 20
232.2242475456
 30
0.0
 11
-134.2096289198
 21
236.4926745456
 31
0.0
  0
LINE
  5
92
  8
1
  6
CONTINUOUS
 62
     7
 10
-186.549955522
 20
232.3068885456
 30
0.0
 11
-186.299956522
 21
232.3068885456
 31
0.0
  0
LINE
  5
93
  8
1
  6
CONTINUOUS
 62
     7
 10
-138.1096289198
 20
230.3068875456
 30
0.0
 11
-138.1096289198
 21
225.3068880456
 31
0.0
  0
LINE
  5
94
  8
1
  6
CONTINUOUS
 62
     7
 10
-133.6096289198
 20
227.3068875456
 30
0.0
 11
-138.1096289198
 21
227.3068875456
 31
0.0
  0
LINE
  5
95
  8
1
  6
CONTINUOUS
 62
     7
 10
-152.3025209198
 20
237.1997805456
 30
0.0
 11
-153.0096284198
 21
237.9068880456
 31
0.0
  0
LINE
  5
96
  8
1
  6
CONTINUOUS
 62
     7
 10
-148.1096279198
 20
225.3068880456
 30
0.0
 11
-148.1096279198
 21
230.3068875456
 31
0.0
  0
LINE
  5
97
  8
1
  6
CONTINUOUS
 62
     7
 10
-184.549956022
 20
227.3068875456
 30
0.0
 11
-184.549956022
 21
227.6068875456
 31
0.0
  0
LINE
  5
98
  8
1
  6
CONTINUOUS
 62
     7
 10
-145.1096279198
 20
229.3068885456
 30
0.0
 11
-145.1096279198
 21
225.3068880456
 31
0.0
  0
LINE
  5
99
  8
1
  6
CONTINUOUS
 62
     7
 10
-148.1096279198
 20
229.6068885456
 30
0.0
 11
-150.9246449198
 21
229.6068885456
 31
0.0
  0
LINE
  5
9A
  8
1
  6
CONTINUOUS
 62
     7
 10
-140.1096284198
 20
232.3068885456
 30
0.0
 11
-146.1096284198
 21
232.3068885456
 31
0.0
  0
LINE
  5
9B
  8
1
  6
CONTINUOUS
 62
     7
 10
-153.5096279198
 20
237.9068880456
 30
0.0
 11
-153.5096279198
 21
233.1068880456
 31
0.0
  0
LINE
  5
9C
  8
1
  6
CONTINUOUS
 62
     7
 10
-132.7096289198
 20
233.1068880456
 30
0.0
 11
-132.1096289198
 21
233.1068880456
 31
0.0
  0
ARC
  5
9D
  8
1
  6
CONTINUOUS
 62
     7
 10
-184.549956022
 20
227.3068875456
 30
0.0
 40
1.9999995
 50
180.0
 51
270.0
  0
LINE
  5
9E
  8
1
  6
CONTINUOUS
 62
     7
 10
-160.299955522
 20
245.0154028793
 30
0.0
 11
-186.299956522
 21
245.0154028793
 31
0.0
  0
ARC
  5
9F
  8
1
  6
CONTINUOUS
 62
     7
 10
-146.1096284198
 20
230.3068875456
 30
0.0
 40
1.9999995
 50
90.0
 51
180.0
  0
LINE
  5
A0
  8
1
  6
CONTINUOUS
 62
     7
 10
-154.1096279198
 20
233.1068880456
 30
0.0
 11
-152.9338064198
 21
228.7186590456
 31
0.0
  0
LINE
  5
A1
  8
1
  6
CONTINUOUS
 62
     7
 10
-160.049956522
 20
261.0154018793
 30
0.0
 11
-160.049956522
 21
251.0154028793
 31
0.0
  0
LINE
  5
A2
  8
1
  6
CONTINUOUS
 62
     7
 10
-160.299955522
 20
237.9068880456
 30
0.0
 11
-160.299955522
 21
227.6068875456
 31
0.0
  0
LINE
  5
A3
  8
1
  6
CONTINUOUS
 62
     7
 10
-132.1096289198
 20
233.1068880456
 30
0.0
 11
-133.2854504198
 21
228.7186590456
 31
0.0
  0
ARC
  5
A4
  8
1
  6
CONTINUOUS
 62
     7
 10
-134.7343394198
 20
229.1068875456
 30
0.0
 40
1.5
 50
270.0
 51
345.0
  0
LINE
  5
A5
  8
1
  6
CONTINUOUS
 62
     7
 10
-133.9167359198
 20
237.1997805456
 30
0.0
 11
-133.2096284198
 21
237.9068880456
 31
0.0
  0
LINE
  5
A6
  8
1
  6
CONTINUOUS
 62
     7
 10
-134.8116479198
 20
229.9774785456
 30
0.0
 11
-134.2096289198
 21
232.2242475456
 31
0.0
  0
LINE
  5
A7
  8
1
  6
CONTINUOUS
 62
     7
 10
-133.6096289198
 20
225.3068880456
 30
0.0
 11
-152.6096279198
 21
225.3068880456
 31
0.0
  0
LINE
  5
A8
  8
1
  6
CONTINUOUS
 62
     7
 10
-148.1096279198
 20
227.3068875456
 30
0.0
 11
-152.6096279198
 21
227.3068875456
 31
0.0
  0
LINE
  5
A9
  8
1
  6
CONTINUOUS
 62
     7
 10
-186.299956522
 20
237.9068880456
 30
0.0
 11
-186.299956522
 21
227.6068875456
 31
0.0
  0
LINE
  5
AA
  8
1
  6
CONTINUOUS
 62
     7
 10
-141.1096289198
 20
227.6068875456
 30
0.0
 11
-145.1096279198
 21
227.6068875456
 31
0.0
  0
LINE
  5
AB
  8
1
  6
CONTINUOUS
 62
     7
 10
-141.6096284198
 20
229.8068880456
 30
0.0
 11
-144.6096284198
 21
229.8068880456
 31
0.0
  0
LINE
  5
AC
  8
1
  6
CONTINUOUS
 62
     7
 10
-141.1096289198
 20
227.3068875456
 30
0.0
 11
-145.1096279198
 21
227.3068875456
 31
0.0
  0
ARC
  5
AD
  8
1
  6
CONTINUOUS
 62
     7
 10
-150.9246449198
 20
230.1068880456
 30
0.0
 40
0.4999994999999999
 50
195.0
 51
270.0
  0
LINE
  5
AE
  8
1
  6
CONTINUOUS
 62
     7
 10
-141.1096289198
 20
225.3068880456
 30
0.0
 11
-141.1096289198
 21
229.3068885456
 31
0.0
  0
LINE
  5
AF
  8
1
  6
CONTINUOUS
 62
     7
 10
-151.4076089198
 20
229.9774785456
 30
0.0
 11
-152.0096279198
 21
232.2242475456
 31
0.0
  0
LINE
  5
B0
  8
1
  6
CONTINUOUS
 62
     7
 10
-186.549955522
 20
227.3068875456
 30
0.0
 11
-186.549955522
 21
232.3068885456
 31
0.0
  0
ARC
  5
B1
  8
1
  6
CONTINUOUS
 62
     7
 10
-151.4849174198
 20
229.1068875456
 30
0.0
 40
1.5
 50
195.0
 51
270.0
  0
LINE
  5
B2
  8
1
  6
CONTINUOUS
 62
     7
 10
-184.549956022
 20
251.0154028793
 30
0.0
 11
-186.549955522
 21
251.0154028793
 31
0.0
  0
LINE
  5
B3
  8
1
  6
CONTINUOUS
 62
     7
 10
-153.5096279198
 20
233.1068880456
 30
0.0
 11
-154.1096279198
 21
233.1068880456
 31
0.0
  0
ARC
  5
B4
  8
1
  6
CONTINUOUS
 62
     7
 10
-141.6096284198
 20
229.3068885456
 30
0.0
 40
0.4999994999999999
 50
0.0
 51
90.0
  0
LINE
  5
B5
  8
1
  6
CONTINUOUS
 62
     7
 10
-152.6096279198
 20
227.3068875456
 30
0.0
 11
-152.6096279198
 21
225.3068880456
 31
0.0
  0
CIRCLE
  5
B6
  8
1
  6
CONTINUOUS
 62
     7
 10
-173.299956022
 20
256.0154023793
 30
0.0
 40
4.5
  0
LINE
  5
B7
  8
1
  6
CONTINUOUS
 62
     7
 10
-184.549956022
 20
261.2154028793
 30
0.0
 11
-184.549956022
 21
250.8154018793
 31
0.0
  0
CIRCLE
  5
B8
  8
1
  6
CONTINUOUS
 62
     7
 10
-173.299956022
 20
256.0154023793
 30
0.0
 40
3.8749995
  0
LINE
  5
B9
  8
1
  6
CONTINUOUS
 62
     7
 10
-162.049956022
 20
261.0154018793
 30
0.0
 11
-160.049956522
 21
261.0154018793
 31
0.0
  0
LINE
  5
BA
  8
1
  6
CONTINUOUS
 62
     7
 10
-160.299955522
 20
246.1154023793
 30
0.0
 11
-186.299956522
 21
246.1154023793
 31
0.0
  0
LINE
  5
BB
  8
1
  6
CONTINUOUS
 62
     7
 10
-160.299955522
 20
250.8154018793
 30
0.0
 11
-160.299955522
 21
245.0154028793
 31
0.0
  0
LINE
  5
BC
  8
1
  6
CONTINUOUS
 62
     7
 10
-186.299956522
 20
261.2154028793
 30
0.0
 11
-186.299956522
 21
267.0154018793
 31
0.0
  0
LINE
  5
BD
  8
1
  6
CONTINUOUS
 62
     7
 10
-160.299955522
 20
227.6068875456
 30
0.0
 11
-186.299956522
 21
227.6068875456
 31
0.0
  0
CIRCLE
  5
BE
  8
1
  6
CONTINUOUS
 62
     7
 10
-173.299956022
 20
256.0154023793
 30
0.0
 40
5.5000005
  0
LINE
  5
BF
  8
1
  6
CONTINUOUS
 62
     7
 10
-186.299956522
 20
250.8154018793
 30
0.0
 11
-186.299956522
 21
245.0154028793
 31
0.0
  0
LINE
  5
C0
  8
1
  6
CONTINUOUS
 62
     7
 10
-162.049956022
 20
250.8154018793
 30
0.0
 11
-162.049956022
 21
261.2154028793
 31
0.0
  0
LINE
  5
C1
  8
1
  6
CONTINUOUS
 62
     7
 10
-160.299955522
 20
237.9068880456
 30
0.0
 11
-186.299956522
 21
237.9068880456
 31
0.0
  0
LINE
  5
C2
  8
1
  6
CONTINUOUS
 62
     7
 10
-186.549955522
 20
261.0154018793
 30
0.0
 11
-184.549956022
 21
261.0154018793
 31
0.0
  0
ENDSEC
  0
EOF
