  0
SECTION
  2
HEADER
  9
$ACADVER
  1
AC1006
  9
$DWGCODEPAGE
  3
ansi_932
  9
$INSBASE
 10
0.0
 20
0.0
 30
0.0
  9
$EXTMIN
 10
-413.8178252151752
 20
17.95001249999997
  9
$EXTMAX
 10
-255.4500125
 20
275.3130427063031
  9
$LIMMIN
 10
0.0
 20
0.0
  9
$LIMMAX
 10
12.0
 20
9.0
  9
$ORTHOMODE
 70
     0
  9
$REGENMODE
 70
     1
  9
$FILLMODE
 70
     1
  9
$QTEXTMODE
 70
     0
  9
$MIRRTEXT
 70
     1
  9
$DRAGMODE
 70
     2
  9
$LTSCALE
 40
1.0
  9
$OSMODE
 70
    37
  9
$ATTMODE
 70
     1
  9
$TEXTSIZE
 40
0.2
  9
$TRACEWID
 40
0.05
  9
$TEXTSTYLE
  7
STANDARD
  9
$CLAYER
  8
0
  9
$CELTYPE
  6
BYLAYER
  9
$CECOLOR
 62
   256
  9
$DIMSCALE
 40
1.0
  9
$DIMASZ
 40
3.0
  9
$DIMEXO
 40
0.0625
  9
$DIMDLI
 40
0.38
  9
$DIMRND
 40
0.0
  9
$DIMDLE
 40
0.0
  9
$DIMEXE
 40
1.5
  9
$DIMTP
 40
0.0
  9
$DIMTM
 40
0.0
  9
$DIMTXT
 40
3.0
  9
$DIMCEN
 40
0.09
  9
$DIMTSZ
 40
0.0
  9
$DIMTOL
 70
     0
  9
$DIMLIM
 70
     0
  9
$DIMTIH
 70
     1
  9
$DIMTOH
 70
     1
  9
$DIMSE1
 70
     0
  9
$DIMSE2
 70
     0
  9
$DIMTAD
 70
     1
  9
$DIMZIN
 70
     0
  9
$DIMBLK
  1

  9
$DIMASO
 70
     1
  9
$DIMSHO
 70
     1
  9
$DIMPOST
  1

  9
$DIMAPOST
  1

  9
$DIMALT
 70
     0
  9
$DIMALTD
 70
     2
  9
$DIMALTF
 40
25.4
  9
$DIMLFAC
 40
1.0
  9
$DIMTOFL
 70
     0
  9
$DIMTVP
 40
0.0
  9
$DIMTIX
 70
     0
  9
$DIMSOXD
 70
     0
  9
$DIMSAH
 70
     0
  9
$DIMBLK1
  1

  9
$DIMBLK2
  1

  9
$LUNITS
 70
     2
  9
$LUPREC
 70
     4
  9
$SKETCHINC
 40
0.1
  9
$FILLETRAD
 40
0.5
  9
$AUNITS
 70
     0
  9
$AUPREC
 70
     0
  9
$MENU
  1
.
  9
$ELEVATION
 40
0.0
  9
$THICKNESS
 40
0.0
  9
$LIMCHECK
 70
     0
  9
$CHAMFERA
 40
0.0
  9
$CHAMFERB
 40
0.0
  9
$SKPOLY
 70
     0
  9
$TDCREATE
 40
2459692.445288924
  9
$TDUPDATE
 40
2459692.445289155
  9
$TDINDWG
 40
0.0000000116
  9
$TDUSRTIMER
 40
0.0000000116
  9
$USRTIMER
 70
     1
  9
$ANGBASE
 50
0.0
  9
$ANGDIR
 70
     0
  9
$PDMODE
 70
     0
  9
$PDSIZE
 40
0.0
  9
$PLINEWID
 40
0.0
  9
$COORDS
 70
     1
  9
$SPLFRAME
 70
     0
  9
$SPLINETYPE
 70
     6
  9
$SPLINESEGS
 70
     8
  9
$ATTDIA
 70
     0
  9
$ATTREQ
 70
     1
  9
$HANDLING
 70
     1
  9
$HANDSEED
  5
19C
  9
$SURFTAB1
 70
     6
  9
$SURFTAB2
 70
     6
  9
$SURFTYPE
 70
     6
  9
$SURFU
 70
     6
  9
$SURFV
 70
     6
  9
$UCSNAME
  2

  9
$UCSORG
 10
0.0
 20
0.0
 30
0.0
  9
$UCSXDIR
 10
1.0
 20
0.0
 30
0.0
  9
$UCSYDIR
 10
0.0
 20
1.0
 30
0.0
  9
$USERI1
 70
     0
  9
$USERI2
 70
     0
  9
$USERI3
 70
     0
  9
$USERI4
 70
     0
  9
$USERI5
 70
     0
  9
$USERR1
 40
0.0
  9
$USERR2
 40
0.0
  9
$USERR3
 40
0.0
  9
$USERR4
 40
0.0
  9
$USERR5
 40
0.0
  9
$WORLDVIEW
 70
     1
  0
ENDSEC
  0
SECTION
  2
TABLES
  0
TABLE
  2
VPORT
 70
     1
  0
VPORT
  2
*ACTIVE
 70
     0
 10
0.0
 20
0.0
 11
1.0
 21
1.0
 12
-334.6339188575876
 22
146.6315276031515
 13
0.0
 23
0.0
 14
0.5
 24
0.5
 15
0.5
 25
0.5
 16
0.0
 26
0.0
 36
1.0
 17
0.0
 27
0.0
 37
0.0
 40
257.3630302063032
 41
1.6
 42
50.0
 43
0.0
 44
0.0
 50
0.0
 51
0.0
 71
     0
 72
   100
 73
     1
 74
     3
 75
     0
 76
     0
 77
     0
 78
     0
  0
ENDTAB
  0
TABLE
  2
LTYPE
 70
     1
  0
LTYPE
  2
CONTINUOUS
 70
     0
  3
Solid line
 72
    65
 73
     0
 40
0.0
  0
ENDTAB
  0
TABLE
  2
LAYER
 70
     1
  0
LAYER
  2
0
 70
     0
 62
     7
  6
CONTINUOUS
  0
ENDTAB
  0
TABLE
  2
STYLE
 70
     2
  0
STYLE
  2
STANDARD
 70
     0
 40
0.0
 41
1.0
 50
0.0
 71
     0
 42
0.2
  3
txt
  4

  0
STYLE
  2
ＭＳ_ゴシック
 70
     0
 40
0.0
 41
1.0
 50
0.0
 71
     0
 42
0.2
  3
ＭＳ ゴシック.shx
  4

  0
ENDTAB
  0
TABLE
  2
VIEW
 70
     0
  0
ENDTAB
  0
TABLE
  2
UCS
 70
     0
  0
ENDTAB
  0
ENDSEC
  0
SECTION
  2
BLOCKS
  0
ENDSEC
  0
SECTION
  2
ENTITIES
  0
TEXT
  5
6F
  8
0
  6
CONTINUOUS
 62
     7
 10
-307.1925190696511
 20
34.14947011379267
 30
0.0
 40
10.5
  1
MP-SM1
  0
LINE
  5
70
  8
0
  6
CONTINUOUS
 62
   253
 10
-371.2265490001786
 20
229.9952299911279
 30
0.0
 11
-369.732256953041
 21
229.9952299911279
 31
0.0
  0
ARC
  5
71
  8
0
  6
CONTINUOUS
 62
     7
 10
842.9110648471355
 20
229.9952299911279
 30
0.0
 40
1214.137613847314
 50
179.0968678775862
 51
180.0
  0
ARC
  5
72
  8
0
  6
CONTINUOUS
 62
     7
 10
528.51947016327
 20
234.9512785630395
 30
0.0
 40
899.7069581769244
 50
177.8780977085378
 51
179.0968678775855
  0
ARC
  5
73
  8
0
  6
CONTINUOUS
 62
     7
 10
873.8291672926389
 20
222.157166896525
 30
0.0
 40
1245.25359211352
 50
177.8692103673546
 51
177.8780977085378
  0
ARC
  5
74
  8
0
  6
CONTINUOUS
 62
     7
 10
-369.3624931215695
 20
267.8358979480331
 30
0.0
 40
0.2980353123260717
 50
8.495946300820608
 51
60.86635788049671
  0
ARC
  5
75
  8
0
  6
CONTINUOUS
 62
     7
 10
-341.1422475984408
 20
318.4676892955579
 30
0.0
 40
57.66713140394368
 50
240.5571195000063
 51
240.866357880456
  0
ARC
  5
76
  8
0
  6
CONTINUOUS
 62
     7
 10
-369.9056595166435
 20
267.5100656988724
 30
0.0
 40
0.8479373202548742
 50
60.55711950000636
 51
77.64550232468304
  0
ARC
  5
77
  8
0
  6
CONTINUOUS
 62
     7
 10
-375.4822339553702
 20
242.0499581218737
 30
0.0
 40
26.91161434984931
 50
77.64550232470123
 51
78.18193560320977
  0
ARC
  5
78
  8
0
  6
CONTINUOUS
 62
     7
 10
-370.5487027690338
 20
265.6283005994529
 30
0.0
 40
2.822654970985065
 50
78.18193560321076
 51
84.0326894008808
  0
ARC
  5
79
  8
0
  6
CONTINUOUS
 62
     7
 10
-370.6976887998553
 20
264.2029710795976
 30
0.0
 40
4.255749900691707
 50
84.03268940085907
 51
87.9122968354254
  0
ARC
  5
7A
  8
0
  6
CONTINUOUS
 62
     7
 10
-370.6976887998557
 20
264.2029710795877
 30
0.0
 40
4.255749900701651
 50
87.91229683542495
 51
88.1952501987081
  0
ARC
  5
7B
  8
0
  6
CONTINUOUS
 62
     7
 10
838.176638657783
 20
222.2787299387439
 30
0.0
 40
1208.106679398982
 50
177.8368114772366
 51
177.8458348545651
  0
ARC
  5
7C
  8
0
  6
CONTINUOUS
 62
     7
 10
503.2796522048653
 20
234.875879988449
 30
0.0
 40
872.9728557932156
 50
177.8458348545651
 51
179.0830953990406
  0
ARC
  5
7D
  8
0
  6
CONTINUOUS
 62
     7
 10
808.2369768780324
 20
229.9952299911279
 30
0.0
 40
1177.969233831073
 50
179.0830953990406
 51
180.0
  0
ARC
  5
7E
  8
0
  6
CONTINUOUS
 62
     7
 10
-404.1997751325904
 20
216.1952725821097
 30
0.0
 40
0.300237352819102
 50
157.5237028004974
 51
179.9885095373811
  0
ARC
  5
7F
  8
0
  6
CONTINUOUS
 62
     7
 10
-404.2002526564302
 20
216.1954701475581
 30
0.0
 40
0.2997205732491293
 50
135.0000000000075
 51
157.5237028004286
  0
ARC
  5
80
  8
0
  6
CONTINUOUS
 62
     7
 10
-404.2002526564307
 20
216.1954701475587
 30
0.0
 40
0.2997205732483442
 50
112.4762971995416
 51
135.0000000000075
  0
ARC
  5
81
  8
0
  6
CONTINUOUS
 62
     7
 10
-404.2000550909818
 20
216.1949926237188
 30
0.0
 40
0.3002373528186025
 50
90.01149046262421
 51
112.476297199555
  0
LINE
  5
82
  8
0
  6
CONTINUOUS
 62
     7
 10
-404.5000125
 20
183.7951271886206
 30
0.0
 11
-404.5000125
 21
216.1953327936352
 31
0.0
  0
ARC
  5
83
  8
0
  6
CONTINUOUS
 62
     7
 10
-404.2000550909818
 20
183.7954673585377
 30
0.0
 40
0.3002373528192963
 50
247.5237028004997
 51
269.9885095373759
  0
ARC
  5
84
  8
0
  6
CONTINUOUS
 62
     7
 10
-404.2002526564302
 20
183.7949898346976
 30
0.0
 40
0.2997205732490312
 50
224.9999999999888
 51
247.5237028004087
  0
ARC
  5
85
  8
0
  6
CONTINUOUS
 62
     7
 10
-404.2002526564302
 20
183.7949898346977
 30
0.0
 40
0.2997205732490507
 50
202.4762971995607
 51
224.9999999999925
  0
ARC
  5
86
  8
0
  6
CONTINUOUS
 62
     7
 10
-404.1997751325904
 20
183.7951874001461
 30
0.0
 40
0.3002373528190466
 50
180.0114904626189
 51
202.4762971995018
  0
LINE
  5
87
  8
0
  6
CONTINUOUS
 62
     7
 10
-375.7999096974926
 20
183.4952299911279
 30
0.0
 11
-404.2001153025073
 21
183.4952299911279
 31
0.0
  0
ARC
  5
88
  8
0
  6
CONTINUOUS
 62
     7
 10
-375.7999699090183
 20
216.1949926237192
 30
0.0
 40
0.3002373528181861
 50
67.52370280042442
 51
89.98850953737578
  0
ARC
  5
89
  8
0
  6
CONTINUOUS
 62
     7
 10
-375.799772343569
 20
216.1954701475589
 30
0.0
 40
0.2997205732479516
 50
44.9999999999925
 51
67.52370280049693
  0
ARC
  5
8A
  8
0
  6
CONTINUOUS
 62
     7
 10
-375.7997723435694
 20
216.1954701475585
 30
0.0
 40
0.2997205732485209
 50
22.47629719953432
 51
44.99999999999625
  0
ARC
  5
8B
  8
0
  6
CONTINUOUS
 62
     7
 10
-375.800249867409
 20
216.1952725821097
 30
0.0
 40
0.3002373528184915
 50
0.0114904626188945
 51
22.47629719955125
  0
LINE
  5
8C
  8
0
  6
CONTINUOUS
 62
     7
 10
-404.2001153025073
 20
216.4952299911279
 30
0.0
 11
-375.7999096974926
 21
216.4952299911279
 31
0.0
  0
LINE
  5
8D
  8
0
  6
CONTINUOUS
 62
   253
 10
-408.7734759998212
 20
229.9952299911279
 30
0.0
 11
-408.7734759998212
 21
169.9952299911279
 31
0.0
  0
LINE
  5
8E
  8
0
  6
CONTINUOUS
 62
   253
 10
-371.2265490001786
 20
229.9952299911279
 30
0.0
 11
-408.7734759998212
 21
229.9952299911279
 31
0.0
  0
LINE
  5
8F
  8
0
  6
CONTINUOUS
 62
   253
 10
-371.2265490001786
 20
169.9952299911279
 30
0.0
 11
-371.2265490001786
 21
229.9952299911279
 31
0.0
  0
LINE
  5
90
  8
0
  6
CONTINUOUS
 62
   253
 10
-371.2265490001786
 20
169.9952299911279
 30
0.0
 11
-408.7734759998212
 21
169.9952299911279
 31
0.0
  0
ARC
  5
91
  8
0
  6
CONTINUOUS
 62
     7
 10
-375.8002498674089
 20
183.7951874001461
 30
0.0
 40
0.3002373528184359
 50
337.5237028004496
 51
359.9885095373811
  0
ARC
  5
92
  8
0
  6
CONTINUOUS
 62
     7
 10
-375.7997723435694
 20
183.7949898346972
 30
0.0
 40
0.2997205732484423
 50
315.0000000000038
 51
337.5237028004763
  0
ARC
  5
93
  8
0
  6
CONTINUOUS
 62
     7
 10
-375.7997723435695
 20
183.7949898346974
 30
0.0
 40
0.2997205732485994
 50
292.476297199543
 51
315.0000000000038
  0
ARC
  5
94
  8
0
  6
CONTINUOUS
 62
     7
 10
-375.7999699090183
 20
183.7954673585373
 30
0.0
 40
0.30023735281888
 50
270.0114904626242
 51
292.4762971995209
  0
LINE
  5
95
  8
0
  6
CONTINUOUS
 62
     7
 10
-375.5000125
 20
216.1953327936352
 30
0.0
 11
-375.5000125
 21
183.7951271886206
 31
0.0
  0
LINE
  5
96
  8
0
  6
CONTINUOUS
 62
   253
 10
-408.7734759998212
 20
169.9952299911279
 30
0.0
 11
-410.267768046959
 21
169.9952299911279
 31
0.0
  0
LINE
  5
97
  8
0
  6
CONTINUOUS
 62
   253
 10
-410.267768046959
 20
169.9952299911279
 30
0.0
 11
-410.267768046959
 21
229.9952299911279
 31
0.0
  0
LINE
  5
98
  8
0
  6
CONTINUOUS
 62
   253
 10
-408.7734759998212
 20
229.9952299911279
 30
0.0
 11
-410.267768046959
 21
229.9952299911279
 31
0.0
  0
LINE
  5
99
  8
0
  6
CONTINUOUS
 62
   253
 10
-369.7322569530411
 20
229.9952299911279
 30
0.0
 11
-369.7322569530411
 21
169.9952299911279
 31
0.0
  0
LINE
  5
9A
  8
0
  6
CONTINUOUS
 62
   253
 10
-371.2265490001786
 20
169.9952299911279
 30
0.0
 11
-369.732256953041
 21
169.9952299911279
 31
0.0
  0
ARC
  5
9B
  8
0
  6
CONTINUOUS
 62
     7
 10
-1622.911089846691
 20
169.9952299911279
 30
0.0
 40
1214.137613846869
 50
359.096867877586
 51
0.0
  0
ARC
  5
9C
  8
0
  6
CONTINUOUS
 62
     7
 10
-1308.519495163045
 20
165.0391814192078
 30
0.0
 40
899.7069581766992
 50
357.8780977085378
 51
359.0968678775858
  0
ARC
  5
9D
  8
0
  6
CONTINUOUS
 62
     7
 10
-1653.829192292639
 20
177.8332930857308
 30
0.0
 40
1245.25359211352
 50
357.8692103673545
 51
357.8780977085378
  0
ARC
  5
9E
  8
0
  6
CONTINUOUS
 62
     7
 10
-410.6375318784303
 20
132.1545620342227
 30
0.0
 40
0.2980353123261826
 50
188.4959463008615
 51
240.8663578804806
  0
ARC
  5
9F
  8
0
  6
CONTINUOUS
 62
     7
 10
-438.8577774011302
 20
81.52277068745353
 30
0.0
 40
57.66713140307481
 50
60.5571195000084
 51
60.86635788046283
  0
ARC
  5
A0
  8
0
  6
CONTINUOUS
 62
     7
 10
-410.094365483357
 20
132.4803942833825
 30
0.0
 40
0.847937320253828
 50
240.5571195000095
 51
257.6455023247061
  0
ARC
  5
A1
  8
0
  6
CONTINUOUS
 62
     7
 10
-404.5177910447672
 20
157.9405018597263
 30
0.0
 40
26.91161434917916
 50
257.6455023246884
 51
258.1819356032103
  0
ARC
  5
A2
  8
0
  6
CONTINUOUS
 62
     7
 10
-409.451322230965
 20
134.3621593828085
 30
0.0
 40
2.822654970990792
 50
258.1819356032109
 51
264.0326894008693
  0
ARC
  5
A3
  8
0
  6
CONTINUOUS
 62
     7
 10
-409.3023362001442
 20
135.7874889026655
 30
0.0
 40
4.255749900699076
 50
264.0326894008626
 51
267.9122968354223
  0
ARC
  5
A4
  8
0
  6
CONTINUOUS
 62
     7
 10
-409.3023362001439
 20
135.7874889026729
 30
0.0
 40
4.255749900706435
 50
267.912296835422
 51
268.1952501987057
  0
ARC
  5
A5
  8
0
  6
CONTINUOUS
 62
     7
 10
-1618.176663657783
 20
177.7117300435119
 30
0.0
 40
1208.106679398982
 50
357.8368114772366
 51
357.8458348545651
  0
ARC
  5
A6
  8
0
  6
CONTINUOUS
 62
     7
 10
-1283.279677204865
 20
165.1145799938068
 30
0.0
 40
872.9728557932156
 50
357.8458348545651
 51
359.0830953990406
  0
ARC
  5
A7
  8
0
  6
CONTINUOUS
 62
     7
 10
-1588.237001878029
 20
169.995229991128
 30
0.0
 40
1177.96923383107
 50
359.0830953990406
 51
0.0
  0
ARC
  5
A8
  8
0
  6
CONTINUOUS
 62
     7
 10
-1588.237001877999
 20
229.9952299911281
 30
0.0
 40
1177.96923383104
 50
0.0
 51
0.9169046009594126
  0
ARC
  5
A9
  8
0
  6
CONTINUOUS
 62
     7
 10
-1283.279677204847
 20
234.8758799884495
 30
0.0
 40
872.9728557931977
 50
0.9169046009593529
 51
2.154165145434908
  0
ARC
  5
AA
  8
0
  6
CONTINUOUS
 62
     7
 10
-1618.176663657859
 20
222.2787299387408
 30
0.0
 40
1208.106679399058
 50
2.154165145434907
 51
2.163188522763418
  0
ARC
  5
AB
  8
0
  6
CONTINUOUS
 62
     7
 10
-409.3023362001443
 20
264.2029710795874
 30
0.0
 40
4.255749900701929
 50
91.8047498012918
 51
92.08770316457489
  0
ARC
  5
AC
  8
0
  6
CONTINUOUS
 62
     7
 10
-409.3023362001446
 20
264.2029710795963
 30
0.0
 40
4.255749900693041
 50
92.08770316457478
 51
95.96731059913989
  0
ARC
  5
AD
  8
0
  6
CONTINUOUS
 62
     7
 10
-409.4513222309664
 20
265.628300599454
 30
0.0
 40
2.822654970983999
 50
95.96731059911693
 51
101.8180643967904
  0
ARC
  5
AE
  8
0
  6
CONTINUOUS
 62
     7
 10
-404.5177910446251
 20
242.0499581218525
 30
0.0
 40
26.91161434987103
 50
101.8180643967905
 51
102.3544976752986
  0
ARC
  5
AF
  8
0
  6
CONTINUOUS
 62
     7
 10
-410.0943654833564
 20
267.5100656988724
 30
0.0
 40
0.8479373202548742
 50
102.3544976753169
 51
119.4428804999936
  0
ARC
  5
B0
  8
0
  6
CONTINUOUS
 62
     7
 10
-438.8577774015592
 20
318.4676892955579
 30
0.0
 40
57.66713140394368
 50
299.133642119544
 51
299.4428804999937
  0
ARC
  5
B1
  8
0
  6
CONTINUOUS
 62
     7
 10
-410.6375318784304
 20
267.8358979480331
 30
0.0
 40
0.2980353123260717
 50
119.1336421195033
 51
171.504053699146
  0
ARC
  5
B2
  8
0
  6
CONTINUOUS
 62
     7
 10
-1653.829192292639
 20
222.1571668965253
 30
0.0
 40
1245.25359211352
 50
2.121902291462106
 51
2.13078963264536
  0
ARC
  5
B3
  8
0
  6
CONTINUOUS
 62
     7
 10
-1308.519495163063
 20
234.9512785630475
 30
0.0
 40
899.7069581767179
 50
0.9031321224141493
 51
2.121902291462106
  0
ARC
  5
B4
  8
0
  6
CONTINUOUS
 62
     7
 10
-1622.911089846687
 20
229.9952299911279
 30
0.0
 40
1214.137613846866
 50
0.0
 51
0.9031321224141493
  0
ARC
  5
B5
  8
0
  6
CONTINUOUS
 62
     7
 10
873.82916729248
 20
177.8332930857243
 30
0.0
 40
1245.253592113361
 50
182.1219022914621
 51
182.1307896326455
  0
ARC
  5
B6
  8
0
  6
CONTINUOUS
 62
     7
 10
528.5194701630446
 20
165.0391814192078
 30
0.0
 40
899.7069581766991
 50
180.9031321224141
 51
182.1219022914621
  0
ARC
  5
B7
  8
0
  6
CONTINUOUS
 62
     7
 10
842.9110648466873
 20
169.9952299911279
 30
0.0
 40
1214.137613846866
 50
180.0
 51
180.9031321224141
  0
LINE
  5
B8
  8
0
  6
CONTINUOUS
 62
   253
 10
-409.4363650125522
 20
131.5338547555397
 30
0.0
 11
-370.5636599874477
 21
131.5338547555397
 31
0.0
  0
ARC
  5
B9
  8
0
  6
CONTINUOUS
 62
     7
 10
808.2369768779995
 20
169.9952299911277
 30
0.0
 40
1177.969233831041
 50
180.0
 51
180.9169046009594
  0
ARC
  5
BA
  8
0
  6
CONTINUOUS
 62
     7
 10
503.2796522048473
 20
165.1145799938062
 30
0.0
 40
872.9728557931977
 50
180.9169046009594
 51
182.1541651454349
  0
ARC
  5
BB
  8
0
  6
CONTINUOUS
 62
     7
 10
838.176638657783
 20
177.7117300435121
 30
0.0
 40
1208.106679398982
 50
182.1541651454349
 51
182.1631885227633
  0
ARC
  5
BC
  8
0
  6
CONTINUOUS
 62
     7
 10
-370.6976887998557
 20
135.7874889026628
 30
0.0
 40
4.25574990069635
 50
271.8047498012942
 51
272.0877031645769
  0
ARC
  5
BD
  8
0
  6
CONTINUOUS
 62
     7
 10
-370.6976887998562
 20
135.7874889026771
 30
0.0
 40
4.255749900710656
 50
272.0877031645774
 51
275.9673105991263
  0
ARC
  5
BE
  8
0
  6
CONTINUOUS
 62
     7
 10
-370.5487027690359
 20
134.3621593828127
 30
0.0
 40
2.822654970995076
 50
275.9673105991387
 51
281.8180643967893
  0
ARC
  5
BF
  8
0
  6
CONTINUOUS
 62
     7
 10
-375.482233955362
 20
157.9405018603435
 30
0.0
 40
26.91161434980975
 50
281.8180643967899
 51
282.3544976752992
  0
ARC
  5
C0
  8
0
  6
CONTINUOUS
 62
     7
 10
-369.9056595166434
 20
132.4803942833832
 30
0.0
 40
0.8479373202545991
 50
282.3544976753096
 51
299.4428804999912
  0
ARC
  5
C1
  8
0
  6
CONTINUOUS
 62
     7
 10
-341.1422475994354
 20
81.52277068845285
 30
0.0
 40
57.66713140192654
 50
119.1336421195297
 51
119.4428804999903
  0
ARC
  5
C2
  8
0
  6
CONTINUOUS
 62
     7
 10
-369.3624931215696
 20
132.1545620342227
 30
0.0
 40
0.2980353123261826
 50
299.1336421195194
 51
351.5040536991492
  0
LINE
  5
C3
  8
0
  6
CONTINUOUS
 62
   253
 10
-370.5636599874477
 20
268.4566052267161
 30
0.0
 11
-409.4363650125522
 21
268.4566052267161
 31
0.0
  0
LINE
  5
C4
  8
0
  6
CONTINUOUS
 62
   253
 10
-413.7000125
 20
126.2953180455014
 30
0.0
 11
-410.9634403491125
 21
131.8106783837454
 31
0.0
  0
LINE
  5
C5
  8
0
  6
CONTINUOUS
 62
     7
 10
-413.7000125
 20
273.6951419367544
 30
0.0
 11
-413.7000125
 21
126.2953180455014
 31
0.0
  0
LINE
  5
C6
  8
0
  6
CONTINUOUS
 62
   253
 10
-410.9634403491126
 20
268.1797815985104
 30
0.0
 11
-413.7000125
 21
273.6951419367544
 31
0.0
  0
LINE
  5
C7
  8
0
  6
CONTINUOUS
 62
   253
 10
-410.9634403491126
 20
268.1797815985105
 30
0.0
 11
-410.9306570596898
 21
267.8796845981822
 31
0.0
  0
LINE
  5
C8
  8
0
  6
CONTINUOUS
 62
   253
 10
-410.9306570596898
 20
132.1107753840735
 30
0.0
 11
-410.9634403491126
 21
131.8106783837454
 31
0.0
  0
LINE
  5
C9
  8
0
  6
CONTINUOUS
 62
   253
 10
-369.0693679403101
 20
267.8796845981823
 30
0.0
 11
-369.0365846508874
 21
268.1797815985105
 31
0.0
  0
LINE
  5
CA
  8
0
  6
CONTINUOUS
 62
   253
 10
-366.3000125
 20
273.6951419367544
 30
0.0
 11
-369.0365846508874
 21
268.1797815985105
 31
0.0
  0
LINE
  5
CB
  8
0
  6
CONTINUOUS
 62
     7
 10
-366.3000125
 20
126.2953180455014
 30
0.0
 11
-366.3000125
 21
273.6951419367545
 31
0.0
  0
LINE
  5
CC
  8
0
  6
CONTINUOUS
 62
   253
 10
-369.0365846508874
 20
131.8106783837454
 30
0.0
 11
-366.3000125
 21
126.2953180455014
 31
0.0
  0
LINE
  5
CD
  8
0
  6
CONTINUOUS
 62
   253
 10
-369.0365846508874
 20
131.8106783837454
 30
0.0
 11
-369.0693679403101
 21
132.1107753840735
 31
0.0
  0
ARC
  5
CE
  8
0
  6
CONTINUOUS
 62
     7
 10
-409.4573647905445
 20
268.1546614948526
 30
0.0
 40
1.505075196678314
 50
161.1637852614907
 51
179.0444420479769
  0
ARC
  5
CF
  8
0
  6
CONTINUOUS
 62
     7
 10
-409.4923181672393
 20
268.166585253414
 30
0.0
 40
1.468143982771936
 50
138.2372734936149
 51
161.1637852614896
  0
ARC
  5
D0
  8
0
  6
CONTINUOUS
 62
     7
 10
-409.438960605323
 20
268.1189405113265
 30
0.0
 40
1.539677547357018
 50
116.3893599088919
 51
138.2372734936268
  0
ARC
  5
D1
  8
0
  6
CONTINUOUS
 62
     7
 10
-409.4389606053225
 20
268.1189405113255
 30
0.0
 40
1.539677547358011
 50
94.54144632416848
 51
116.3893599088921
  0
ARC
  5
D2
  8
0
  6
CONTINUOUS
 62
     7
 10
-409.4446246487065
 20
268.1902494832356
 30
0.0
 40
1.468143982772453
 50
90.95788437802537
 51
94.54144632415887
  0
LINE
  5
D3
  8
0
  6
CONTINUOUS
 62
   253
 10
-409.4691483019749
 20
269.6569932280288
 30
0.0
 11
-409.4363650125522
 21
268.4566052267161
 31
0.0
  0
LINE
  5
D4
  8
0
  6
CONTINUOUS
 62
   253
 10
-370.5636599874477
 20
268.4566052267161
 30
0.0
 11
-370.5308766980251
 21
269.6569932280287
 31
0.0
  0
ARC
  5
D5
  8
0
  6
CONTINUOUS
 62
     7
 10
-370.5554003512936
 20
268.1902494832356
 30
0.0
 40
1.4681439827724
 50
85.45855367583881
 51
89.04211562197463
  0
ARC
  5
D6
  8
0
  6
CONTINUOUS
 62
     7
 10
-370.5610643946775
 20
268.1189405113257
 30
0.0
 40
1.539677547357911
 50
63.61064009110613
 51
85.45855367582914
  0
ARC
  5
D7
  8
0
  6
CONTINUOUS
 62
     7
 10
-370.5610643946776
 20
268.1189405113254
 30
0.0
 40
1.539677547358209
 50
41.76272650638595
 51
63.61064009110702
  0
ARC
  5
D8
  8
0
  6
CONTINUOUS
 62
     7
 10
-370.5077068327615
 20
268.1665852534139
 30
0.0
 40
1.468143982772673
 50
18.83621473850741
 51
41.76272650636832
  0
ARC
  5
D9
  8
0
  6
CONTINUOUS
 62
     7
 10
-370.5426602094558
 20
268.1546614948526
 30
0.0
 40
1.505075196678595
 50
0.9555579520271067
 51
18.83621473850786
  0
ARC
  5
DA
  8
0
  6
CONTINUOUS
 62
     7
 10
-370.5426602094555
 20
131.8357984874031
 30
0.0
 40
1.505075196678305
 50
341.1637852614917
 51
359.044442047978
  0
ARC
  5
DB
  8
0
  6
CONTINUOUS
 62
     7
 10
-370.507706832761
 20
131.8238747288418
 30
0.0
 40
1.468143982772208
 50
318.2372734936229
 51
341.1637852614922
  0
ARC
  5
DC
  8
0
  6
CONTINUOUS
 62
     7
 10
-370.5610643946773
 20
131.8715194709298
 30
0.0
 40
1.539677547357514
 50
296.3893599088919
 51
318.2372734936214
  0
ARC
  5
DD
  8
0
  6
CONTINUOUS
 62
     7
 10
-370.5610643946773
 20
131.8715194709298
 30
0.0
 40
1.53967754735749
 50
274.5414463241639
 51
296.3893599088924
  0
ARC
  5
DE
  8
0
  6
CONTINUOUS
 62
     7
 10
-370.5554003512937
 20
131.8002104990199
 30
0.0
 40
1.468143982772102
 50
270.9578843780299
 51
274.5414463241665
  0
LINE
  5
DF
  8
0
  6
CONTINUOUS
 62
   253
 10
-370.5308766980251
 20
130.3334667542271
 30
0.0
 11
-370.5636599874477
 21
131.5338547555398
 31
0.0
  0
LINE
  5
E0
  8
0
  6
CONTINUOUS
 62
   253
 10
-409.4363650125522
 20
131.5338547555397
 30
0.0
 11
-409.469148301975
 21
130.3334667542271
 31
0.0
  0
ARC
  5
E1
  8
0
  6
CONTINUOUS
 62
     7
 10
-409.4446246487065
 20
131.8002104990201
 30
0.0
 40
1.468143982772268
 50
265.4585536758404
 51
269.0421156219724
  0
ARC
  5
E2
  8
0
  6
CONTINUOUS
 62
     7
 10
-409.4389606053226
 20
131.87151947093
 30
0.0
 40
1.539677547357788
 50
243.6106400911085
 51
265.458553675835
  0
ARC
  5
E3
  8
0
  6
CONTINUOUS
 62
     7
 10
-409.4389606053231
 20
131.8715194709292
 30
0.0
 40
1.539677547356819
 50
221.7627265063713
 51
243.610640091109
  0
ARC
  5
E4
  8
0
  6
CONTINUOUS
 62
     7
 10
-409.4923181672396
 20
131.8238747288416
 30
0.0
 40
1.468143982771576
 50
198.8362147385094
 51
221.7627265063889
  0
ARC
  5
E5
  8
0
  6
CONTINUOUS
 62
     7
 10
-409.4573647905445
 20
131.8357984874031
 30
0.0
 40
1.505075196678261
 50
180.955557952022
 51
198.83621473851
  0
LINE
  5
E6
  8
0
  6
CONTINUOUS
 62
   253
 10
-370.5308766980251
 20
130.3334667542271
 30
0.0
 11
-409.4691483019749
 21
130.3334667542271
 31
0.0
  0
LINE
  5
E7
  8
0
  6
CONTINUOUS
 62
   253
 10
-409.4691483019749
 20
269.6569932280287
 30
0.0
 11
-370.5308766980251
 21
269.6569932280287
 31
0.0
  0
ARC
  5
E8
  8
0
  6
CONTINUOUS
 62
     7
 10
-367.7999401180583
 20
273.6953023730696
 30
0.0
 40
1.499927618135934
 50
359.999416833062
 51
90.00058316693816
  0
LINE
  5
E9
  8
0
  6
CONTINUOUS
 62
   253
 10
-370.5308766980251
 20
269.6569932280288
 30
0.0
 11
-367.7829538858334
 21
275.1952299911279
 31
0.0
  0
ARC
  5
EA
  8
0
  6
CONTINUOUS
 62
     7
 10
-412.2049514928121
 20
273.697084301959
 30
0.0
 40
1.496315659378394
 50
180.0688745605447
 51
180.0744379428945
  0
ARC
  5
EB
  8
0
  6
CONTINUOUS
 62
     7
 10
-412.2049514928121
 20
273.697084301959
 30
0.0
 40
1.496315659378394
 50
179.8611328437648
 51
180.0688745605447
  0
ARC
  5
EC
  8
0
  6
CONTINUOUS
 62
     7
 10
-412.2049514928121
 20
273.697084301959
 30
0.0
 40
1.496315659378394
 50
161.6149345562951
 51
179.8611328437648
  0
ARC
  5
ED
  8
0
  6
CONTINUOUS
 62
     7
 10
-412.1692328241817
 20
273.6852126220843
 30
0.0
 40
1.533955532807714
 50
139.551795051181
 51
161.6149345562967
  0
ARC
  5
EE
  8
0
  6
CONTINUOUS
 62
     7
 10
-412.2239308877346
 20
273.73184373181
 30
0.0
 40
1.462078286403208
 50
116.389359908893
 51
139.5517950511676
  0
ARC
  5
EF
  8
0
  6
CONTINUOUS
 62
     7
 10
-412.223930887735
 20
273.7318437318108
 30
0.0
 40
1.46207828640229
 50
93.22692476660438
 51
116.3893599088938
  0
ARC
  5
F0
  8
0
  6
CONTINUOUS
 62
     7
 10
-412.2198848678016
 20
273.660080452389
 30
0.0
 40
1.533955532806722
 50
89.89498350273436
 51
93.22692476661899
  0
LINE
  5
F1
  8
0
  6
CONTINUOUS
 62
   253
 10
-412.2170711141667
 20
275.1952299911279
 30
0.0
 11
-409.4691483019749
 21
269.6569932280287
 31
0.0
  0
ARC
  5
F2
  8
0
  6
CONTINUOUS
 62
     7
 10
-367.795073507188
 20
126.2933756802969
 30
0.0
 40
1.496315659378508
 50
0.068874560542497
 51
0.0744379428944626
  0
ARC
  5
F3
  8
0
  6
CONTINUOUS
 62
     7
 10
-367.795073507188
 20
126.2933756802969
 30
0.0
 40
1.496315659378508
 50
359.861132844621
 51
0.068874560542497
  0
ARC
  5
F4
  8
0
  6
CONTINUOUS
 62
     7
 10
-367.795073507188
 20
126.2933756802969
 30
0.0
 40
1.496315659378508
 50
341.6149345562955
 51
359.861132844621
  0
ARC
  5
F5
  8
0
  6
CONTINUOUS
 62
     7
 10
-367.8307921758177
 20
126.3052473601714
 30
0.0
 40
1.533955532807197
 50
319.5517950511744
 51
341.6149345562956
  0
ARC
  5
F6
  8
0
  6
CONTINUOUS
 62
     7
 10
-367.7760941122652
 20
126.2586162504455
 30
0.0
 40
1.462078286402836
 50
296.3893599088928
 51
319.5517950511749
  0
ARC
  5
F7
  8
0
  6
CONTINUOUS
 62
     7
 10
-367.7760941122652
 20
126.2586162504454
 30
0.0
 40
1.462078286402761
 50
273.226924766612
 51
296.3893599088943
  0
ARC
  5
F8
  8
0
  6
CONTINUOUS
 62
     7
 10
-367.7801401321981
 20
126.3303795298676
 30
0.0
 40
1.533955532807489
 50
269.8949835027262
 51
273.226924766609
  0
LINE
  5
F9
  8
0
  6
CONTINUOUS
 62
   253
 10
-367.7829538858334
 20
124.7952299911279
 30
0.0
 11
-370.5308766980251
 21
130.3334667542271
 31
0.0
  0
ARC
  5
FA
  8
0
  6
CONTINUOUS
 62
     7
 10
-412.2198848678018
 20
126.3303795298676
 30
0.0
 40
1.533955532807489
 50
266.773075233391
 51
270.1050164972739
  0
ARC
  5
FB
  8
0
  6
CONTINUOUS
 62
     7
 10
-412.2239308877348
 20
126.2586162504454
 30
0.0
 40
1.462078286402761
 50
243.6106400911057
 51
266.773075233388
  0
ARC
  5
FC
  8
0
  6
CONTINUOUS
 62
     7
 10
-412.2239308877348
 20
126.2586162504455
 30
0.0
 40
1.462078286402836
 50
220.4482049488251
 51
243.6106400911071
  0
ARC
  5
FD
  8
0
  6
CONTINUOUS
 62
     7
 10
-412.1692328241822
 20
126.3052473601714
 30
0.0
 40
1.533955532807197
 50
198.3850654437043
 51
220.4482049488256
  0
ARC
  5
FE
  8
0
  6
CONTINUOUS
 62
     7
 10
-412.204951492812
 20
126.2933756802969
 30
0.0
 40
1.496315659378508
 50
180.1388671562363
 51
198.3850654437045
  0
ARC
  5
FF
  8
0
  6
CONTINUOUS
 62
     7
 10
-412.1998807444891
 20
126.2952063326128
 30
0.0
 40
1.500131754610004
 50
180.0012778467656
 51
180.2083172790304
  0
LINE
  5
100
  8
0
  6
CONTINUOUS
 62
     7
 10
-413.7000125
 20
126.2953180455014
 30
0.0
 11
-413.7000125
 21
126.2951728757242
 31
0.0
  0
LINE
  5
101
  8
0
  6
CONTINUOUS
 62
   253
 10
-409.4691483019749
 20
130.3334667542271
 30
0.0
 11
-412.2170711141667
 21
124.7952299911279
 31
0.0
  0
LINE
  5
102
  8
0
  6
CONTINUOUS
 62
     7
 10
-367.7829538858333
 20
275.1952299911279
 30
0.0
 11
-412.2170711141667
 21
275.1952299911279
 31
0.0
  0
LINE
  5
103
  8
0
  6
CONTINUOUS
 62
     7
 10
-367.7999553845963
 20
124.7952299911279
 30
0.0
 11
-367.7829538858333
 21
124.7952299911279
 31
0.0
  0
LINE
  5
104
  8
0
  6
CONTINUOUS
 62
     7
 10
-412.2000696154037
 20
124.7952299911279
 30
0.0
 11
-367.7999553845963
 21
124.7952299911279
 31
0.0
  0
LINE
  5
105
  8
0
  6
CONTINUOUS
 62
     7
 10
-412.2170711141667
 20
124.7952299911279
 30
0.0
 11
-412.2000696154037
 21
124.7952299911279
 31
0.0
  0
LINE
  5
106
  8
0
  6
CONTINUOUS
 62
   253
 10
-412.317882330579
 20
275.3130427063031
 30
0.0
 11
-412.2000702589976
 21
275.1952306347218
 31
0.0
  0
LINE
  5
107
  8
0
  6
CONTINUOUS
 62
     7
 10
-367.682142669421
 20
275.3130427063031
 30
0.0
 11
-412.317882330579
 21
275.3130427063031
 31
0.0
  0
LINE
  5
108
  8
0
  6
CONTINUOUS
 62
   253
 10
-367.7999553845963
 20
275.1952299911279
 30
0.0
 11
-367.682142669421
 21
275.3130427063031
 31
0.0
  0
LINE
  5
109
  8
0
  6
CONTINUOUS
 62
   253
 10
-366.1821997848247
 20
273.8130998217069
 30
0.0
 11
-366.3000125
 21
273.6952871065316
 31
0.0
  0
ARC
  5
10A
  8
0
  6
CONTINUOUS
 62
     7
 10
-367.6821761263096
 20
273.8129109507923
 30
0.0
 40
1.500131754610004
 50
67.50263351469368
 51
89.99872215323444
  0
ARC
  5
10B
  8
0
  6
CONTINUOUS
 62
     7
 10
-367.6820662563844
 20
273.8131762347435
 30
0.0
 40
1.499844618796794
 50
45.0
 51
67.5026335146905
  0
ARC
  5
10C
  8
0
  6
CONTINUOUS
 62
     7
 10
-367.6820662563844
 20
273.8131762347435
 30
0.0
 40
1.499844618796794
 50
22.4973664853095
 51
45.0
  0
ARC
  5
10D
  8
0
  6
CONTINUOUS
 62
     7
 10
-367.6823315403356
 20
273.8130663648183
 30
0.0
 40
1.500131754610004
 50
0.001277846767664
 51
22.49736648530632
  0
LINE
  5
10E
  8
0
  6
CONTINUOUS
 62
   253
 10
-413.7000125
 20
273.6952871065316
 30
0.0
 11
-413.8178252151752
 21
273.8130998217069
 31
0.0
  0
ARC
  5
10F
  8
0
  6
CONTINUOUS
 62
     7
 10
-412.3176934596644
 20
273.8130663648183
 30
0.0
 40
1.500131754610004
 50
157.5026335146937
 51
179.9987221532344
  0
ARC
  5
110
  8
0
  6
CONTINUOUS
 62
     7
 10
-412.3179587436156
 20
273.8131762347435
 30
0.0
 40
1.499844618796794
 50
135.0
 51
157.5026335146905
  0
ARC
  5
111
  8
0
  6
CONTINUOUS
 62
     7
 10
-412.3179587436156
 20
273.8131762347435
 30
0.0
 40
1.499844618796794
 50
112.4973664853095
 51
135.0
  0
ARC
  5
112
  8
0
  6
CONTINUOUS
 62
     7
 10
-412.3178488736904
 20
273.8129109507923
 30
0.0
 40
1.500131754610004
 50
90.00127784676557
 51
112.4973664853063
  0
LINE
  5
113
  8
0
  6
CONTINUOUS
 62
     7
 10
-366.1821997848248
 20
126.1773601605489
 30
0.0
 11
-366.1821997848248
 21
273.8130998217069
 31
0.0
  0
LINE
  5
114
  8
0
  6
CONTINUOUS
 62
   253
 10
-366.3000125
 20
126.2951728757242
 30
0.0
 11
-366.1821997848247
 21
126.1773601605489
 31
0.0
  0
LINE
  5
115
  8
0
  6
CONTINUOUS
 62
   253
 10
-367.682142669421
 20
124.6774172759527
 30
0.0
 11
-367.7999553845963
 21
124.7952299911279
 31
0.0
  0
ARC
  5
116
  8
0
  6
CONTINUOUS
 62
     7
 10
-367.6823315403356
 20
126.1773936174375
 30
0.0
 40
1.500131754610004
 50
337.5026335146937
 51
359.9987221532344
  0
ARC
  5
117
  8
0
  6
CONTINUOUS
 62
     7
 10
-367.6820662563843
 20
126.1772837475123
 30
0.0
 40
1.499844618796715
 50
315.0
 51
337.5026335146916
  0
ARC
  5
118
  8
0
  6
CONTINUOUS
 62
     7
 10
-367.6820662563842
 20
126.1772837475122
 30
0.0
 40
1.499844618796558
 50
292.4973664853064
 51
315.0
  0
ARC
  5
119
  8
0
  6
CONTINUOUS
 62
     7
 10
-367.6821761263096
 20
126.1775490314632
 30
0.0
 40
1.500131754609643
 50
270.0012778467656
 51
292.4973664853121
  0
LINE
  5
11A
  8
0
  6
CONTINUOUS
 62
   253
 10
-413.8178252151752
 20
126.1773601605489
 30
0.0
 11
-413.7000125
 21
126.2951728757242
 31
0.0
  0
LINE
  5
11B
  8
0
  6
CONTINUOUS
 62
   253
 10
-412.2000696154037
 20
124.7952299911279
 30
0.0
 11
-412.317882330579
 21
124.6774172759527
 31
0.0
  0
ARC
  5
11C
  8
0
  6
CONTINUOUS
 62
     7
 10
-412.3178488736904
 20
126.1775490314632
 30
0.0
 40
1.500131754609671
 50
247.5026335146883
 51
269.9987221532344
  0
ARC
  5
11D
  8
0
  6
CONTINUOUS
 62
     7
 10
-412.3179587436157
 20
126.1772837475121
 30
0.0
 40
1.499844618796558
 50
225.0
 51
247.5026335146936
  0
ARC
  5
11E
  8
0
  6
CONTINUOUS
 62
     7
 10
-412.3179587436156
 20
126.1772837475122
 30
0.0
 40
1.499844618796715
 50
202.4973664853084
 51
225.0
  0
ARC
  5
11F
  8
0
  6
CONTINUOUS
 62
     7
 10
-412.3176934596644
 20
126.1773936174375
 30
0.0
 40
1.500131754610004
 50
180.0012778467656
 51
202.4973664853063
  0
LINE
  5
120
  8
0
  6
CONTINUOUS
 62
     7
 10
-413.8178252151752
 20
273.8130998217069
 30
0.0
 11
-413.8178252151752
 21
126.1773601605489
 31
0.0
  0
LINE
  5
121
  8
0
  6
CONTINUOUS
 62
     7
 10
-412.317882330579
 20
124.6774172759527
 30
0.0
 11
-367.682142669421
 21
124.6774172759527
 31
0.0
  0
LINE
  5
122
  8
0
  6
CONTINUOUS
 62
     7
 10
-268.9500125
 20
126.2953180455014
 30
0.0
 11
-268.9500125
 21
273.6951419367544
 31
0.0
  0
LINE
  5
123
  8
0
  6
CONTINUOUS
 62
   253
 10
-255.4500125
 20
273.8130998217069
 30
0.0
 11
-268.9500125
 21
273.6952871065316
 31
0.0
  0
LINE
  5
124
  8
0
  6
CONTINUOUS
 62
     7
 10
-255.4500125
 20
126.1773601605489
 30
0.0
 11
-255.4500125
 21
273.8130998217069
 31
0.0
  0
LINE
  5
125
  8
0
  6
CONTINUOUS
 62
   253
 10
-268.9500125
 20
126.2951728757242
 30
0.0
 11
-255.4500125
 21
126.1773601605489
 31
0.0
  0
LINE
  5
126
  8
0
  6
CONTINUOUS
 62
     7
 10
-268.9500125
 20
126.2953180455014
 30
0.0
 11
-268.9500125
 21
126.2951728758296
 31
0.0
  0
LINE
  5
127
  8
0
  6
CONTINUOUS
 62
     7
 10
-268.9500125
 20
275.1952299911279
 30
0.0
 11
-268.9500125
 21
273.6952871065316
 31
0.0
  0
LINE
  5
128
  8
0
  6
CONTINUOUS
 62
     7
 10
-268.9500125
 20
275.1952299911279
 30
0.0
 11
-255.4500125
 21
275.3130427063031
 31
0.0
  0
LINE
  5
129
  8
0
  6
CONTINUOUS
 62
     7
 10
-255.4500125
 20
275.3130427063031
 30
0.0
 11
-255.4500125
 21
273.8130998217069
 31
0.0
  0
LINE
  5
12A
  8
0
  6
CONTINUOUS
 62
     7
 10
-255.4500125
 20
124.6774172759527
 30
0.0
 11
-268.9500125
 21
124.7952299911279
 31
0.0
  0
LINE
  5
12B
  8
0
  6
CONTINUOUS
 62
     7
 10
-268.9500125
 20
126.2951728758296
 30
0.0
 11
-268.9500125
 21
126.2897521345314
 31
0.0
  0
LINE
  5
12C
  8
0
  6
CONTINUOUS
 62
     7
 10
-255.4500125
 20
126.1773601605489
 30
0.0
 11
-255.4500125
 21
124.6774172759527
 31
0.0
  0
ARC
  5
12D
  8
0
  6
CONTINUOUS
 62
   253
 10
-209.6807461141215
 20
169.9952299911279
 30
0.0
 40
98.49999999999999
 50
180.0
 51
202.6197636330321
  0
LINE
  5
12E
  8
0
  6
CONTINUOUS
 62
   253
 10
-308.1807461141215
 20
229.9952299911279
 30
0.0
 11
-308.1807461141215
 21
169.9952299911279
 31
0.0
  0
ARC
  5
12F
  8
0
  6
CONTINUOUS
 62
   253
 10
-209.6807461141215
 20
229.9952299911279
 30
0.0
 40
98.49999999999999
 50
157.3802363669679
 51
180.0
  0
ARC
  5
130
  8
0
  6
CONTINUOUS
 62
     7
 10
-300.1423512260903
 20
267.6873777220043
 30
0.0
 40
0.5000000000000092
 50
99.99999999999528
 51
157.3802363669617
  0
LINE
  5
131
  8
0
  6
CONTINUOUS
 62
   253
 10
-268.9500125
 20
273.6951419367544
 30
0.0
 11
-300.2291753149237
 21
268.1797815985104
 31
0.0
  0
LINE
  5
132
  8
0
  6
CONTINUOUS
 62
   253
 10
-300.2291753149237
 20
131.8106783837454
 30
0.0
 11
-268.9500125
 21
126.2953180455014
 31
0.0
  0
ARC
  5
133
  8
0
  6
CONTINUOUS
 62
     7
 10
-300.1423512260902
 20
132.3030822602516
 30
0.0
 40
0.5000000000001376
 50
202.6197636330421
 51
259.9999999999944
  0
ARC
  5
134
  8
0
  6
CONTINUOUS
 62
     7
 10
-300.3513907215207
 20
269.6143267810014
 30
0.0
 40
0.0433246457462206
 50
100.0000000000102
 51
197.7920298503453
  0
ARC
  5
135
  8
0
  6
CONTINUOUS
 62
     7
 10
-300.5270329912368
 20
269.5579611677109
 30
0.0
 40
0.1411402269873078
 50
351.0446628636328
 51
17.79202985025347
  0
ARC
  5
136
  8
0
  6
CONTINUOUS
 62
     7
 10
-299.8334802009605
 20
269.4486673251598
 30
0.0
 40
0.5609713146636154
 50
171.0446628636246
 51
187.8733858340629
  0
ARC
  5
137
  8
0
  6
CONTINUOUS
 62
     7
 10
-302.7499131986962
 20
269.0453594971026
 30
0.0
 40
2.383215947460383
 50
3.925613415873784
 51
7.873385834107694
  0
ARC
  5
138
  8
0
  6
CONTINUOUS
 62
     7
 10
-294.3482363180873
 20
269.6219018086946
 30
0.0
 40
6.038219526567302
 50
183.9256134158741
 51
188.9644106737519
  0
ARC
  5
139
  8
0
  6
CONTINUOUS
 62
     7
 10
-271.3007633559545
 20
273.2575892724712
 30
0.0
 40
29.37069117606268
 50
188.9644106737437
 51
189.9557140368283
  0
LINE
  5
13A
  8
0
  6
CONTINUOUS
 62
     7
 10
-300.3589139673027
 20
269.6569932280287
 30
0.0
 11
-268.9500125
 21
275.1952299911279
 31
0.0
  0
LINE
  5
13B
  8
0
  6
CONTINUOUS
 62
     7
 10
-268.9500125
 20
126.2897521345314
 30
0.0
 11
-268.9500125
 21
124.7952299911279
 31
0.0
  0
LINE
  5
13C
  8
0
  6
CONTINUOUS
 62
     7
 10
-268.9500125
 20
124.7952299911279
 30
0.0
 11
-300.3589139673026
 21
130.3334667542271
 31
0.0
  0
ARC
  5
13D
  8
0
  6
CONTINUOUS
 62
     7
 10
-271.3007633559666
 20
126.7328707097866
 30
0.0
 40
29.37069117605041
 50
170.0442859631715
 51
171.0355893262566
  0
ARC
  5
13E
  8
0
  6
CONTINUOUS
 62
     7
 10
-294.3482363180854
 20
130.3685581735609
 30
0.0
 40
6.03821952656931
 50
171.0355893262488
 51
176.0743865841253
  0
ARC
  5
13F
  8
0
  6
CONTINUOUS
 62
     7
 10
-302.7499131987174
 20
130.9451004851547
 30
0.0
 40
2.383215947481697
 50
352.1266141659275
 51
356.0743865841253
  0
ARC
  5
140
  8
0
  6
CONTINUOUS
 62
     7
 10
-299.8334802009617
 20
130.5417926570958
 30
0.0
 40
0.5609713146624294
 50
172.1266141659003
 51
188.9553371363715
  0
ARC
  5
141
  8
0
  6
CONTINUOUS
 62
     7
 10
-300.5270329912368
 20
130.4324988145449
 30
0.0
 40
0.1411402269874218
 50
342.2079701497495
 51
8.955337136371329
  0
ARC
  5
142
  8
0
  6
CONTINUOUS
 62
     7
 10
-300.3513907215207
 20
130.3761332012544
 30
0.0
 40
0.0433246457462206
 50
162.2079701496896
 51
259.9999999999898
  0
ARC
  5
143
  8
0
  6
CONTINUOUS
 62
     7
 10
-271.2784155524784
 20
337.9474116478137
 30
0.0
 40
75.95709384079652
 50
246.9801375833513
 51
247.2892072472455
  0
ARC
  5
144
  8
0
  6
CONTINUOUS
 62
     7
 10
-295.0153696794186
 20
282.0805068463061
 30
0.0
 40
15.2565663033428
 50
244.9880897521315
 51
246.980137583353
  0
ARC
  5
145
  8
0
  6
CONTINUOUS
 62
     7
 10
-307.7337704160983
 20
254.8206043218821
 30
0.0
 40
14.82432468977563
 50
64.98808975213174
 51
65.61731766456086
  0
ARC
  5
146
  8
0
  6
CONTINUOUS
 62
     7
 10
-300.6120194439216
 20
270.5330390553081
 30
0.0
 40
2.426760556140716
 50
241.7728584185779
 51
245.6173176646034
  0
ARC
  5
147
  8
0
  6
CONTINUOUS
 62
     7
 10
-302.087960303523
 20
267.7835492318874
 30
0.0
 40
0.6938316488958026
 50
61.77285841857869
 51
65.32278652714429
  0
ARC
  5
148
  8
0
  6
CONTINUOUS
 62
     7
 10
-301.7220854436677
 20
268.5798522701632
 30
0.0
 40
0.1825032995351053
 50
231.7976300782108
 51
245.3227865272027
  0
ARC
  5
149
  8
0
  6
CONTINUOUS
 62
     7
 10
-301.8537407565701
 20
268.4125624492392
 30
0.0
 40
0.0303793103704733
 50
51.79763007823651
 51
82.46616162197463
  0
ARC
  5
14A
  8
0
  6
CONTINUOUS
 62
     7
 10
-301.8484307482894
 20
268.4527127169176
 30
0.0
 40
0.0101205684266274
 50
157.3802363669529
 51
262.4661616217958
  0
ARC
  5
14B
  8
0
  6
CONTINUOUS
 62
     7
 10
-300.0116176119687
 20
267.6873777220043
 30
0.0
 40
2.0
 50
100.0000000000005
 51
157.3802363669681
  0
ARC
  5
14C
  8
0
  6
CONTINUOUS
 62
     7
 10
-300.0116176119687
 20
132.3030822602514
 30
0.0
 40
2.0
 50
202.6197636330312
 51
259.9999999999998
  0
ARC
  5
14D
  8
0
  6
CONTINUOUS
 62
     7
 10
-301.8484307482894
 20
131.5377472653383
 30
0.0
 40
0.0101205684266274
 50
97.5338383782248
 51
202.6197636330471
  0
ARC
  5
14E
  8
0
  6
CONTINUOUS
 62
     7
 10
-301.8537407565703
 20
131.5778975330169
 30
0.0
 40
0.0303793103707851
 50
277.5338383783719
 51
308.2023699218336
  0
ARC
  5
14F
  8
0
  6
CONTINUOUS
 62
     7
 10
-301.7220854436682
 20
131.4106077120935
 30
0.0
 40
0.182503299534142
 50
114.6772134727639
 51
128.2023699218277
  0
ARC
  5
150
  8
0
  6
CONTINUOUS
 62
     7
 10
-302.0879603035276
 20
132.2069107503766
 30
0.0
 40
0.6938316489051942
 50
294.677213472913
 51
298.2271415814316
  0
ARC
  5
151
  8
0
  6
CONTINUOUS
 62
     7
 10
-300.6120194439271
 20
129.4574209269588
 30
0.0
 40
2.42676055612841
 50
114.3826823353872
 51
118.2271415814323
  0
ARC
  5
152
  8
0
  6
CONTINUOUS
 62
     7
 10
-307.7337704158907
 20
145.1698556599332
 30
0.0
 40
14.82432468928859
 50
294.3826823354112
 51
295.0119102478609
  0
ARC
  5
153
  8
0
  6
CONTINUOUS
 62
     7
 10
-295.0153696794079
 20
117.9099531359219
 30
0.0
 40
15.25656630337256
 50
113.0198624166435
 51
115.0119102478608
  0
ARC
  5
154
  8
0
  6
CONTINUOUS
 62
     7
 10
-271.2784155526882
 20
62.04304833494077
 30
0.0
 40
75.95709384025551
 50
112.7107927527541
 51
113.0198624166502
  0
LINE
  5
155
  8
0
  6
CONTINUOUS
 62
   253
 10
-309.5500125
 20
229.9952299911279
 30
0.0
 11
-308.1807461141215
 21
229.9952299911279
 31
0.0
  0
ARC
  5
156
  8
0
  6
CONTINUOUS
 62
     7
 10
-209.5500125
 20
229.9952299911279
 30
0.0
 40
99.99999999999997
 50
157.3802363669679
 51
180.0
  0
LINE
  5
157
  8
0
  6
CONTINUOUS
 62
   253
 10
-309.5500125
 20
169.9952299911279
 30
0.0
 11
-308.1807461141215
 21
169.9952299911279
 31
0.0
  0
ARC
  5
158
  8
0
  6
CONTINUOUS
 62
     7
 10
-209.5500125
 20
169.9952299911279
 30
0.0
 40
99.99999999999997
 50
180.0
 51
202.6197636330321
  0
LINE
  5
159
  8
0
  6
CONTINUOUS
 62
     7
 10
-309.5500125
 20
169.9952299911279
 30
0.0
 11
-309.5500125
 21
229.9952299911279
 31
0.0
  0
LINE
  5
15A
  8
0
  6
CONTINUOUS
 62
   253
 10
-367.682142669421
 20
17.95001249999998
 30
0.0
 11
-367.7999553845963
 21
31.45001249999999
 31
0.0
  0
LINE
  5
15B
  8
0
  6
CONTINUOUS
 62
     7
 10
-412.317882330579
 20
17.95001249999998
 30
0.0
 11
-367.682142669421
 21
17.95001249999998
 31
0.0
  0
LINE
  5
15C
  8
0
  6
CONTINUOUS
 62
   253
 10
-412.2000696154037
 20
31.45001249999999
 30
0.0
 11
-412.317882330579
 21
17.95001249999997
 31
0.0
  0
LINE
  5
15D
  8
0
  6
CONTINUOUS
 62
     7
 10
-412.2000696154037
 20
31.45001249999999
 30
0.0
 11
-367.7999553845963
 21
31.45001249999999
 31
0.0
  0
LINE
  5
15E
  8
0
  6
CONTINUOUS
 62
     7
 10
-413.8178252151752
 20
17.95001249999998
 30
0.0
 11
-413.7000125
 21
31.45001249999999
 31
0.0
  0
LINE
  5
15F
  8
0
  6
CONTINUOUS
 62
     7
 10
-412.317882330579
 20
17.95001249999998
 30
0.0
 11
-413.8178252151752
 21
17.95001249999998
 31
0.0
  0
LINE
  5
160
  8
0
  6
CONTINUOUS
 62
     7
 10
-366.3000125
 20
31.45001249999999
 30
0.0
 11
-366.1821997848247
 21
17.95001249999997
 31
0.0
  0
LINE
  5
161
  8
0
  6
CONTINUOUS
 62
     7
 10
-366.1821997848247
 20
17.95001249999998
 30
0.0
 11
-367.682142669421
 21
17.95001249999998
 31
0.0
  0
LINE
  5
162
  8
0
  6
CONTINUOUS
 62
     7
 10
-413.7000125
 20
31.45001249999999
 30
0.0
 11
-410.9634403491125
 21
62.72917531492371
 31
0.0
  0
ARC
  5
163
  8
0
  6
CONTINUOUS
 62
     7
 10
-410.285938495385
 20
53.26248706974153
 30
0.0
 40
9.631127274278217
 50
85.13505278476975
 51
86.7088423868329
  0
ARC
  5
164
  8
0
  6
CONTINUOUS
 62
     7
 10
-410.0757108366617
 20
56.91831529013012
 30
0.0
 40
5.969259493284226
 50
86.70884238683773
 51
89.46614532327771
  0
ARC
  5
165
  8
0
  6
CONTINUOUS
 62
     7
 10
-410.1755632464775
 20
46.20199801670146
 30
0.0
 40
16.68604195858283
 50
89.46614532327798
 51
90.30758305047743
  0
ARC
  5
166
  8
0
  6
CONTINUOUS
 62
     7
 10
-410.2525452552879
 20
60.54187085823195
 30
0.0
 40
2.345962483874742
 50
90.30758305047738
 51
96.29511689130325
  0
ARC
  5
167
  8
0
  6
CONTINUOUS
 62
     7
 10
-410.7539527610683
 20
65.08711475605223
 30
0.0
 40
2.226854107409618
 50
271.953841915981
 51
276.2951168913032
  0
ARC
  5
168
  8
0
  6
CONTINUOUS
 62
     7
 10
-410.6652020755885
 20
62.48553864004321
 30
0.0
 40
0.3762353976903792
 50
91.95384191596149
 51
117.8629282575003
  0
ARC
  5
169
  8
0
  6
CONTINUOUS
 62
     7
 10
-411.0118533441982
 20
63.14127456797605
 30
0.0
 40
0.3654900968226733
 50
285.5998080575921
 51
297.8629282574967
  0
ARC
  5
16A
  8
0
  6
CONTINUOUS
 62
     7
 10
-410.895125940319
 20
62.72319857859878
 30
0.0
 40
0.0685753587369751
 50
105.5998080576479
 51
174.9999999999765
  0
LINE
  5
16B
  8
0
  6
CONTINUOUS
 62
   253
 10
-409.4691483019749
 20
62.85891396730263
 30
0.0
 11
-412.2170711141667
 21
31.45001249999999
 31
0.0
  0
LINE
  5
16C
  8
0
  6
CONTINUOUS
 62
     7
 10
-412.2170711141667
 20
31.45001249999999
 30
0.0
 11
-413.7000024437766
 21
31.45001249999999
 31
0.0
  0
LINE
  5
16D
  8
0
  6
CONTINUOUS
 62
   253
 10
-367.7829538858333
 20
31.45001249999999
 30
0.0
 11
-370.5308766980251
 21
62.85891396730261
 31
0.0
  0
ARC
  5
16E
  8
0
  6
CONTINUOUS
 62
     7
 10
-369.1048990596809
 20
62.72319857859881
 30
0.0
 40
0.0685753587368621
 50
4.999999999996853
 51
74.4001919424798
  0
ARC
  5
16F
  8
0
  6
CONTINUOUS
 62
     7
 10
-368.9881716558018
 20
63.1412745679758
 30
0.0
 40
0.3654900968224006
 50
242.1370717425001
 51
254.4001919424052
  0
ARC
  5
170
  8
0
  6
CONTINUOUS
 62
     7
 10
-369.3348229244113
 20
62.48553864004335
 30
0.0
 40
0.3762353976902306
 50
62.13707174249722
 51
88.04615808403778
  0
ARC
  5
171
  8
0
  6
CONTINUOUS
 62
     7
 10
-369.2460722389317
 20
65.08711475605007
 30
0.0
 40
2.226854107407447
 50
263.7048831086947
 51
268.0461580840227
  0
ARC
  5
172
  8
0
  6
CONTINUOUS
 62
     7
 10
-369.7474797447119
 20
60.54187085823337
 30
0.0
 40
2.345962483873316
 50
83.70488310869568
 51
89.69241694952657
  0
ARC
  5
173
  8
0
  6
CONTINUOUS
 62
     7
 10
-369.8244617535226
 20
46.20199801674384
 30
0.0
 40
16.68604195854045
 50
89.69241694952143
 51
90.53385467672302
  0
ARC
  5
174
  8
0
  6
CONTINUOUS
 62
     7
 10
-369.9243141633382
 20
56.91831529013742
 30
0.0
 40
5.969259493276926
 50
90.53385467672288
 51
93.29115761316619
  0
ARC
  5
175
  8
0
  6
CONTINUOUS
 62
     7
 10
-369.714086504615
 20
53.26248706974081
 30
0.0
 40
9.631127274278937
 50
93.29115761316721
 51
94.8649472152302
  0
LINE
  5
176
  8
0
  6
CONTINUOUS
 62
     7
 10
-369.0365846508874
 20
62.72917531492368
 30
0.0
 11
-366.3000125
 21
31.45001249999999
 31
0.0
  0
LINE
  5
177
  8
0
  6
CONTINUOUS
 62
     7
 10
-366.3000225562233
 20
31.45001249999999
 30
0.0
 11
-367.7829538858333
 21
31.45001249999999
 31
0.0
  0
LINE
  5
178
  8
0
  6
CONTINUOUS
 62
   253
 10
-370.5308766980251
 20
62.85891396730261
 30
0.0
 11
-409.4691483019749
 21
62.85891396730263
 31
0.0
  0
LINE
  5
179
  8
0
  6
CONTINUOUS
 62
     7
 10
-367.7999553845963
 20
31.45001249999999
 30
0.0
 11
-367.7829538858333
 21
31.45001249999999
 31
0.0
  0
LINE
  5
17A
  8
0
  6
CONTINUOUS
 62
     7
 10
-412.2170711141667
 20
31.45001249999999
 30
0.0
 11
-412.2000696154037
 21
31.45001249999999
 31
0.0
  0
LINE
  5
17B
  8
0
  6
CONTINUOUS
 62
   253
 10
-370.5308766980251
 20
62.85891396730261
 30
0.0
 11
-370.5636599874477
 21
64.35777281833548
 31
0.0
  0
ARC
  5
17C
  8
0
  6
CONTINUOUS
 62
     7
 10
-370.5377199443906
 20
62.67666036468146
 30
0.0
 40
1.681461799896545
 50
75.19328218951513
 51
90.88402001020529
  0
ARC
  5
17D
  8
0
  6
CONTINUOUS
 62
     7
 10
-370.4600847421729
 20
62.97035837576541
 30
0.0
 40
1.377676108432867
 50
50.9590130665668
 51
75.19328218950744
  0
ARC
  5
17E
  8
0
  6
CONTINUOUS
 62
     7
 10
-370.557218566858
 20
62.85058338554183
 30
0.0
 40
1.531887094361259
 50
30.37922361107627
 51
50.95901306656742
  0
ARC
  5
17F
  8
0
  6
CONTINUOUS
 62
     7
 10
-370.3103135892054
 20
62.99532135135177
 30
0.0
 40
1.245685859674168
 50
20.83176798046321
 51
30.37922361108588
  0
LINE
  5
180
  8
0
  6
CONTINUOUS
 62
     7
 10
-369.0365846508874
 20
62.72917531492371
 30
0.0
 11
-369.0693679403101
 21
63.10389002768192
 31
0.0
  0
LINE
  5
181
  8
0
  6
CONTINUOUS
 62
   253
 10
-409.4363650125522
 20
64.3577728183355
 30
0.0
 11
-370.5636599874477
 21
64.35777281833548
 31
0.0
  0
LINE
  5
182
  8
0
  6
CONTINUOUS
 62
   253
 10
-409.4363650125522
 20
64.35777281833548
 30
0.0
 11
-409.4691483019749
 21
62.85891396730263
 31
0.0
  0
ARC
  5
183
  8
0
  6
CONTINUOUS
 62
     7
 10
-409.6897114107944
 20
62.99532135135177
 30
0.0
 40
1.24568585967434
 50
149.6207763889158
 51
174.9999999999916
  0
ARC
  5
184
  8
0
  6
CONTINUOUS
 62
     7
 10
-409.4428064331415
 20
62.85058338554121
 30
0.0
 40
1.531887094362024
 50
129.0409869334308
 51
149.6207763889116
  0
ARC
  5
185
  8
0
  6
CONTINUOUS
 62
     7
 10
-409.5399402578271
 20
62.97035837576548
 30
0.0
 40
1.377676108432708
 50
104.8067178104848
 51
129.0409869334297
  0
ARC
  5
186
  8
0
  6
CONTINUOUS
 62
     7
 10
-409.4623050556092
 20
62.67666036468204
 30
0.0
 40
1.681461799895909
 50
89.11597998979437
 51
104.8067178104866
  0
LINE
  5
187
  8
0
  6
CONTINUOUS
 62
     7
 10
-410.9306570596898
 20
63.10389002768192
 30
0.0
 11
-410.9634403491125
 21
62.72917531492371
 31
0.0
  0
ARC
  5
188
  8
0
  6
CONTINUOUS
 62
     7
 10
-370.3103135892054
 20
62.99532135135177
 30
0.0
 40
1.245685859674113
 50
5.000000000000455
 51
20.83176798046469
  0
LINE
  5
189
  8
0
  6
CONTINUOUS
 62
     7
 10
-371.2221795707782
 20
71.99930914306609
 30
0.0
 11
-371.2224723153085
 21
72.00270618397265
 31
0.0
  0
LINE
  5
18A
  8
0
  6
CONTINUOUS
 62
     7
 10
-371.2224723153085
 20
72.00270618397265
 30
0.0
 11
-371.2265490001786
 21
72.05001249999985
 31
0.0
  0
LINE
  5
18B
  8
0
  6
CONTINUOUS
 62
   253
 10
-370.5636599874477
 20
64.35777281833539
 30
0.0
 11
-371.2221795707782
 21
71.99930914306609
 31
0.0
  0
LINE
  5
18C
  8
0
  6
CONTINUOUS
 62
     7
 10
-371.2265490001786
 20
72.05001249999994
 30
0.0
 11
-408.7734759998212
 21
72.05001249999994
 31
0.0
  0
LINE
  5
18D
  8
0
  6
CONTINUOUS
 62
   253
 10
-408.7734759998214
 20
72.05001249999985
 30
0.0
 11
-409.4363650125522
 21
64.35777281833545
 31
0.0
  0
ARC
  5
18E
  8
0
  6
CONTINUOUS
 62
     7
 10
-408.7734759998213
 20
70.5500125
 30
0.0
 40
1.500000000000001
 50
89.99999999999763
 51
174.9999999999999
  0
LINE
  5
18F
  8
0
  6
CONTINUOUS
 62
     7
 10
-410.9306570596898
 20
63.10389002768195
 30
0.0
 11
-410.267768046959
 21
70.68074611412145
 31
0.0
  0
ARC
  5
190
  8
0
  6
CONTINUOUS
 62
     7
 10
-401.4006285988036
 20
62.92977516375753
 30
0.0
 40
32.25977148255949
 50
0.9040540571452437
 51
14.50604275107252
  0
LINE
  5
191
  8
0
  6
CONTINUOUS
 62
     7
 10
-370.1692590018892
 20
71.01027076785806
 30
0.0
 11
-370.3681494096966
 21
71.34997557487611
 31
0.0
  0
LINE
  5
192
  8
0
  6
CONTINUOUS
 62
     7
 10
-370.3681494096966
 20
71.34997557487611
 30
0.0
 11
-370.610990096473
 21
71.64436587971348
 31
0.0
  0
LINE
  5
193
  8
0
  6
CONTINUOUS
 62
     7
 10
-370.610990096473
 20
71.64436587971348
 30
0.0
 11
-370.8975678727377
 21
71.8696882572634
 31
0.0
  0
LINE
  5
194
  8
0
  6
CONTINUOUS
 62
     7
 10
-370.8975678727377
 20
71.8696882572634
 30
0.0
 11
-371.2221912130412
 21
71.99944424121358
 31
0.0
  0
ENDSEC
  0
EOF
