  0
SECTION
  2
HEADER
  9
$ACADVER
  1
AC1006
  9
$DWGCODEPAGE
  3
ansi_932
  9
$INSBASE
 10
0.0
 20
0.0
 30
0.0
  9
$EXTMIN
 10
-826.8178252151753
 20
-9.549987500000027
  9
$EXTMAX
 10
-620.4500125
 20
242.8130427063032
  9
$LIMMIN
 10
0.0
 20
0.0
  9
$LIMMAX
 10
12.0
 20
9.0
  9
$ORTHOMODE
 70
     0
  9
$REGENMODE
 70
     1
  9
$FILLMODE
 70
     1
  9
$QTEXTMODE
 70
     0
  9
$MIRRTEXT
 70
     1
  9
$DRAGMODE
 70
     2
  9
$LTSCALE
 40
1.0
  9
$OSMODE
 70
    37
  9
$ATTMODE
 70
     1
  9
$TEXTSIZE
 40
0.2
  9
$TRACEWID
 40
0.05
  9
$TEXTSTYLE
  7
STANDARD
  9
$CLAYER
  8
0
  9
$CELTYPE
  6
BYLAYER
  9
$CECOLOR
 62
   256
  9
$DIMSCALE
 40
1.0
  9
$DIMASZ
 40
3.0
  9
$DIMEXO
 40
0.0625
  9
$DIMDLI
 40
0.38
  9
$DIMRND
 40
0.0
  9
$DIMDLE
 40
0.0
  9
$DIMEXE
 40
1.5
  9
$DIMTP
 40
0.0
  9
$DIMTM
 40
0.0
  9
$DIMTXT
 40
3.0
  9
$DIMCEN
 40
0.09
  9
$DIMTSZ
 40
0.0
  9
$DIMTOL
 70
     0
  9
$DIMLIM
 70
     0
  9
$DIMTIH
 70
     1
  9
$DIMTOH
 70
     1
  9
$DIMSE1
 70
     0
  9
$DIMSE2
 70
     0
  9
$DIMTAD
 70
     1
  9
$DIMZIN
 70
     0
  9
$DIMBLK
  1

  9
$DIMASO
 70
     1
  9
$DIMSHO
 70
     1
  9
$DIMPOST
  1

  9
$DIMAPOST
  1

  9
$DIMALT
 70
     0
  9
$DIMALTD
 70
     2
  9
$DIMALTF
 40
25.4
  9
$DIMLFAC
 40
1.0
  9
$DIMTOFL
 70
     0
  9
$DIMTVP
 40
0.0
  9
$DIMTIX
 70
     0
  9
$DIMSOXD
 70
     0
  9
$DIMSAH
 70
     0
  9
$DIMBLK1
  1

  9
$DIMBLK2
  1

  9
$LUNITS
 70
     2
  9
$LUPREC
 70
     4
  9
$SKETCHINC
 40
0.1
  9
$FILLETRAD
 40
0.5
  9
$AUNITS
 70
     0
  9
$AUPREC
 70
     0
  9
$MENU
  1
.
  9
$ELEVATION
 40
0.0
  9
$THICKNESS
 40
0.0
  9
$LIMCHECK
 70
     0
  9
$CHAMFERA
 40
0.0
  9
$CHAMFERB
 40
0.0
  9
$SKPOLY
 70
     0
  9
$TDCREATE
 40
2459692.448937477
  9
$TDUPDATE
 40
2459692.44893765
  9
$TDINDWG
 40
0.0000000116
  9
$TDUSRTIMER
 40
0.0000000116
  9
$USRTIMER
 70
     1
  9
$ANGBASE
 50
0.0
  9
$ANGDIR
 70
     0
  9
$PDMODE
 70
     0
  9
$PDSIZE
 40
0.0
  9
$PLINEWID
 40
0.0
  9
$COORDS
 70
     1
  9
$SPLFRAME
 70
     0
  9
$SPLINETYPE
 70
     6
  9
$SPLINESEGS
 70
     8
  9
$ATTDIA
 70
     0
  9
$ATTREQ
 70
     1
  9
$HANDLING
 70
     1
  9
$HANDSEED
  5
1BC
  9
$SURFTAB1
 70
     6
  9
$SURFTAB2
 70
     6
  9
$SURFTYPE
 70
     6
  9
$SURFU
 70
     6
  9
$SURFV
 70
     6
  9
$UCSNAME
  2

  9
$UCSORG
 10
0.0
 20
0.0
 30
0.0
  9
$UCSXDIR
 10
1.0
 20
0.0
 30
0.0
  9
$UCSYDIR
 10
0.0
 20
1.0
 30
0.0
  9
$USERI1
 70
     0
  9
$USERI2
 70
     0
  9
$USERI3
 70
     0
  9
$USERI4
 70
     0
  9
$USERI5
 70
     0
  9
$USERR1
 40
0.0
  9
$USERR2
 40
0.0
  9
$USERR3
 40
0.0
  9
$USERR4
 40
0.0
  9
$USERR5
 40
0.0
  9
$WORLDVIEW
 70
     1
  0
ENDSEC
  0
SECTION
  2
TABLES
  0
TABLE
  2
VPORT
 70
     1
  0
VPORT
  2
*ACTIVE
 70
     0
 10
0.0
 20
0.0
 11
1.0
 21
1.0
 12
-723.6339188575876
 22
116.6315276031516
 13
0.0
 23
0.0
 14
0.5
 24
0.5
 15
0.5
 25
0.5
 16
0.0
 26
0.0
 36
1.0
 17
0.0
 27
0.0
 37
0.0
 40
252.3630302063032
 41
1.6
 42
50.0
 43
0.0
 44
0.0
 50
0.0
 51
0.0
 71
     0
 72
   100
 73
     1
 74
     3
 75
     0
 76
     0
 77
     0
 78
     0
  0
ENDTAB
  0
TABLE
  2
LTYPE
 70
     1
  0
LTYPE
  2
CONTINUOUS
 70
     0
  3
Solid line
 72
    65
 73
     0
 40
0.0
  0
ENDTAB
  0
TABLE
  2
LAYER
 70
     1
  0
LAYER
  2
0
 70
     0
 62
     7
  6
CONTINUOUS
  0
ENDTAB
  0
TABLE
  2
STYLE
 70
     2
  0
STYLE
  2
STANDARD
 70
     0
 40
0.0
 41
1.0
 50
0.0
 71
     0
 42
0.2
  3
txt
  4

  0
STYLE
  2
ＭＳ_ゴシック
 70
     0
 40
0.0
 41
1.0
 50
0.0
 71
     0
 42
0.2
  3
ＭＳ ゴシック.shx
  4

  0
ENDTAB
  0
TABLE
  2
VIEW
 70
     0
  0
ENDTAB
  0
TABLE
  2
UCS
 70
     0
  0
ENDTAB
  0
ENDSEC
  0
SECTION
  2
BLOCKS
  0
ENDSEC
  0
SECTION
  2
ENTITIES
  0
LINE
  5
6F
  8
0
  6
CONTINUOUS
 62
     7
 10
-633.9500125
 20
93.79531804550146
 30
0.0
 11
-633.9500125
 21
241.1951419367545
 31
0.0
  0
LINE
  5
70
  8
0
  6
CONTINUOUS
 62
   253
 10
-620.4500125
 20
241.3130998217069
 30
0.0
 11
-633.9500125
 21
241.1952871065317
 31
0.0
  0
LINE
  5
71
  8
0
  6
CONTINUOUS
 62
     7
 10
-620.4500125
 20
93.677360160549
 30
0.0
 11
-620.4500125
 21
241.3130998217069
 31
0.0
  0
LINE
  5
72
  8
0
  6
CONTINUOUS
 62
   253
 10
-633.9500125
 20
93.79517287572425
 30
0.0
 11
-620.4500125
 21
93.677360160549
 31
0.0
  0
LINE
  5
73
  8
0
  6
CONTINUOUS
 62
     7
 10
-633.9500125
 20
93.79531804550146
 30
0.0
 11
-633.9500125
 21
93.79517287582962
 31
0.0
  0
LINE
  5
74
  8
0
  6
CONTINUOUS
 62
     7
 10
-633.9500125
 20
242.695229991128
 30
0.0
 11
-633.9500125
 21
241.1952871065317
 31
0.0
  0
LINE
  5
75
  8
0
  6
CONTINUOUS
 62
     7
 10
-633.9500125
 20
242.695229991128
 30
0.0
 11
-620.4500125
 21
242.8130427063032
 31
0.0
  0
LINE
  5
76
  8
0
  6
CONTINUOUS
 62
     7
 10
-620.4500125
 20
242.8130427063032
 30
0.0
 11
-620.4500125
 21
241.3130998217069
 31
0.0
  0
LINE
  5
77
  8
0
  6
CONTINUOUS
 62
     7
 10
-620.4500125
 20
92.17741727595275
 30
0.0
 11
-633.9500125
 21
92.295229991128
 31
0.0
  0
LINE
  5
78
  8
0
  6
CONTINUOUS
 62
     7
 10
-633.9500125
 20
93.79517287582962
 30
0.0
 11
-633.9500125
 21
93.78975213451847
 31
0.0
  0
LINE
  5
79
  8
0
  6
CONTINUOUS
 62
     7
 10
-620.4500125
 20
93.677360160549
 30
0.0
 11
-620.4500125
 21
92.17741727595275
 31
0.0
  0
ARC
  5
7A
  8
0
  6
CONTINUOUS
 62
   253
 10
-574.6807461141215
 20
137.495229991128
 30
0.0
 40
98.49999999999999
 50
180.0
 51
202.6197636330322
  0
LINE
  5
7B
  8
0
  6
CONTINUOUS
 62
   253
 10
-673.1807461141213
 20
197.495229991128
 30
0.0
 11
-673.1807461141213
 21
137.495229991128
 31
0.0
  0
ARC
  5
7C
  8
0
  6
CONTINUOUS
 62
   253
 10
-574.6807461141215
 20
197.495229991128
 30
0.0
 40
98.49999999999999
 50
157.3802363669679
 51
180.0
  0
ARC
  5
7D
  8
0
  6
CONTINUOUS
 62
     7
 10
-665.1423512260902
 20
235.1873777220043
 30
0.0
 40
0.5000000000000818
 50
99.99999999999365
 51
157.3802363669582
  0
LINE
  5
7E
  8
0
  6
CONTINUOUS
 62
   253
 10
-633.9500125
 20
241.1951419367545
 30
0.0
 11
-665.2291753149236
 21
235.6797815985105
 31
0.0
  0
LINE
  5
7F
  8
0
  6
CONTINUOUS
 62
   253
 10
-665.2291753149236
 20
99.31067838374547
 30
0.0
 11
-633.9500125
 21
93.79531804550146
 31
0.0
  0
ARC
  5
80
  8
0
  6
CONTINUOUS
 62
     7
 10
-665.1423512260905
 20
99.80308226025119
 30
0.0
 40
0.4999999999996013
 50
202.619763633008
 51
260.0000000000223
  0
ARC
  5
81
  8
0
  6
CONTINUOUS
 62
     7
 10
-665.3513907215207
 20
237.1143267810015
 30
0.0
 40
0.0433246457461659
 50
100.0000000000229
 51
197.7920298504027
  0
ARC
  5
82
  8
0
  6
CONTINUOUS
 62
     7
 10
-665.5270329912372
 20
237.057961167711
 30
0.0
 40
0.1411402269877595
 50
351.0446628636274
 51
17.79202985018077
  0
ARC
  5
83
  8
0
  6
CONTINUOUS
 62
     7
 10
-664.833480200963
 20
236.9486673251602
 30
0.0
 40
0.5609713146611337
 50
171.0446628636305
 51
187.8733858341408
  0
ARC
  5
84
  8
0
  6
CONTINUOUS
 62
     7
 10
-667.7499131987406
 20
236.5453594970996
 30
0.0
 40
2.38321594750501
 50
3.925613415874353
 51
7.873385834033514
  0
ARC
  5
85
  8
0
  6
CONTINUOUS
 62
     7
 10
-659.348236318071
 20
237.1219018086959
 30
0.0
 40
6.038219526583665
 50
183.9256134158746
 51
188.9644106737391
  0
ARC
  5
86
  8
0
  6
CONTINUOUS
 62
     7
 10
-636.3007633556361
 20
240.7575892725275
 30
0.0
 40
29.37069117638602
 50
188.9644106737551
 51
189.9557140368289
  0
LINE
  5
87
  8
0
  6
CONTINUOUS
 62
     7
 10
-665.3589139673026
 20
237.1569932280288
 30
0.0
 11
-633.9500125
 21
242.695229991128
 31
0.0
  0
LINE
  5
88
  8
0
  6
CONTINUOUS
 62
     7
 10
-633.9500125
 20
93.78975213451847
 30
0.0
 11
-633.9500125
 21
92.295229991128
 31
0.0
  0
LINE
  5
89
  8
0
  6
CONTINUOUS
 62
     7
 10
-633.9500125
 20
92.295229991128
 30
0.0
 11
-665.3589139673026
 21
97.83346675422715
 31
0.0
  0
ARC
  5
8A
  8
0
  6
CONTINUOUS
 62
     7
 10
-636.300763355651
 20
94.23287070973117
 30
0.0
 40
29.3706911763709
 50
170.0442859631712
 51
171.0355893262456
  0
ARC
  5
8B
  8
0
  6
CONTINUOUS
 62
     7
 10
-659.3482363180723
 20
97.86855817356007
 30
0.0
 40
6.038219526582441
 50
171.0355893262602
 51
176.0743865841253
  0
ARC
  5
8C
  8
0
  6
CONTINUOUS
 62
     7
 10
-667.749913198741
 20
98.4451004851563
 30
0.0
 40
2.383215947505344
 50
352.1266141659669
 51
356.0743865841255
  0
ARC
  5
8D
  8
0
  6
CONTINUOUS
 62
     7
 10
-664.8334802009631
 20
98.04179265709567
 30
0.0
 40
0.560971314661024
 50
172.1266141658577
 51
188.9553371363712
  0
ARC
  5
8E
  8
0
  6
CONTINUOUS
 62
     7
 10
-665.5270329912372
 20
97.93249881454493
 30
0.0
 40
0.1411402269877616
 50
342.2079701498246
 51
8.955337136378034
  0
ARC
  5
8F
  8
0
  6
CONTINUOUS
 62
     7
 10
-665.3513907215207
 20
97.87613320125445
 30
0.0
 40
0.0433246457461523
 50
162.2079701495798
 51
259.9999999999739
  0
ARC
  5
90
  8
0
  6
CONTINUOUS
 62
     7
 10
-636.2784155518094
 20
305.4474116494192
 30
0.0
 40
75.95709384253567
 50
246.9801375833604
 51
247.2892072472462
  0
ARC
  5
91
  8
0
  6
CONTINUOUS
 62
     7
 10
-660.0153696793553
 20
249.5805068464483
 30
0.0
 40
15.25656630349829
 50
244.9880897521423
 51
246.9801375833431
  0
ARC
  5
92
  8
0
  6
CONTINUOUS
 62
     7
 10
-672.733770415632
 20
222.3206043228752
 30
0.0
 40
14.82432468867855
 50
64.98808975214214
 51
65.61731766461813
  0
ARC
  5
93
  8
0
  6
CONTINUOUS
 62
     7
 10
-665.6120194439296
 20
238.0330390552911
 30
0.0
 40
2.426760556121919
 50
241.7728584185552
 51
245.6173176646095
  0
ARC
  5
94
  8
0
  6
CONTINUOUS
 62
     7
 10
-667.0879603035189
 20
235.2835492318958
 30
0.0
 40
0.6938316488864987
 50
61.77285841855127
 51
65.32278652716444
  0
ARC
  5
95
  8
0
  6
CONTINUOUS
 62
     7
 10
-666.7220854436671
 20
236.0798522701639
 30
0.0
 40
0.1825032995359067
 50
231.797630078187
 51
245.3227865271085
  0
ARC
  5
96
  8
0
  6
CONTINUOUS
 62
     7
 10
-666.8537407565701
 20
235.9125624492392
 30
0.0
 40
0.0303793103705638
 50
51.79763007810433
 51
82.46616162167697
  0
ARC
  5
97
  8
0
  6
CONTINUOUS
 62
     7
 10
-666.8484307482894
 20
235.9527127169176
 30
0.0
 40
0.0101205684266274
 50
157.3802363669529
 51
262.4661616221074
  0
ARC
  5
98
  8
0
  6
CONTINUOUS
 62
     7
 10
-665.0116176119686
 20
235.1873777220044
 30
0.0
 40
2.0
 50
100.0000000000019
 51
157.3802363669695
  0
ARC
  5
99
  8
0
  6
CONTINUOUS
 62
     7
 10
-665.0116176119686
 20
99.80308226025154
 30
0.0
 40
2.0
 50
202.6197636330309
 51
259.9999999999982
  0
ARC
  5
9A
  8
0
  6
CONTINUOUS
 62
     7
 10
-666.8484307482894
 20
99.03774726533833
 30
0.0
 40
0.0101205684266274
 50
97.53383837791324
 51
202.6197636330471
  0
ARC
  5
9B
  8
0
  6
CONTINUOUS
 62
     7
 10
-666.8537407565702
 20
99.0778975330169
 30
0.0
 40
0.0303793103707633
 50
277.5338383784825
 51
308.202369921866
  0
ARC
  5
9C
  8
0
  6
CONTINUOUS
 62
     7
 10
-666.7220854436674
 20
98.91060771209247
 30
0.0
 40
0.1825032995354062
 50
114.6772134728474
 51
128.2023699218036
  0
ARC
  5
9D
  8
0
  6
CONTINUOUS
 62
     7
 10
-667.0879603035197
 20
99.70691075036174
 30
0.0
 40
0.6938316488882971
 50
294.6772134728378
 51
298.227141581442
  0
ARC
  5
9E
  8
0
  6
CONTINUOUS
 62
     7
 10
-665.6120194439244
 20
96.95742092695474
 30
0.0
 40
2.426760556133276
 50
114.3826823354042
 51
118.2271415814406
  0
ARC
  5
9F
  8
0
  6
CONTINUOUS
 62
     7
 10
-672.733770415663
 20
112.6698556594456
 30
0.0
 40
14.8243246887505
 50
294.3826823353877
 51
295.0119102478607
  0
ARC
  5
A0
  8
0
  6
CONTINUOUS
 62
     7
 10
-660.0153696793916
 20
85.40995313588702
 30
0.0
 40
15.25656630341112
 50
113.0198624166484
 51
115.0119102478605
  0
ARC
  5
A1
  8
0
  6
CONTINUOUS
 62
     7
 10
-636.2784155519143
 20
29.54304833308609
 30
0.0
 40
75.95709384226518
 50
112.7107927527524
 51
113.0198624166404
  0
LINE
  5
A2
  8
0
  6
CONTINUOUS
 62
   253
 10
-674.5500124999999
 20
137.495229991128
 30
0.0
 11
-673.1807461141213
 21
137.495229991128
 31
0.0
  0
ARC
  5
A3
  8
0
  6
CONTINUOUS
 62
     7
 10
-574.5500124999999
 20
137.495229991128
 30
0.0
 40
99.99999999999996
 50
180.0
 51
202.6197636330321
  0
LINE
  5
A4
  8
0
  6
CONTINUOUS
 62
   253
 10
-674.5500124999999
 20
197.495229991128
 30
0.0
 11
-673.1807461141213
 21
197.495229991128
 31
0.0
  0
ARC
  5
A5
  8
0
  6
CONTINUOUS
 62
     7
 10
-574.5500124999999
 20
197.495229991128
 30
0.0
 40
99.99999999999996
 50
157.3802363669679
 51
180.0
  0
LINE
  5
A6
  8
0
  6
CONTINUOUS
 62
     7
 10
-674.5500124999999
 20
137.495229991128
 30
0.0
 11
-674.5500124999999
 21
197.495229991128
 31
0.0
  0
LINE
  5
A7
  8
0
  6
CONTINUOUS
 62
   253
 10
-734.6821426694211
 20
-9.549987500000016
 30
0.0
 11
-734.7999553845963
 21
3.950012499999989
 31
0.0
  0
LINE
  5
A8
  8
0
  6
CONTINUOUS
 62
     7
 10
-733.3000125000001
 20
3.950012499999981
 30
0.0
 11
-733.1821997848248
 21
-9.549987500000027
 31
0.0
  0
LINE
  5
A9
  8
0
  6
CONTINUOUS
 62
     7
 10
-733.1821997848248
 20
-9.549987500000016
 30
0.0
 11
-734.6821426694211
 21
-9.549987500000016
 31
0.0
  0
LINE
  5
AA
  8
0
  6
CONTINUOUS
 62
   253
 10
-825.2000696154038
 20
3.950012499999981
 30
0.0
 11
-825.317882330579
 21
-9.549987500000023
 31
0.0
  0
LINE
  5
AB
  8
0
  6
CONTINUOUS
 62
     7
 10
-825.2000696154038
 20
3.950012499999981
 30
0.0
 11
-734.7999553845963
 21
3.950012499999981
 31
0.0
  0
LINE
  5
AC
  8
0
  6
CONTINUOUS
 62
     7
 10
-825.317882330579
 20
-9.549987500000016
 30
0.0
 11
-734.6821426694211
 21
-9.549987500000016
 31
0.0
  0
LINE
  5
AD
  8
0
  6
CONTINUOUS
 62
     7
 10
-826.8178252151753
 20
-9.549987500000016
 30
0.0
 11
-826.7000125
 21
3.95001249999999
 31
0.0
  0
LINE
  5
AE
  8
0
  6
CONTINUOUS
 62
     7
 10
-825.317882330579
 20
-9.549987500000016
 30
0.0
 11
-826.8178252151753
 21
-9.549987500000016
 31
0.0
  0
LINE
  5
AF
  8
0
  6
CONTINUOUS
 62
     7
 10
-825.2170711141667
 20
3.950012499999981
 30
0.0
 11
-826.7000024437767
 21
3.950012499999981
 31
0.0
  0
LINE
  5
B0
  8
0
  6
CONTINUOUS
 62
     7
 10
-826.7000125
 20
3.950012499999981
 30
0.0
 11
-823.9634403491126
 21
35.22917531492373
 31
0.0
  0
ARC
  5
B1
  8
0
  6
CONTINUOUS
 62
     7
 10
-823.2859384953837
 20
25.76248706975916
 30
0.0
 40
9.631127274260557
 50
85.13505278476941
 51
86.70884238683543
  0
ARC
  5
B2
  8
0
  6
CONTINUOUS
 62
     7
 10
-823.0757108366619
 20
29.41831529013835
 30
0.0
 40
5.969259493276037
 50
86.7088423868332
 51
89.4661453232773
  0
ARC
  5
B3
  8
0
  6
CONTINUOUS
 62
     7
 10
-823.1755632464782
 20
18.70199801664144
 30
0.0
 40
16.68604195864288
 50
89.466145323278
 51
90.30758305047405
  0
ARC
  5
B4
  8
0
  6
CONTINUOUS
 62
     7
 10
-823.252545255288
 20
33.04187085823214
 30
0.0
 40
2.34596248387459
 50
90.30758305047468
 51
96.29511689130497
  0
ARC
  5
B5
  8
0
  6
CONTINUOUS
 62
     7
 10
-823.7539527610685
 20
37.58711475605079
 30
0.0
 40
2.226854107408142
 50
271.9538419159796
 51
276.2951168913061
  0
ARC
  5
B6
  8
0
  6
CONTINUOUS
 62
     7
 10
-823.6652020755887
 20
34.98553864004288
 30
0.0
 40
0.3762353976907241
 50
91.95384191598501
 51
117.8629282574822
  0
ARC
  5
B7
  8
0
  6
CONTINUOUS
 62
     7
 10
-824.0118533441976
 20
35.64127456797464
 30
0.0
 40
0.3654900968210082
 50
285.5998080575117
 51
297.8629282574873
  0
ARC
  5
B8
  8
0
  6
CONTINUOUS
 62
     7
 10
-823.8951259403191
 20
35.22319857859879
 30
0.0
 40
0.0685753587370869
 50
105.5998080577725
 51
174.999999999973
  0
LINE
  5
B9
  8
0
  6
CONTINUOUS
 62
   253
 10
-822.469148301975
 20
35.35891396730263
 30
0.0
 11
-825.2170711141667
 21
3.950012499999981
 31
0.0
  0
LINE
  5
BA
  8
0
  6
CONTINUOUS
 62
     7
 10
-734.7999553845963
 20
3.950012499999981
 30
0.0
 11
-734.7829538858334
 21
3.950012499999981
 31
0.0
  0
LINE
  5
BB
  8
0
  6
CONTINUOUS
 62
     7
 10
-825.2170711141667
 20
3.950012499999981
 30
0.0
 11
-825.2000696154038
 21
3.950012499999981
 31
0.0
  0
LINE
  5
BC
  8
0
  6
CONTINUOUS
 62
   253
 10
-737.530876698025
 20
35.35891396730265
 30
0.0
 11
-822.469148301975
 21
35.35891396730263
 31
0.0
  0
LINE
  5
BD
  8
0
  6
CONTINUOUS
 62
   253
 10
-734.7829538858334
 20
3.950012499999981
 30
0.0
 11
-737.530876698025
 21
35.35891396730265
 31
0.0
  0
ARC
  5
BE
  8
0
  6
CONTINUOUS
 62
     7
 10
-736.1048990596809
 20
35.22319857859883
 30
0.0
 40
0.0685753587368621
 50
4.999999999996853
 51
74.40019194248602
  0
ARC
  5
BF
  8
0
  6
CONTINUOUS
 62
     7
 10
-735.9881716558023
 20
35.6412745679753
 30
0.0
 40
0.3654900968217466
 50
242.1370717425149
 51
254.4001919424491
  0
ARC
  5
C0
  8
0
  6
CONTINUOUS
 62
     7
 10
-736.3348229244116
 20
34.98553864004291
 30
0.0
 40
0.3762353976906996
 50
62.13707174251586
 51
88.04615808401488
  0
ARC
  5
C1
  8
0
  6
CONTINUOUS
 62
     7
 10
-736.2460722389319
 20
37.58711475604932
 30
0.0
 40
2.22685410740667
 50
263.7048831086954
 51
268.0461580840249
  0
ARC
  5
C2
  8
0
  6
CONTINUOUS
 62
     7
 10
-736.7474797447119
 20
33.04187085823387
 30
0.0
 40
2.345962483872834
 50
83.70488310869573
 51
89.69241694952785
  0
ARC
  5
C3
  8
0
  6
CONTINUOUS
 62
     7
 10
-736.8244617535224
 20
18.70199801669292
 30
0.0
 40
16.6860419585914
 50
89.69241694952314
 51
90.53385467672214
  0
ARC
  5
C4
  8
0
  6
CONTINUOUS
 62
     7
 10
-736.9243141633384
 20
29.41831529013229
 30
0.0
 40
5.969259493282077
 50
90.53385467672189
 51
93.29115761316348
  0
ARC
  5
C5
  8
0
  6
CONTINUOUS
 62
     7
 10
-736.7140865046152
 20
25.76248706974356
 30
0.0
 40
9.631127274276212
 50
93.29115761316713
 51
94.86494721522995
  0
LINE
  5
C6
  8
0
  6
CONTINUOUS
 62
     7
 10
-736.0365846508874
 20
35.22917531492373
 30
0.0
 11
-733.3000125000001
 21
3.950012499999981
 31
0.0
  0
LINE
  5
C7
  8
0
  6
CONTINUOUS
 62
     7
 10
-733.3000225562234
 20
3.950012499999981
 30
0.0
 11
-734.7829538858334
 21
3.950012499999981
 31
0.0
  0
LINE
  5
C8
  8
0
  6
CONTINUOUS
 62
   253
 10
-822.4363650125522
 20
36.85777281833549
 30
0.0
 11
-737.5636599874479
 21
36.85777281833546
 31
0.0
  0
LINE
  5
C9
  8
0
  6
CONTINUOUS
 62
   253
 10
-737.530876698025
 20
35.35891396730265
 30
0.0
 11
-737.5636599874479
 21
36.85777281833549
 31
0.0
  0
LINE
  5
CA
  8
0
  6
CONTINUOUS
 62
   253
 10
-822.4363650125522
 20
36.85777281833549
 30
0.0
 11
-822.469148301975
 21
35.35891396730263
 31
0.0
  0
ARC
  5
CB
  8
0
  6
CONTINUOUS
 62
     7
 10
-822.6897114107943
 20
35.49532135135173
 30
0.0
 40
1.245685859674564
 50
149.6207763889182
 51
174.9999999999902
  0
ARC
  5
CC
  8
0
  6
CONTINUOUS
 62
     7
 10
-822.4428064331412
 20
35.3505833855407
 30
0.0
 40
1.531887094362705
 50
129.0409869334288
 51
149.6207763889026
  0
ARC
  5
CD
  8
0
  6
CONTINUOUS
 62
     7
 10
-822.5399402578269
 20
35.47035837576506
 30
0.0
 40
1.377676108433319
 50
104.8067178104998
 51
129.0409869334298
  0
ARC
  5
CE
  8
0
  6
CONTINUOUS
 62
     7
 10
-822.4623050556094
 20
35.17666036468207
 30
0.0
 40
1.681461799895964
 50
89.11597998979248
 51
104.8067178104901
  0
LINE
  5
CF
  8
0
  6
CONTINUOUS
 62
     7
 10
-823.9306570596899
 20
35.60389002768194
 30
0.0
 11
-823.9634403491126
 21
35.22917531492373
 31
0.0
  0
ARC
  5
D0
  8
0
  6
CONTINUOUS
 62
     7
 10
-737.5377199443908
 20
35.17666036468162
 30
0.0
 40
1.681461799896338
 50
75.19328218951341
 51
90.88402001020722
  0
ARC
  5
D1
  8
0
  6
CONTINUOUS
 62
     7
 10
-737.4600847421727
 20
35.47035837576571
 30
0.0
 40
1.377676108432463
 50
50.95901306656504
 51
75.19328218951499
  0
ARC
  5
D2
  8
0
  6
CONTINUOUS
 62
     7
 10
-737.5572185668585
 20
35.35058338554133
 30
0.0
 40
1.531887094361929
 50
30.3792236110823
 51
50.95901306656373
  0
ARC
  5
D3
  8
0
  6
CONTINUOUS
 62
     7
 10
-737.3103135892063
 20
35.49532135135174
 30
0.0
 40
1.245685859674891
 50
20.83176798045145
 51
30.37922361106735
  0
LINE
  5
D4
  8
0
  6
CONTINUOUS
 62
     7
 10
-736.0365846508874
 20
35.22917531492373
 30
0.0
 11
-736.0693679403101
 21
35.60389002768194
 31
0.0
  0
ARC
  5
D5
  8
0
  6
CONTINUOUS
 62
     7
 10
-821.7734759998214
 20
43.05001249999999
 30
0.0
 40
1.500000000000001
 50
89.99999999999947
 51
174.9999999999999
  0
LINE
  5
D6
  8
0
  6
CONTINUOUS
 62
   253
 10
-821.7734759998214
 20
44.55001249999984
 30
0.0
 11
-822.4363650125522
 21
36.85777281833538
 31
0.0
  0
LINE
  5
D7
  8
0
  6
CONTINUOUS
 62
     7
 10
-823.9306570596898
 20
35.60389002768195
 30
0.0
 11
-823.267768046959
 21
43.18074611412144
 31
0.0
  0
LINE
  5
D8
  8
0
  6
CONTINUOUS
 62
     7
 10
-738.2265490001787
 20
44.55001249999996
 30
0.0
 11
-821.7734759998214
 21
44.55001249999996
 31
0.0
  0
LINE
  5
D9
  8
0
  6
CONTINUOUS
 62
   253
 10
-737.5636599874479
 20
36.85777281833538
 30
0.0
 11
-738.2221795707783
 21
44.49930914306607
 31
0.0
  0
ARC
  5
DA
  8
0
  6
CONTINUOUS
 62
     7
 10
-737.3103135892063
 20
35.49532135135174
 30
0.0
 40
1.24568585967489
 50
4.999999999998635
 51
20.83176798045116
  0
LINE
  5
DB
  8
0
  6
CONTINUOUS
 62
     7
 10
-738.2221795707783
 20
44.49930914306607
 30
0.0
 11
-738.2224723153087
 21
44.50270618397264
 31
0.0
  0
LINE
  5
DC
  8
0
  6
CONTINUOUS
 62
     7
 10
-738.2224723153087
 20
44.50270618397264
 30
0.0
 11
-738.2265490001787
 21
44.55001249999984
 31
0.0
  0
ARC
  5
DD
  8
0
  6
CONTINUOUS
 62
     7
 10
-768.4006285987957
 20
35.4297751637586
 30
0.0
 40
32.25977148255159
 50
0.9040540571435669
 51
14.5060427510742
  0
LINE
  5
DE
  8
0
  6
CONTINUOUS
 62
     7
 10
-737.1692590018893
 20
43.51027076785806
 30
0.0
 11
-737.3681494096966
 21
43.8499755748761
 31
0.0
  0
LINE
  5
DF
  8
0
  6
CONTINUOUS
 62
     7
 10
-737.3681494096966
 20
43.8499755748761
 30
0.0
 11
-737.6109900964731
 21
44.14436587971348
 31
0.0
  0
LINE
  5
E0
  8
0
  6
CONTINUOUS
 62
     7
 10
-737.6109900964731
 20
44.14436587971348
 30
0.0
 11
-737.8975678727378
 21
44.36968825726339
 31
0.0
  0
LINE
  5
E1
  8
0
  6
CONTINUOUS
 62
     7
 10
-737.8975678727378
 20
44.36968825726339
 30
0.0
 11
-738.2221912130414
 21
44.49944424121357
 31
0.0
  0
LINE
  5
E2
  8
0
  6
CONTINUOUS
 62
   253
 10
-738.2265490001787
 20
137.495229991128
 30
0.0
 11
-738.2265490001787
 21
197.495229991128
 31
0.0
  0
LINE
  5
E3
  8
0
  6
CONTINUOUS
 62
   253
 10
-738.2265490001787
 20
197.495229991128
 30
0.0
 11
-736.732256953041
 21
197.495229991128
 31
0.0
  0
LINE
  5
E4
  8
0
  6
CONTINUOUS
 62
   253
 10
-736.732256953041
 20
197.495229991128
 30
0.0
 11
-736.732256953041
 21
137.495229991128
 31
0.0
  0
LINE
  5
E5
  8
0
  6
CONTINUOUS
 62
   253
 10
-738.2265490001787
 20
137.495229991128
 30
0.0
 11
-736.732256953041
 21
137.495229991128
 31
0.0
  0
ARC
  5
E6
  8
0
  6
CONTINUOUS
 62
     7
 10
475.9110648475462
 20
197.4952299911282
 30
0.0
 40
1214.137613847725
 50
179.0968678775865
 51
180.0
  0
ARC
  5
E7
  8
0
  6
CONTINUOUS
 62
     7
 10
161.5194701631573
 20
202.4512785630425
 30
0.0
 40
899.7069581768118
 50
177.8780977085378
 51
179.0968678775855
  0
ARC
  5
E8
  8
0
  6
CONTINUOUS
 62
     7
 10
506.8291672954206
 20
189.6571668964203
 30
0.0
 40
1245.253592116304
 50
177.8692103673546
 51
177.8780977085378
  0
ARC
  5
E9
  8
0
  6
CONTINUOUS
 62
     7
 10
-736.3624931215696
 20
235.3358979480332
 30
0.0
 40
0.2980353123261836
 50
8.49594630095487
 51
60.86635788047807
  0
ARC
  5
EA
  8
0
  6
CONTINUOUS
 62
     7
 10
-708.1422475994862
 20
285.9676892937022
 30
0.0
 40
57.66713140181371
 50
240.5571195000044
 51
240.8663578804656
  0
ARC
  5
EB
  8
0
  6
CONTINUOUS
 62
     7
 10
-736.9056595166431
 20
235.0100656988732
 30
0.0
 40
0.847937320254079
 50
60.55711950000615
 51
77.64550232469823
  0
ARC
  5
EC
  8
0
  6
CONTINUOUS
 62
     7
 10
-742.4822339552913
 20
209.5499581222496
 30
0.0
 40
26.91161434946527
 50
77.64550232469405
 51
78.18193560321039
  0
ARC
  5
ED
  8
0
  6
CONTINUOUS
 62
     7
 10
-737.5487027690344
 20
233.1283005994497
 30
0.0
 40
2.822654970988392
 50
78.18193560320992
 51
84.03268940087541
  0
ARC
  5
EE
  8
0
  6
CONTINUOUS
 62
     7
 10
-737.6976887998558
 20
231.702971079586
 30
0.0
 40
4.255749900703401
 50
84.03268940087025
 51
87.91229683542502
  0
ARC
  5
EF
  8
0
  6
CONTINUOUS
 62
     7
 10
-737.6976887998558
 20
231.7029710795859
 30
0.0
 40
4.255749900703456
 50
87.91229683542511
 51
88.19525019870811
  0
ARC
  5
F0
  8
0
  6
CONTINUOUS
 62
     7
 10
471.1766386562718
 20
189.7787299387984
 30
0.0
 40
1208.106679397469
 50
177.8368114772365
 51
177.845834854565
  0
ARC
  5
F1
  8
0
  6
CONTINUOUS
 62
     7
 10
136.2796522044883
 20
202.3758799884617
 30
0.0
 40
872.9728557928387
 50
177.845834854565
 51
179.0830953990411
  0
ARC
  5
F2
  8
0
  6
CONTINUOUS
 62
     7
 10
441.2369768780289
 20
197.4952299911279
 30
0.0
 40
1177.96923383107
 50
179.0830953990406
 51
180.0
  0
LINE
  5
F3
  8
0
  6
CONTINUOUS
 62
   253
 10
-821.7734759998214
 20
197.495229991128
 30
0.0
 11
-821.7734759998214
 21
137.495229991128
 31
0.0
  0
LINE
  5
F4
  8
0
  6
CONTINUOUS
 62
   253
 10
-821.7734759998214
 20
137.495229991128
 30
0.0
 11
-823.2677680469591
 21
137.495229991128
 31
0.0
  0
LINE
  5
F5
  8
0
  6
CONTINUOUS
 62
   253
 10
-823.267768046959
 20
137.495229991128
 30
0.0
 11
-823.267768046959
 21
197.495229991128
 31
0.0
  0
LINE
  5
F6
  8
0
  6
CONTINUOUS
 62
   253
 10
-821.7734759998214
 20
197.495229991128
 30
0.0
 11
-823.2677680469591
 21
197.495229991128
 31
0.0
  0
ARC
  5
F7
  8
0
  6
CONTINUOUS
 62
     7
 10
-2035.911089847546
 20
137.4952299911276
 30
0.0
 40
1214.137613847725
 50
359.0968678775865
 51
0.0
  0
ARC
  5
F8
  8
0
  6
CONTINUOUS
 62
     7
 10
-1721.519495163139
 20
132.5391814192129
 30
0.0
 40
899.7069581767931
 50
357.8780977085378
 51
359.0968678775855
  0
ARC
  5
F9
  8
0
  6
CONTINUOUS
 62
     7
 10
-2066.829192295417
 20
145.3332930858355
 30
0.0
 40
1245.2535921163
 50
357.8692103673545
 51
357.8780977085378
  0
ARC
  5
FA
  8
0
  6
CONTINUOUS
 62
     7
 10
-823.6375318784303
 20
99.65456203422276
 30
0.0
 40
0.2980353123261831
 50
188.4959463008615
 51
240.8663578804568
  0
ARC
  5
FB
  8
0
  6
CONTINUOUS
 62
     7
 10
-851.857777400273
 20
49.02277068898109
 30
0.0
 40
57.66713140132321
 50
60.55711950000414
 51
60.86635788046799
  0
ARC
  5
FC
  8
0
  6
CONTINUOUS
 62
     7
 10
-823.0943654833571
 20
99.98039428338221
 30
0.0
 40
0.8479373202534864
 50
240.5571195000008
 51
257.6455023247125
  0
ARC
  5
FD
  8
0
  6
CONTINUOUS
 62
     7
 10
-817.5177910447495
 20
125.44050185981
 30
0.0
 40
26.91161434926467
 50
257.6455023246898
 51
258.1819356032099
  0
ARC
  5
FE
  8
0
  6
CONTINUOUS
 62
     7
 10
-822.4513222309649
 20
101.8621593828089
 30
0.0
 40
2.822654970991182
 50
258.1819356032103
 51
264.0326894008678
  0
ARC
  5
FF
  8
0
  6
CONTINUOUS
 62
     7
 10
-822.3023362001439
 20
103.2874889026732
 30
0.0
 40
4.255749900706727
 50
264.0326894008689
 51
267.9122968354222
  0
ARC
  5
100
  8
0
  6
CONTINUOUS
 62
     7
 10
-822.302336200144
 20
103.2874889026702
 30
0.0
 40
4.255749900703658
 50
267.9122968354222
 51
268.1952501987053
  0
ARC
  5
101
  8
0
  6
CONTINUOUS
 62
     7
 10
-2031.176663656188
 20
145.2117300434542
 30
0.0
 40
1208.106679397386
 50
357.8368114772364
 51
357.8458348545649
  0
ARC
  5
102
  8
0
  6
CONTINUOUS
 62
     7
 10
-1696.279677204937
 20
132.6145799938113
 30
0.0
 40
872.9728557932873
 50
357.8458348545649
 51
359.0830953990405
  0
ARC
  5
103
  8
0
  6
CONTINUOUS
 62
     7
 10
-2001.237001878879
 20
137.4952299911278
 30
0.0
 40
1177.96923383192
 50
359.0830953990413
 51
0.0000000000000568
  0
LINE
  5
104
  8
0
  6
CONTINUOUS
 62
     7
 10
-788.7999096974927
 20
150.995229991128
 30
0.0
 11
-817.2001153025074
 21
150.995229991128
 31
0.0
  0
ARC
  5
105
  8
0
  6
CONTINUOUS
 62
     7
 10
-788.7999699090184
 20
183.6949926237186
 30
0.0
 40
0.3002373528188523
 50
67.52370280047704
 51
89.98850953736525
  0
ARC
  5
106
  8
0
  6
CONTINUOUS
 62
     7
 10
-788.7997723435697
 20
183.6954701475584
 30
0.0
 40
0.2997205732488348
 50
44.99999999999625
 51
67.52370280044958
  0
ARC
  5
107
  8
0
  6
CONTINUOUS
 62
     7
 10
-788.7997723435687
 20
183.6954701475593
 30
0.0
 40
0.2997205732475395
 50
22.47629719945469
 51
44.99999999998875
  0
ARC
  5
108
  8
0
  6
CONTINUOUS
 62
     7
 10
-788.8002498674092
 20
183.6952725821097
 30
0.0
 40
0.300237352818658
 50
0.0114904626295242
 51
22.47629719954404
  0
LINE
  5
109
  8
0
  6
CONTINUOUS
 62
     7
 10
-771.5000125
 20
151.2951271886207
 30
0.0
 11
-771.5000125
 21
183.6953327936353
 31
0.0
  0
LINE
  5
10A
  8
0
  6
CONTINUOUS
 62
     7
 10
-742.7999096974927
 20
150.995229991128
 30
0.0
 11
-771.2001153025074
 21
150.995229991128
 31
0.0
  0
ARC
  5
10B
  8
0
  6
CONTINUOUS
 62
     7
 10
-742.8002498674093
 20
151.2951874001463
 30
0.0
 40
0.300237352818769
 50
337.5237028004593
 51
359.9885095373705
  0
ARC
  5
10C
  8
0
  6
CONTINUOUS
 62
     7
 10
-742.7997723435687
 20
151.2949898346967
 30
0.0
 40
0.2997205732475788
 50
315.0000000000038
 51
337.5237028005306
  0
ARC
  5
10D
  8
0
  6
CONTINUOUS
 62
     7
 10
-742.7997723435694
 20
151.2949898346973
 30
0.0
 40
0.2997205732485012
 50
292.4762971995315
 51
315.0000000000075
  0
ARC
  5
10E
  8
0
  6
CONTINUOUS
 62
     7
 10
-742.7999699090183
 20
151.295467358537
 30
0.0
 40
0.300237352818547
 50
270.0114904626348
 51
292.4762971995472
  0
LINE
  5
10F
  8
0
  6
CONTINUOUS
 62
     7
 10
-742.5000125
 20
183.6953327936353
 30
0.0
 11
-742.5000125
 21
151.2951271886207
 31
0.0
  0
LINE
  5
110
  8
0
  6
CONTINUOUS
 62
     7
 10
-771.2001153025074
 20
183.995229991128
 30
0.0
 11
-742.7999096974927
 21
183.995229991128
 31
0.0
  0
LINE
  5
111
  8
0
  6
CONTINUOUS
 62
   253
 10
-738.2265490001787
 20
197.495229991128
 30
0.0
 11
-821.7734759998214
 21
197.495229991128
 31
0.0
  0
LINE
  5
112
  8
0
  6
CONTINUOUS
 62
   253
 10
-738.2265490001787
 20
137.495229991128
 30
0.0
 11
-821.7734759998214
 21
137.495229991128
 31
0.0
  0
ARC
  5
113
  8
0
  6
CONTINUOUS
 62
     7
 10
-788.8002498674093
 20
151.2951874001463
 30
0.0
 40
0.300237352818769
 50
337.5237028004593
 51
359.9885095373705
  0
ARC
  5
114
  8
0
  6
CONTINUOUS
 62
     7
 10
-788.7997723435687
 20
151.2949898346967
 30
0.0
 40
0.2997205732475788
 50
315.0000000000038
 51
337.5237028005306
  0
ARC
  5
115
  8
0
  6
CONTINUOUS
 62
     7
 10
-788.7997723435694
 20
151.2949898346973
 30
0.0
 40
0.2997205732485012
 50
292.4762971995315
 51
315.0000000000075
  0
ARC
  5
116
  8
0
  6
CONTINUOUS
 62
     7
 10
-788.7999699090184
 20
151.295467358537
 30
0.0
 40
0.300237352818547
 50
270.0114904626348
 51
292.4762971995472
  0
LINE
  5
117
  8
0
  6
CONTINUOUS
 62
     7
 10
-817.5000125
 20
151.2951271886207
 30
0.0
 11
-817.5000125
 21
183.6953327936353
 31
0.0
  0
LINE
  5
118
  8
0
  6
CONTINUOUS
 62
     7
 10
-817.2001153025074
 20
183.995229991128
 30
0.0
 11
-788.7999096974927
 21
183.995229991128
 31
0.0
  0
LINE
  5
119
  8
0
  6
CONTINUOUS
 62
     7
 10
-788.5000125
 20
183.6953327936353
 30
0.0
 11
-788.5000125
 21
151.2951271886207
 31
0.0
  0
ARC
  5
11A
  8
0
  6
CONTINUOUS
 62
     7
 10
-742.7999699090183
 20
183.6949926237186
 30
0.0
 40
0.3002373528188523
 50
67.52370280047704
 51
89.98850953736525
  0
ARC
  5
11B
  8
0
  6
CONTINUOUS
 62
     7
 10
-742.7997723435697
 20
183.6954701475584
 30
0.0
 40
0.2997205732488348
 50
44.99999999999625
 51
67.52370280044958
  0
ARC
  5
11C
  8
0
  6
CONTINUOUS
 62
     7
 10
-742.7997723435687
 20
183.6954701475593
 30
0.0
 40
0.2997205732475395
 50
22.47629719945469
 51
44.99999999998875
  0
ARC
  5
11D
  8
0
  6
CONTINUOUS
 62
     7
 10
-742.8002498674092
 20
183.6952725821097
 30
0.0
 40
0.300237352818658
 50
0.0114904626295242
 51
22.47629719954404
  0
ARC
  5
11E
  8
0
  6
CONTINUOUS
 62
     7
 10
-771.1997751325908
 20
183.6952725821097
 30
0.0
 40
0.300237352818658
 50
157.5237028004559
 51
179.9885095373705
  0
ARC
  5
11F
  8
0
  6
CONTINUOUS
 62
     7
 10
-771.2002526564313
 20
183.6954701475593
 30
0.0
 40
0.2997205732475395
 50
135.0000000000113
 51
157.5237028005454
  0
ARC
  5
120
  8
0
  6
CONTINUOUS
 62
     7
 10
-771.2002526564304
 20
183.6954701475584
 30
0.0
 40
0.2997205732488348
 50
112.4762971995504
 51
135.0000000000038
  0
ARC
  5
121
  8
0
  6
CONTINUOUS
 62
     7
 10
-771.2000550909818
 20
183.6949926237186
 30
0.0
 40
0.3002373528188523
 50
90.01149046263481
 51
112.476297199523
  0
ARC
  5
122
  8
0
  6
CONTINUOUS
 62
     7
 10
-771.2000550909818
 20
151.295467358537
 30
0.0
 40
0.300237352818547
 50
247.5237028004529
 51
269.9885095373652
  0
ARC
  5
123
  8
0
  6
CONTINUOUS
 62
     7
 10
-771.2002526564306
 20
151.2949898346973
 30
0.0
 40
0.2997205732485012
 50
224.9999999999925
 51
247.5237028004684
  0
ARC
  5
124
  8
0
  6
CONTINUOUS
 62
     7
 10
-771.2002526564313
 20
151.2949898346967
 30
0.0
 40
0.2997205732475788
 50
202.4762971994694
 51
224.9999999999962
  0
ARC
  5
125
  8
0
  6
CONTINUOUS
 62
     7
 10
-771.1997751325907
 20
151.2951874001463
 30
0.0
 40
0.300237352818769
 50
180.0114904626295
 51
202.4762971995408
  0
ARC
  5
126
  8
0
  6
CONTINUOUS
 62
     7
 10
-817.199775132591
 20
183.6952725821097
 30
0.0
 40
0.3002373528184359
 50
157.5237028004447
 51
179.9885095373758
  0
ARC
  5
127
  8
0
  6
CONTINUOUS
 62
     7
 10
-817.2002526564311
 20
183.6954701475591
 30
0.0
 40
0.2997205732477358
 50
135.0000000000036
 51
157.523702800524
  0
ARC
  5
128
  8
0
  6
CONTINUOUS
 62
     7
 10
-817.2002526564307
 20
183.6954701475588
 30
0.0
 40
0.2997205732483246
 50
112.4762971995199
 51
135.0000000000113
  0
ARC
  5
129
  8
0
  6
CONTINUOUS
 62
     7
 10
-817.2000550909817
 20
183.6949926237191
 30
0.0
 40
0.3002373528183249
 50
90.01149046263481
 51
112.4762971995614
  0
ARC
  5
12A
  8
0
  6
CONTINUOUS
 62
     7
 10
-817.2000550909817
 20
151.2954673585365
 30
0.0
 40
0.3002373528180196
 50
247.5237028004143
 51
269.9885095373652
  0
ARC
  5
12B
  8
0
  6
CONTINUOUS
 62
     7
 10
-817.2002526564311
 20
151.2949898346969
 30
0.0
 40
0.2997205732479124
 50
225.0
 51
247.5237028005185
  0
ARC
  5
12C
  8
0
  6
CONTINUOUS
 62
     7
 10
-817.2002526564311
 20
151.2949898346968
 30
0.0
 40
0.2997205732477751
 50
202.4762971994907
 51
225.0000000000038
  0
ARC
  5
12D
  8
0
  6
CONTINUOUS
 62
     7
 10
-817.1997751325908
 20
151.2951874001462
 30
0.0
 40
0.300237352818547
 50
180.0114904626242
 51
202.4762971995522
  0
ARC
  5
12E
  8
0
  6
CONTINUOUS
 62
     7
 10
-2001.237001878882
 20
197.4952299911281
 30
0.0
 40
1177.969233831924
 50
0.0
 51
0.9169046009587305
  0
ARC
  5
12F
  8
0
  6
CONTINUOUS
 62
     7
 10
-1696.279677204937
 20
202.3758799884447
 30
0.0
 40
872.9728557932874
 50
0.9169046009595807
 51
2.15416514543501
  0
ARC
  5
130
  8
0
  6
CONTINUOUS
 62
     7
 10
-2031.176663656188
 20
189.7787299388016
 30
0.0
 40
1208.106679397386
 50
2.154165145435007
 51
2.163188522763507
  0
ARC
  5
131
  8
0
  6
CONTINUOUS
 62
     7
 10
-822.3023362001443
 20
231.7029710795858
 30
0.0
 40
4.255749900703567
 50
91.80474980129185
 51
92.08770316457483
  0
ARC
  5
132
  8
0
  6
CONTINUOUS
 62
     7
 10
-822.3023362001442
 20
231.7029710795825
 30
0.0
 40
4.255749900706872
 50
92.08770316457473
 51
95.96731059912788
  0
ARC
  5
133
  8
0
  6
CONTINUOUS
 62
     7
 10
-822.4513222309648
 20
233.1283005994465
 30
0.0
 40
2.822654970991707
 50
95.96731059913346
 51
101.8180643967898
  0
ARC
  5
134
  8
0
  6
CONTINUOUS
 62
     7
 10
-817.5177910448219
 20
209.5499581227908
 30
0.0
 40
26.91161434891235
 50
101.8180643967896
 51
102.3544976753167
  0
ARC
  5
135
  8
0
  6
CONTINUOUS
 62
     7
 10
-823.0943654833574
 20
235.010065698874
 30
0.0
 40
0.847937320253184
 50
102.3544976752763
 51
119.4428804999935
  0
ARC
  5
136
  8
0
  6
CONTINUOUS
 62
     7
 10
-851.8577773995169
 20
285.967689291936
 30
0.0
 40
57.66713139978557
 50
299.1336421195234
 51
299.4428804999955
  0
ARC
  5
137
  8
0
  6
CONTINUOUS
 62
     7
 10
-823.6375318784302
 20
235.3358979480332
 30
0.0
 40
0.2980353123262935
 50
119.1336421195593
 51
171.5040536991576
  0
ARC
  5
138
  8
0
  6
CONTINUOUS
 62
     7
 10
-2066.829192295421
 20
189.6571668964203
 30
0.0
 40
1245.253592116304
 50
2.12190229146222
 51
2.130789632645474
  0
ARC
  5
139
  8
0
  6
CONTINUOUS
 62
     7
 10
-1721.519495163157
 20
202.4512785630425
 30
0.0
 40
899.7069581768118
 50
0.9031321224144333
 51
2.12190229146222
  0
ARC
  5
13A
  8
0
  6
CONTINUOUS
 62
     7
 10
-2035.911089847611
 20
197.4952299911277
 30
0.0
 40
1214.137613847789
 50
0.0000000000000568
 51
0.903132122413524
  0
ARC
  5
13B
  8
0
  6
CONTINUOUS
 62
     7
 10
506.8291672954206
 20
145.3332930858355
 30
0.0
 40
1245.253592116304
 50
182.1219022914622
 51
182.1307896326455
  0
ARC
  5
13C
  8
0
  6
CONTINUOUS
 62
     7
 10
161.5194701631573
 20
132.5391814192135
 30
0.0
 40
899.7069581768118
 50
180.9031321224145
 51
182.1219022914622
  0
ARC
  5
13D
  8
0
  6
CONTINUOUS
 62
     7
 10
475.9110648475426
 20
137.4952299911277
 30
0.0
 40
1214.137613847721
 50
180.0
 51
180.9031321224136
  0
LINE
  5
13E
  8
0
  6
CONTINUOUS
 62
   253
 10
-822.4363650125522
 20
99.03385475553979
 30
0.0
 11
-737.5636599874479
 21
99.03385475553979
 31
0.0
  0
ARC
  5
13F
  8
0
  6
CONTINUOUS
 62
     7
 10
441.2369768779996
 20
137.4952299911278
 30
0.0
 40
1177.969233831041
 50
180.0
 51
180.9169046009594
  0
ARC
  5
140
  8
0
  6
CONTINUOUS
 62
     7
 10
136.2796522044538
 20
132.6145799937932
 30
0.0
 40
872.972855792804
 50
180.9169046009589
 51
182.154165145435
  0
ARC
  5
141
  8
0
  6
CONTINUOUS
 62
     7
 10
471.1766386561839
 20
145.2117300434542
 30
0.0
 40
1208.106679397381
 50
182.154165145435
 51
182.1631885227635
  0
ARC
  5
142
  8
0
  6
CONTINUOUS
 62
     7
 10
-737.697688799856
 20
103.2874889026738
 30
0.0
 40
4.255749900707208
 50
271.8047498012933
 51
272.087703164576
  0
ARC
  5
143
  8
0
  6
CONTINUOUS
 62
     7
 10
-737.6976887998559
 20
103.2874889026723
 30
0.0
 40
4.255749900705693
 50
272.0877031645753
 51
275.967310599128
  0
ARC
  5
144
  8
0
  6
CONTINUOUS
 62
     7
 10
-737.5487027690347
 20
101.8621593828077
 30
0.0
 40
2.822654970989864
 50
275.967310599126
 51
281.8180643967885
  0
ARC
  5
145
  8
0
  6
CONTINUOUS
 62
     7
 10
-742.4822339553816
 20
125.4405018604413
 30
0.0
 40
26.91161434990951
 50
281.818064396788
 51
282.3544976752955
  0
ARC
  5
146
  8
0
  6
CONTINUOUS
 62
     7
 10
-736.9056595166435
 20
99.98039428338342
 30
0.0
 40
0.8479373202548107
 50
282.3544976753142
 51
299.4428804999918
  0
ARC
  5
147
  8
0
  6
CONTINUOUS
 62
     7
 10
-708.1422475975489
 20
49.02277068511373
 30
0.0
 40
57.66713140576171
 50
119.1336421195517
 51
119.4428804999916
  0
ARC
  5
148
  8
0
  6
CONTINUOUS
 62
     7
 10
-736.3624931215695
 20
99.65456203422274
 30
0.0
 40
0.2980353123260727
 50
299.1336421195073
 51
351.5040536991565
  0
LINE
  5
149
  8
0
  6
CONTINUOUS
 62
   253
 10
-737.5636599874477
 20
235.9566052267161
 30
0.0
 11
-822.4363650125521
 21
235.9566052267162
 31
0.0
  0
LINE
  5
14A
  8
0
  6
CONTINUOUS
 62
   253
 10
-826.7000125
 20
93.79531804550145
 30
0.0
 11
-823.9634403491126
 21
99.31067838374543
 31
0.0
  0
LINE
  5
14B
  8
0
  6
CONTINUOUS
 62
     7
 10
-826.7000125
 20
241.1951419367545
 30
0.0
 11
-826.7000125
 21
93.79531804550145
 31
0.0
  0
LINE
  5
14C
  8
0
  6
CONTINUOUS
 62
   253
 10
-823.9634403491126
 20
235.6797815985105
 30
0.0
 11
-826.7000125
 21
241.1951419367545
 31
0.0
  0
LINE
  5
14D
  8
0
  6
CONTINUOUS
 62
   253
 10
-823.9634403491126
 20
235.6797815985105
 30
0.0
 11
-823.9306570596899
 21
235.3796845981823
 31
0.0
  0
LINE
  5
14E
  8
0
  6
CONTINUOUS
 62
   253
 10
-823.9306570596898
 20
99.61077538407359
 30
0.0
 11
-823.9634403491125
 21
99.31067838374543
 31
0.0
  0
LINE
  5
14F
  8
0
  6
CONTINUOUS
 62
   253
 10
-736.0693679403101
 20
235.3796845981823
 30
0.0
 11
-736.0365846508874
 21
235.6797815985105
 31
0.0
  0
LINE
  5
150
  8
0
  6
CONTINUOUS
 62
   253
 10
-733.3000125
 20
241.1951419367545
 30
0.0
 11
-736.0365846508874
 21
235.6797815985105
 31
0.0
  0
LINE
  5
151
  8
0
  6
CONTINUOUS
 62
     7
 10
-733.3000125
 20
93.79531804550145
 30
0.0
 11
-733.3000125
 21
241.1951419367545
 31
0.0
  0
LINE
  5
152
  8
0
  6
CONTINUOUS
 62
   253
 10
-736.0365846508874
 20
99.31067838374545
 30
0.0
 11
-733.3000125
 21
93.79531804550145
 31
0.0
  0
LINE
  5
153
  8
0
  6
CONTINUOUS
 62
   253
 10
-736.0365846508874
 20
99.31067838374543
 30
0.0
 11
-736.0693679403101
 21
99.61077538407358
 31
0.0
  0
ARC
  5
154
  8
0
  6
CONTINUOUS
 62
     7
 10
-822.4573647905459
 20
235.6546614948532
 30
0.0
 40
1.505075196676839
 50
161.1637852614917
 51
179.0444420479952
  0
ARC
  5
155
  8
0
  6
CONTINUOUS
 62
     7
 10
-822.4923181672384
 20
235.6665852534138
 30
0.0
 40
1.468143982772805
 50
138.2372734936321
 51
161.1637852614908
  0
ARC
  5
156
  8
0
  6
CONTINUOUS
 62
     7
 10
-822.4389606053224
 20
235.6189405113256
 30
0.0
 40
1.539677547358036
 50
116.3893599088939
 51
138.2372734936151
  0
ARC
  5
157
  8
0
  6
CONTINUOUS
 62
     7
 10
-822.4389606053223
 20
235.6189405113255
 30
0.0
 40
1.539677547358234
 50
94.54144632417615
 51
116.3893599088948
  0
ARC
  5
158
  8
0
  6
CONTINUOUS
 62
     7
 10
-822.4446246487064
 20
235.690249483236
 30
0.0
 40
1.468143982772093
 50
90.95788437802774
 51
94.54144632416646
  0
LINE
  5
159
  8
0
  6
CONTINUOUS
 62
   253
 10
-822.4691483019749
 20
237.1569932280288
 30
0.0
 11
-822.4363650125522
 21
235.9566052267162
 31
0.0
  0
LINE
  5
15A
  8
0
  6
CONTINUOUS
 62
   253
 10
-737.5636599874477
 20
235.9566052267161
 30
0.0
 11
-737.530876698025
 21
237.1569932280288
 31
0.0
  0
ARC
  5
15B
  8
0
  6
CONTINUOUS
 62
     7
 10
-737.5554003512934
 20
235.6902494832353
 30
0.0
 40
1.468143982772769
 50
85.45855367584409
 51
89.04211562198134
  0
ARC
  5
15C
  8
0
  6
CONTINUOUS
 62
     7
 10
-737.561064394677
 20
235.6189405113264
 30
0.0
 40
1.539677547357192
 50
63.61064009110896
 51
85.4585536758417
  0
ARC
  5
15D
  8
0
  6
CONTINUOUS
 62
     7
 10
-737.5610643946773
 20
235.6189405113261
 30
0.0
 40
1.539677547357514
 50
41.76272650637651
 51
63.61064009110572
  0
ARC
  5
15E
  8
0
  6
CONTINUOUS
 62
     7
 10
-737.5077068327613
 20
235.666585253414
 30
0.0
 40
1.468143982772568
 50
18.83621473850883
 51
41.76272650637042
  0
ARC
  5
15F
  8
0
  6
CONTINUOUS
 62
     7
 10
-737.5426602094556
 20
235.6546614948527
 30
0.0
 40
1.505075196678366
 50
0.9555579520229571
 51
18.8362147385086
  0
ARC
  5
160
  8
0
  6
CONTINUOUS
 62
     7
 10
-737.5426602094557
 20
99.33579848740324
 30
0.0
 40
1.505075196678471
 50
341.1637852614927
 51
359.0444420479776
  0
ARC
  5
161
  8
0
  6
CONTINUOUS
 62
     7
 10
-737.5077068327613
 20
99.32387472884194
 30
0.0
 40
1.46814398277255
 50
318.2372734936308
 51
341.1637852614933
  0
ARC
  5
162
  8
0
  6
CONTINUOUS
 62
     7
 10
-737.5610643946775
 20
99.37151947093014
 30
0.0
 40
1.539677547357886
 50
296.3893599088966
 51
318.2372734936209
  0
ARC
  5
163
  8
0
  6
CONTINUOUS
 62
     7
 10
-737.561064394677
 20
99.3715194709293
 30
0.0
 40
1.539677547356943
 50
274.5414463241591
 51
296.3893599088956
  0
ARC
  5
164
  8
0
  6
CONTINUOUS
 62
     7
 10
-737.5554003512935
 20
99.30021049902044
 30
0.0
 40
1.468143982772589
 50
270.9578843780231
 51
274.5414463241607
  0
LINE
  5
165
  8
0
  6
CONTINUOUS
 62
   253
 10
-737.530876698025
 20
97.83346675422712
 30
0.0
 11
-737.5636599874477
 21
99.03385475553979
 31
0.0
  0
LINE
  5
166
  8
0
  6
CONTINUOUS
 62
   253
 10
-822.4363650125522
 20
99.03385475553979
 30
0.0
 11
-822.4691483019749
 21
97.83346675422712
 31
0.0
  0
ARC
  5
167
  8
0
  6
CONTINUOUS
 62
     7
 10
-822.4446246487064
 20
99.3002104990199
 30
0.0
 40
1.468143982772027
 50
265.4585536758333
 51
269.0421156219723
  0
ARC
  5
168
  8
0
  6
CONTINUOUS
 62
     7
 10
-822.4389606053227
 20
99.37151947092963
 30
0.0
 40
1.53967754735734
 50
243.6106400911025
 51
265.4585536758336
  0
ARC
  5
169
  8
0
  6
CONTINUOUS
 62
     7
 10
-822.4389606053224
 20
99.37151947093024
 30
0.0
 40
1.539677547357986
 50
221.7627265063825
 51
243.6106400911052
  0
ARC
  5
16A
  8
0
  6
CONTINUOUS
 62
     7
 10
-822.4923181672384
 20
99.32387472884207
 30
0.0
 40
1.468143982772805
 50
198.8362147385092
 51
221.7627265063674
  0
ARC
  5
16B
  8
0
  6
CONTINUOUS
 62
     7
 10
-822.457364790546
 20
99.33579848740271
 30
0.0
 40
1.50507519667673
 50
180.9555579520044
 51
198.8362147385092
  0
LINE
  5
16C
  8
0
  6
CONTINUOUS
 62
   253
 10
-737.530876698025
 20
97.83346675422713
 30
0.0
 11
-822.4691483019749
 21
97.83346675422713
 31
0.0
  0
LINE
  5
16D
  8
0
  6
CONTINUOUS
 62
   253
 10
-822.4691483019749
 20
237.1569932280288
 30
0.0
 11
-737.530876698025
 21
237.1569932280288
 31
0.0
  0
ARC
  5
16E
  8
0
  6
CONTINUOUS
 62
     7
 10
-734.7999401180582
 20
241.1953023730697
 30
0.0
 40
1.49992761813592
 50
359.9994168330613
 51
90.00058316693855
  0
LINE
  5
16F
  8
0
  6
CONTINUOUS
 62
   253
 10
-737.530876698025
 20
237.1569932280288
 30
0.0
 11
-734.7829538858333
 21
242.6952299911279
 31
0.0
  0
ARC
  5
170
  8
0
  6
CONTINUOUS
 62
     7
 10
-825.2049514928119
 20
241.1970843019589
 30
0.0
 40
1.496315659378675
 50
180.0688745605414
 51
180.0744379428923
  0
ARC
  5
171
  8
0
  6
CONTINUOUS
 62
     7
 10
-825.2049514928119
 20
241.1970843019589
 30
0.0
 40
1.496315659378675
 50
179.8611328437624
 51
180.0688745605414
  0
ARC
  5
172
  8
0
  6
CONTINUOUS
 62
     7
 10
-825.2049514928119
 20
241.1970843019589
 30
0.0
 40
1.496315659378675
 50
161.6149345562964
 51
179.8611328437624
  0
ARC
  5
173
  8
0
  6
CONTINUOUS
 62
     7
 10
-825.1692328241824
 20
241.1852126220845
 30
0.0
 40
1.533955532807065
 50
139.5517950511741
 51
161.6149345562974
  0
ARC
  5
174
  8
0
  6
CONTINUOUS
 62
     7
 10
-825.2239308877349
 20
241.2318437318104
 30
0.0
 40
1.462078286402761
 50
116.3893599088919
 51
139.5517950511752
  0
ARC
  5
175
  8
0
  6
CONTINUOUS
 62
     7
 10
-825.223930887735
 20
241.2318437318108
 30
0.0
 40
1.462078286402364
 50
93.22692476660636
 51
116.3893599088948
  0
ARC
  5
176
  8
0
  6
CONTINUOUS
 62
     7
 10
-825.2198848678019
 20
241.1600804523883
 30
0.0
 40
1.533955532807458
 50
89.894983502724
 51
93.2269247666112
  0
LINE
  5
177
  8
0
  6
CONTINUOUS
 62
   253
 10
-825.2170711141666
 20
242.695229991128
 30
0.0
 11
-822.4691483019749
 21
237.1569932280288
 31
0.0
  0
ARC
  5
178
  8
0
  6
CONTINUOUS
 62
     7
 10
-734.7950735071879
 20
93.79337568029695
 30
0.0
 40
1.496315659378561
 50
0.0688745605425538
 51
0.0744379428945194
  0
ARC
  5
179
  8
0
  6
CONTINUOUS
 62
     7
 10
-734.7950735071879
 20
93.79337568029695
 30
0.0
 40
1.496315659378561
 50
359.8611328441221
 51
0.0688745605425538
  0
ARC
  5
17A
  8
0
  6
CONTINUOUS
 62
     7
 10
-734.7950735071879
 20
93.79337568029695
 30
0.0
 40
1.496315659378561
 50
341.6149345562962
 51
359.8611328441221
  0
ARC
  5
17B
  8
0
  6
CONTINUOUS
 62
     7
 10
-734.8307921758176
 20
93.80524736017142
 30
0.0
 40
1.533955532807074
 50
319.5517950511733
 51
341.6149345562964
  0
ARC
  5
17C
  8
0
  6
CONTINUOUS
 62
     7
 10
-734.7760941122651
 20
93.75861625044561
 30
0.0
 40
1.46207828640291
 50
296.3893599088939
 51
319.5517950511743
  0
ARC
  5
17D
  8
0
  6
CONTINUOUS
 62
     7
 10
-734.7760941122651
 20
93.75861625044561
 30
0.0
 40
1.46207828640291
 50
273.2269247666139
 51
296.3893599088939
  0
ARC
  5
17E
  8
0
  6
CONTINUOUS
 62
     7
 10
-734.7801401321983
 20
93.83037952986737
 30
0.0
 40
1.533955532807147
 50
269.8949835027281
 51
273.2269247666159
  0
LINE
  5
17F
  8
0
  6
CONTINUOUS
 62
   253
 10
-734.7829538858333
 20
92.29522999112798
 30
0.0
 11
-737.530876698025
 21
97.83346675422713
 31
0.0
  0
ARC
  5
180
  8
0
  6
CONTINUOUS
 62
     7
 10
-825.219884867802
 20
93.83037952986793
 30
0.0
 40
1.533955532807744
 50
266.7730752333936
 51
270.1050164972801
  0
ARC
  5
181
  8
0
  6
CONTINUOUS
 62
     7
 10
-825.223930887735
 20
93.7586162504451
 30
0.0
 40
1.462078286402352
 50
243.610640091105
 51
266.7730752333937
  0
ARC
  5
182
  8
0
  6
CONTINUOUS
 62
     7
 10
-825.2239308877348
 20
93.75861625044561
 30
0.0
 40
1.46207828640291
 50
220.4482049488257
 51
243.6106400911061
  0
ARC
  5
183
  8
0
  6
CONTINUOUS
 62
     7
 10
-825.1692328241824
 20
93.80524736017142
 30
0.0
 40
1.533955532807074
 50
198.3850654437036
 51
220.4482049488267
  0
ARC
  5
184
  8
0
  6
CONTINUOUS
 62
     7
 10
-825.204951492812
 20
93.79337568029695
 30
0.0
 40
1.496315659378561
 50
180.1388671558778
 51
198.3850654437039
  0
ARC
  5
185
  8
0
  6
CONTINUOUS
 62
     7
 10
-825.1998807444902
 20
93.79520633261289
 30
0.0
 40
1.500131754609005
 50
180.0012778467676
 51
180.2083172786754
  0
LINE
  5
186
  8
0
  6
CONTINUOUS
 62
     7
 10
-826.7000125
 20
93.79531804550145
 30
0.0
 11
-826.7000125
 21
93.79517287572423
 31
0.0
  0
LINE
  5
187
  8
0
  6
CONTINUOUS
 62
   253
 10
-822.4691483019749
 20
97.83346675422713
 30
0.0
 11
-825.2170711141666
 21
92.29522999112798
 31
0.0
  0
LINE
  5
188
  8
0
  6
CONTINUOUS
 62
     7
 10
-734.7829538858333
 20
242.695229991128
 30
0.0
 11
-825.2170711141667
 21
242.695229991128
 31
0.0
  0
LINE
  5
189
  8
0
  6
CONTINUOUS
 62
     7
 10
-734.7999553845963
 20
92.29522999112798
 30
0.0
 11
-734.7829538858333
 21
92.29522999112798
 31
0.0
  0
LINE
  5
18A
  8
0
  6
CONTINUOUS
 62
     7
 10
-825.2000696154038
 20
92.29522999112798
 30
0.0
 11
-734.7999553845963
 21
92.29522999112798
 31
0.0
  0
LINE
  5
18B
  8
0
  6
CONTINUOUS
 62
     7
 10
-825.2170711141666
 20
92.29522999112798
 30
0.0
 11
-825.2000696154037
 21
92.29522999112798
 31
0.0
  0
LINE
  5
18C
  8
0
  6
CONTINUOUS
 62
   253
 10
-825.317882330579
 20
242.8130427063032
 30
0.0
 11
-825.2000702589977
 21
242.6952306347219
 31
0.0
  0
LINE
  5
18D
  8
0
  6
CONTINUOUS
 62
     7
 10
-734.682142669421
 20
242.8130427063032
 30
0.0
 11
-825.317882330579
 21
242.8130427063032
 31
0.0
  0
LINE
  5
18E
  8
0
  6
CONTINUOUS
 62
   253
 10
-734.7999553845963
 20
242.695229991128
 30
0.0
 11
-734.6821426694211
 21
242.8130427063032
 31
0.0
  0
LINE
  5
18F
  8
0
  6
CONTINUOUS
 62
   253
 10
-733.1821997848248
 20
241.3130998217069
 30
0.0
 11
-733.3000125000001
 21
241.1952871065317
 31
0.0
  0
ARC
  5
190
  8
0
  6
CONTINUOUS
 62
     7
 10
-734.6821761263097
 20
241.3129109507925
 30
0.0
 40
1.500131754609893
 50
67.50263351469164
 51
89.99872215323444
  0
ARC
  5
191
  8
0
  6
CONTINUOUS
 62
     7
 10
-734.6820662563847
 20
241.3131762347432
 30
0.0
 40
1.499844618797245
 50
45.00000000000222
 51
67.50263351468595
  0
ARC
  5
192
  8
0
  6
CONTINUOUS
 62
     7
 10
-734.6820662563842
 20
241.3131762347437
 30
0.0
 40
1.49984461879646
 50
22.49736648530677
 51
45.00000000000227
  0
ARC
  5
193
  8
0
  6
CONTINUOUS
 62
     7
 10
-734.6823315403344
 20
241.3130663648183
 30
0.0
 40
1.500131754608894
 50
0.001277846767664
 51
22.49736648532609
  0
LINE
  5
194
  8
0
  6
CONTINUOUS
 62
   253
 10
-826.7000125
 20
241.1952871065317
 30
0.0
 11
-826.8178252151752
 21
241.3130998217069
 31
0.0
  0
ARC
  5
195
  8
0
  6
CONTINUOUS
 62
     7
 10
-825.3176934596654
 20
241.3130663648183
 30
0.0
 40
1.500131754609116
 50
157.5026335146761
 51
179.9987221532323
  0
ARC
  5
196
  8
0
  6
CONTINUOUS
 62
     7
 10
-825.317958743616
 20
241.3131762347438
 30
0.0
 40
1.499844618796323
 50
134.999999999997
 51
157.5026335146936
  0
ARC
  5
197
  8
0
  6
CONTINUOUS
 62
     7
 10
-825.3179587436153
 20
241.3131762347431
 30
0.0
 40
1.499844618797324
 50
112.4973664853129
 51
134.9999999999948
  0
ARC
  5
198
  8
0
  6
CONTINUOUS
 62
     7
 10
-825.3178488736904
 20
241.3129109507925
 30
0.0
 40
1.500131754609921
 50
90.00127784676557
 51
112.4973664853079
  0
LINE
  5
199
  8
0
  6
CONTINUOUS
 62
     7
 10
-733.1821997848248
 20
93.67736016054899
 30
0.0
 11
-733.1821997848248
 21
241.3130998217069
 31
0.0
  0
LINE
  5
19A
  8
0
  6
CONTINUOUS
 62
   253
 10
-733.3000125
 20
93.79517287572423
 30
0.0
 11
-733.1821997848247
 21
93.67736016054899
 31
0.0
  0
LINE
  5
19B
  8
0
  6
CONTINUOUS
 62
   253
 10
-734.682142669421
 20
92.17741727595273
 30
0.0
 11
-734.7999553845963
 21
92.29522999112798
 31
0.0
  0
ARC
  5
19C
  8
0
  6
CONTINUOUS
 62
     7
 10
-734.6823315403345
 20
93.67739361743764
 30
0.0
 40
1.500131754609005
 50
337.5026335146745
 51
359.9987221532323
  0
ARC
  5
19D
  8
0
  6
CONTINUOUS
 62
     7
 10
-734.6820662563844
 20
93.67728374751228
 30
0.0
 40
1.499844618796607
 50
314.9999999999982
 51
337.5026335146905
  0
ARC
  5
19E
  8
0
  6
CONTINUOUS
 62
     7
 10
-734.6820662563847
 20
93.67728374751273
 30
0.0
 40
1.499844618797245
 50
292.4973664853139
 51
314.9999999999978
  0
ARC
  5
19F
  8
0
  6
CONTINUOUS
 62
     7
 10
-734.6821761263097
 20
93.67754903146363
 30
0.0
 40
1.500131754610087
 50
270.0012778467656
 51
292.4973664853052
  0
LINE
  5
1A0
  8
0
  6
CONTINUOUS
 62
   253
 10
-826.8178252151752
 20
93.67736016054899
 30
0.0
 11
-826.7000125
 21
93.79517287572423
 31
0.0
  0
LINE
  5
1A1
  8
0
  6
CONTINUOUS
 62
     7
 10
-826.8178252151752
 20
241.3130998217069
 30
0.0
 11
-826.8178252151752
 21
93.677360160549
 31
0.0
  0
LINE
  5
1A2
  8
0
  6
CONTINUOUS
 62
   253
 10
-825.2000696154038
 20
92.29522999112798
 30
0.0
 11
-825.317882330579
 21
92.17741727595273
 31
0.0
  0
ARC
  5
1A3
  8
0
  6
CONTINUOUS
 62
     7
 10
-825.3178488736904
 20
93.67754903146333
 30
0.0
 40
1.500131754609782
 50
247.5026335146898
 51
269.9987221532344
  0
ARC
  5
1A4
  8
0
  6
CONTINUOUS
 62
     7
 10
-825.3179587436156
 20
93.67728374751248
 30
0.0
 40
1.499844618796912
 50
225.0000000000016
 51
247.5026335146898
  0
ARC
  5
1A5
  8
0
  6
CONTINUOUS
 62
     7
 10
-825.3179587436158
 20
93.6772837475122
 30
0.0
 40
1.499844618796558
 50
202.4973664853067
 51
225.0
  0
ARC
  5
1A6
  8
0
  6
CONTINUOUS
 62
     7
 10
-825.3176934596655
 20
93.67739361743764
 30
0.0
 40
1.500131754609005
 50
180.0012778467677
 51
202.497366485325
  0
LINE
  5
1A7
  8
0
  6
CONTINUOUS
 62
     7
 10
-825.317882330579
 20
92.17741727595273
 30
0.0
 11
-734.682142669421
 21
92.17741727595273
 31
0.0
  0
LINE
  5
1A8
  8
0
  6
CONTINUOUS
 62
     7
 10
-744.5500125000001
 20
150.995229991128
 30
0.0
 11
-744.5500125000001
 21
183.995229991128
 31
0.0
  0
LINE
  5
1A9
  8
0
  6
CONTINUOUS
 62
     7
 10
-769.5500125
 20
183.995229991128
 30
0.0
 11
-769.5500125
 21
150.995229991128
 31
0.0
  0
LINE
  5
1AA
  8
0
  6
CONTINUOUS
 62
     7
 10
-790.5500125
 20
150.995229991128
 30
0.0
 11
-790.5500125
 21
183.995229991128
 31
0.0
  0
LINE
  5
1AB
  8
0
  6
CONTINUOUS
 62
     7
 10
-815.5500125
 20
183.995229991128
 30
0.0
 11
-815.5500125
 21
150.995229991128
 31
0.0
  0
LINE
  5
1AC
  8
0
  6
CONTINUOUS
 62
     7
 10
-769.4976406568617
 20
183.9831993791907
 30
0.0
 11
-769.4976406568617
 21
151.0072606030653
 31
0.0
  0
LINE
  5
1AD
  8
0
  6
CONTINUOUS
 62
     7
 10
-744.6023843431384
 20
151.0072606030653
 30
0.0
 11
-744.6023843431384
 21
183.9831993791907
 31
0.0
  0
LINE
  5
1AE
  8
0
  6
CONTINUOUS
 62
     7
 10
-815.4976406568617
 20
183.9831993791907
 30
0.0
 11
-815.4976406568617
 21
151.0072606030653
 31
0.0
  0
LINE
  5
1AF
  8
0
  6
CONTINUOUS
 62
     7
 10
-790.6023843431384
 20
151.0072606030653
 30
0.0
 11
-790.6023843431384
 21
183.9831993791907
 31
0.0
  0
LINE
  5
1B0
  8
0
  6
CONTINUOUS
 62
     7
 10
-802.1298040098003
 20
183.995229991128
 30
0.0
 11
-802.1298040098003
 21
150.995229991128
 31
0.0
  0
LINE
  5
1B1
  8
0
  6
CONTINUOUS
 62
     7
 10
-803.9702209901998
 20
150.995229991128
 30
0.0
 11
-803.9702209901998
 21
183.995229991128
 31
0.0
  0
LINE
  5
1B2
  8
0
  6
CONTINUOUS
 62
     7
 10
-756.1298040098003
 20
183.995229991128
 30
0.0
 11
-756.1298040098003
 21
150.995229991128
 31
0.0
  0
LINE
  5
1B3
  8
0
  6
CONTINUOUS
 62
     7
 10
-757.9702209901997
 20
150.995229991128
 30
0.0
 11
-757.9702209901997
 21
183.995229991128
 31
0.0
  0
TEXT
  5
1B4
  8
0
  6
CONTINUOUS
 62
     7
 10
-673.051609978742
 20
-0.8505298862073296
 30
0.0
 40
10.5
  1
MP-SM2
  0
ENDSEC
  0
EOF
