  0
SECTION
  2
HEADER
  9
$ACADVER
  1
AC1004
  9
$INSBASE
 10
0.0
 20
0.0
  9
$EXTMIN
 10
56.99999999999998
 20
158.6704545454546
  9
$EXTMAX
 10
146.0
 20
224.0
  9
$LIMMIN
 10
0.0
 20
0.0
  9
$LIMMAX
 10
12.0
 20
9.0
  9
$ORTHOMODE
 70
     0
  9
$REGENMODE
 70
     1
  9
$FILLMODE
 70
     1
  9
$QTEXTMODE
 70
     0
  9
$DRAGMODE
 70
     2
  9
$LTSCALE
 40
1.0
  9
$OSMODE
 70
    37
  9
$ATTMODE
 70
     1
  9
$TEXTSIZE
 40
0.2
  9
$TRACEWID
 40
0.05
  9
$TEXTSTYLE
  7
STANDARD
  9
$CLAYER
  8
0
  9
$CELTYPE
  6
BYLAYER
  9
$CECOLOR
 62
   256
  9
$DIMSCALE
 40
1.0
  9
$DIMASZ
 40
3.0
  9
$DIMEXO
 40
0.0625
  9
$DIMDLI
 40
0.38
  9
$DIMRND
 40
0.0
  9
$DIMDLE
 40
0.0
  9
$DIMEXE
 40
1.5
  9
$DIMTP
 40
0.0
  9
$DIMTM
 40
0.0
  9
$DIMTXT
 40
3.0
  9
$DIMCEN
 40
0.09
  9
$DIMTSZ
 40
0.0
  9
$DIMTOL
 70
     0
  9
$DIMLIM
 70
     0
  9
$DIMTIH
 70
     1
  9
$DIMTOH
 70
     1
  9
$DIMSE1
 70
     0
  9
$DIMSE2
 70
     0
  9
$DIMTAD
 70
     1
  9
$DIMZIN
 70
     0
  9
$DIMBLK
  1

  9
$DIMASO
 70
     1
  9
$DIMSHO
 70
     1
  9
$DIMPOST
  1

  9
$DIMAPOST
  1

  9
$DIMALT
 70
     0
  9
$DIMALTD
 70
     2
  9
$DIMALTF
 40
25.4
  9
$DIMLFAC
 40
1.0
  9
$DIMTOFL
 70
     0
  9
$DIMTVP
 40
0.0
  9
$DIMTIX
 70
     0
  9
$DIMSOXD
 70
     0
  9
$DIMSAH
 70
     0
  9
$DIMBLK1
  1

  9
$DIMBLK2
  1

  9
$LUNITS
 70
     2
  9
$LUPREC
 70
     4
  9
$SKETCHINC
 40
0.1
  9
$FILLETRAD
 40
0.5
  9
$AUNITS
 70
     0
  9
$AUPREC
 70
     0
  9
$MENU
  1
.
  9
$ELEVATION
 40
0.0
  9
$THICKNESS
 40
0.0
  9
$LIMCHECK
 70
     0
  9
$CHAMFERA
 40
0.0
  9
$CHAMFERB
 40
0.0
  9
$SKPOLY
 70
     0
  9
$TDCREATE
 40
2458878.486685498
  9
$TDUPDATE
 40
2458878.486685857
  9
$TDINDWG
 40
0.0000000116
  9
$TDUSRTIMER
 40
0.0000000116
  9
$USRTIMER
 70
     1
  9
$ANGBASE
 50
0.0
  9
$ANGDIR
 70
     0
  9
$PDMODE
 70
     0
  9
$PDSIZE
 40
0.0
  9
$PLINEWID
 40
0.0
  9
$COORDS
 70
     1
  9
$SPLFRAME
 70
     0
  9
$SPLINETYPE
 70
     6
  9
$SPLINESEGS
 70
     8
  9
$ATTDIA
 70
     0
  9
$ATTREQ
 70
     1
  9
$SURFTAB1
 70
     6
  9
$SURFTAB2
 70
     6
  9
$SURFTYPE
 70
     6
  9
$SURFU
 70
     6
  9
$SURFV
 70
     6
  9
$UCSNAME
  2

  9
$UCSORG
 10
0.0
 20
0.0
 30
0.0
  9
$UCSXDIR
 10
1.0
 20
0.0
 30
0.0
  9
$UCSYDIR
 10
0.0
 20
1.0
 30
0.0
  9
$USERI1
 70
     0
  9
$USERI2
 70
     0
  9
$USERI3
 70
     0
  9
$USERI4
 70
     0
  9
$USERI5
 70
     0
  9
$USERR1
 40
0.0
  9
$USERR2
 40
0.0
  9
$USERR3
 40
0.0
  9
$USERR4
 40
0.0
  9
$USERR5
 40
0.0
  9
$WORLDVIEW
 70
     1
  0
ENDSEC
  0
SECTION
  2
TABLES
  0
TABLE
  2
LTYPE
 70
     2
  0
LTYPE
  2
CONTINUOUS
 70
     0
  3
Solid line
 72
    65
 73
     0
 40
0.0
  0
LTYPE
  2
CENTER
 70
     0
  3

 72
    65
 73
     0
 40
0.0
  0
ENDTAB
  0
TABLE
  2
LAYER
 70
     1
  0
LAYER
  2
0
 70
     0
 62
     7
  6
CONTINUOUS
  0
ENDTAB
  0
TABLE
  2
STYLE
 70
     2
  0
STYLE
  2
STANDARD
 70
     0
 40
0.0
 41
1.0
 50
0.0
 71
     0
 42
0.2
  3
txt
  4

  0
STYLE
  2
ＭＳ_ゴシック
 70
     0
 40
0.0
 41
1.0
 50
0.0
 71
     0
 42
0.2
  3
ＭＳ ゴシック.shx
  4

  0
ENDTAB
  0
TABLE
  2
VIEW
 70
     0
  0
ENDTAB
  0
ENDSEC
  0
SECTION
  2
BLOCKS
  0
BLOCK
  8
0
  2
D_FRAME_VIEW_1288
 70
     0
 10
0.0
 20
0.0
  0
LINE
  8
0
  6
CONTINUOUS
 62
     7
 10
98.00121834596179
 20
169.0
 11
89.94987437106619
 21
169.0
  0
ARC
  8
0
  6
CONTINUOUS
 62
     7
 10
80.0
 20
120.0
 40
49.99999999999999
 50
78.52165904546645
 51
101.4783409545336
  0
LINE
  8
0
  6
CONTINUOUS
 62
     7
 10
70.05012562893381
 20
169.0
 11
61.99878165403821
 21
169.0
  0
LINE
  8
0
  6
CONTINUOUS
 62
     7
 10
100.0
 20
169.0
 11
98.0012183459618
 21
169.0
  0
LINE
  8
0
  6
CONTINUOUS
 62
     7
 10
99.61465281831103
 20
180.0348994967025
 11
99.99999999999997
 21
169.0
  0
LINE
  8
0
  6
CONTINUOUS
 62
     7
 10
60.00000000000001
 20
169.0
 11
60.38534718168896
 21
180.0348994967025
  0
LINE
  8
0
  6
CONTINUOUS
 62
     7
 10
61.99878165403821
 20
169.0
 11
60.00000000000001
 21
169.0
  0
ARC
  8
0
  6
CONTINUOUS
 62
     7
 10
80.0
 20
194.0
 40
14.99999999999999
 50
240.0735651333858
 51
299.9264348666142
  0
LINE
  8
0
  6
CONTINUOUS
 62
     7
 10
87.48333649750323
 20
181.0
 11
97.61587116427283
 21
181.0
  0
LINE
  8
0
  6
CONTINUOUS
 62
     7
 10
62.38412883572715
 20
181.0
 11
72.51666350249675
 21
181.0
  0
LINE
  8
0
  6
CONTINUOUS
 62
     7
 10
97.61587116427283
 20
181.0
 11
98.61526199129193
 21
181.0
  0
ARC
  8
0
  6
CONTINUOUS
 62
     7
 10
98.61526199129194
 20
180.0
 40
1.0
 50
2.000000000000114
 51
90.0
  0
LINE
  8
0
  6
CONTINUOUS
 62
     7
 10
61.38473800870806
 20
181.0
 11
62.38412883572715
 21
181.0
  0
ARC
  8
0
  6
CONTINUOUS
 62
     7
 10
61.38473800870806
 20
180.0
 40
1.0
 50
89.99999999999982
 51
177.9999999999999
  0
ENDBLK
  8
0
  0
BLOCK
  8
0
  2
D_FRAME_VIEW_1386
 70
     0
 10
0.0
 20
0.0
  0
LINE
  8
0
  6
CONTINUOUS
 62
     7
 10
87.48331477354785
 20
200.389394111307
 11
87.4833364975032
 21
200.3847380087081
  0
LINE
  8
0
  6
CONTINUOUS
 62
     7
 10
87.48331477354785
 20
200.389394111307
 11
87.48331477354785
 21
219.610605888693
  0
LINE
  8
0
  6
CONTINUOUS
 62
     7
 10
87.4833364975032
 20
219.6152619912919
 11
87.48331477354785
 21
219.610605888693
  0
ARC
  8
0
  6
CONTINUOUS
 62
     7
 10
92.75
 20
217.5
 40
0.5000000000000004
 50
90.0
 51
180.0
  0
LINE
  8
0
  6
CONTINUOUS
 62
     7
 10
92.24999999999999
 20
217.5
 11
92.24999999999999
 21
202.5
  0
ARC
  8
0
  6
CONTINUOUS
 62
     7
 10
92.75
 20
202.5
 40
0.5000000000000004
 50
180.0
 51
270.0
  0
LINE
  8
0
  6
CONTINUOUS
 62
     7
 10
97.14642819948224
 20
202.0
 11
92.75
 21
202.0
  0
POLYLINE
  8
0
  6
CONTINUOUS
 62
     7
 66
     1
  0
VERTEX
  8
0
  6
CONTINUOUS
 62
     7
 10
97.9373911146521
 20
202.5
  0
VERTEX
  8
0
  6
CONTINUOUS
 62
     7
 10
97.93701291200243
 20
202.4844983739395
  0
VERTEX
  8
0
  6
CONTINUOUS
 62
     7
 10
97.9358856477336
 20
202.4690151815311
  0
VERTEX
  8
0
  6
CONTINUOUS
 62
     7
 10
97.93402033736584
 20
202.4536029549006
  0
VERTEX
  8
0
  6
CONTINUOUS
 62
     7
 10
97.93142799641943
 20
202.4383142261741
  0
VERTEX
  8
0
  6
CONTINUOUS
 62
     7
 10
97.9279785668343
 20
202.4225991302168
  0
VERTEX
  8
0
  6
CONTINUOUS
 62
     7
 10
97.92377806452369
 20
202.4070494111443
  0
VERTEX
  8
0
  6
CONTINUOUS
 62
     7
 10
97.9188578854292
 20
202.3917106561302
  0
VERTEX
  8
0
  6
CONTINUOUS
 62
     7
 10
97.91324942549242
 20
202.3766284523482
  0
VERTEX
  8
0
  6
CONTINUOUS
 62
     7
 10
97.90498831317208
 20
202.3574845376093
  0
VERTEX
  8
0
  6
CONTINUOUS
 62
     7
 10
97.89565418201404
 20
202.3387845685732
  0
VERTEX
  8
0
  6
CONTINUOUS
 62
     7
 10
97.88532930304811
 20
202.3205732858827
  0
VERTEX
  8
0
  6
CONTINUOUS
 62
     7
 10
97.87409594730411
 20
202.3028954301806
  0
VERTEX
  8
0
  6
CONTINUOUS
 62
     7
 10
97.86203638581189
 20
202.2857957421098
  0
VERTEX
  8
0
  6
CONTINUOUS
 62
     7
 10
97.84923288960125
 20
202.2693189623132
  0
VERTEX
  8
0
  6
CONTINUOUS
 62
     7
 10
97.83423445564353
 20
202.2517679892638
  0
VERTEX
  8
0
  6
CONTINUOUS
 62
     7
 10
97.8184295634536
 20
202.2349081846198
  0
VERTEX
  8
0
  6
CONTINUOUS
 62
     7
 10
97.80190288009595
 20
202.2187491037932
  0
VERTEX
  8
0
  6
CONTINUOUS
 62
     7
 10
97.78473907263508
 20
202.2033003021962
  0
VERTEX
  8
0
  6
CONTINUOUS
 62
     7
 10
97.76027343067423
 20
202.1832436639249
  0
VERTEX
  8
0
  6
CONTINUOUS
 62
     7
 10
97.73481659959482
 20
202.1644246462332
  0
VERTEX
  8
0
  6
CONTINUOUS
 62
     7
 10
97.708519168162
 20
202.1468278422173
  0
VERTEX
  8
0
  6
CONTINUOUS
 62
     7
 10
97.67835326289637
 20
202.1286062569522
  0
VERTEX
  8
0
  6
CONTINUOUS
 62
     7
 10
97.64735323697302
 20
202.1117705117517
  0
VERTEX
  8
0
  6
CONTINUOUS
 62
     7
 10
97.61564912615968
 20
202.0962848395353
  0
VERTEX
  8
0
  6
CONTINUOUS
 62
     7
 10
97.58337096622407
 20
202.0821134732221
  0
VERTEX
  8
0
  6
CONTINUOUS
 62
     7
 10
97.53834445767626
 20
202.0647312595436
  0
VERTEX
  8
0
  6
CONTINUOUS
 62
     7
 10
97.49248400840003
 20
202.0495846406078
  0
VERTEX
  8
0
  6
CONTINUOUS
 62
     7
 10
97.44599116302629
 20
202.0365969071028
  0
VERTEX
  8
0
  6
CONTINUOUS
 62
     7
 10
97.3870653967691
 20
202.0232348008024
  0
VERTEX
  8
0
  6
CONTINUOUS
 62
     7
 10
97.32740978935927
 20
202.0129642643458
  0
VERTEX
  8
0
  6
CONTINUOUS
 62
     7
 10
97.26726076872363
 20
202.0057150903289
  0
VERTEX
  8
0
  6
CONTINUOUS
 62
     7
 10
97.206854762789
 20
202.0014170713483
  0
VERTEX
  8
0
  6
CONTINUOUS
 62
     7
 10
97.14642819948224
 20
202.0
  0
SEQEND
  8
0
  6
CONTINUOUS
 62
     7
  0
LINE
  8
0
  6
CONTINUOUS
 62
     7
 10
97.9373911146521
 20
217.5
 11
97.9373911146521
 21
202.5
  0
ARC
  8
0
  6
CONTINUOUS
 62
     7
 10
97.15411860128555
 20
216.8307491985991
 40
1.16927609180057
 50
70.00602166990865
 51
90.37684063327754
  0
POLYLINE
  8
0
  6
CONTINUOUS
 62
     7
 66
     1
  0
VERTEX
  8
0
  6
CONTINUOUS
 62
     7
 10
97.55391909812838
 20
217.9295513380131
  0
VERTEX
  8
0
  6
CONTINUOUS
 62
     7
 10
97.6541962329011
 20
217.8846770761398
  0
VERTEX
  8
0
  6
CONTINUOUS
 62
     7
 10
97.74729003572723
 20
217.8265922633086
  0
VERTEX
  8
0
  6
CONTINUOUS
 62
     7
 10
97.8261394463607
 20
217.7570561234317
  0
VERTEX
  8
0
  6
CONTINUOUS
 62
     7
 10
97.88932180442814
 20
217.6726911420092
  0
VERTEX
  8
0
  6
CONTINUOUS
 62
     7
 10
97.93086289937904
 20
217.5644114850261
  0
VERTEX
  8
0
  6
CONTINUOUS
 62
     7
 10
97.9373911146521
 20
217.5
  0
SEQEND
  8
0
  6
CONTINUOUS
 62
     7
  0
LINE
  8
0
  6
CONTINUOUS
 62
     7
 10
97.14642819948224
 20
218.0
 11
92.75
 21
218.0
  0
POLYLINE
  8
0
  6
CONTINUOUS
 62
     7
 66
     1
  0
VERTEX
  8
0
  6
CONTINUOUS
 62
     7
 10
94.46277142583183
 20
202.5
  0
VERTEX
  8
0
  6
CONTINUOUS
 62
     7
 10
94.46262778407602
 20
202.4860852539369
  0
VERTEX
  8
0
  6
CONTINUOUS
 62
     7
 10
94.46219712797851
 20
202.4721820264936
  0
VERTEX
  8
0
  6
CONTINUOUS
 62
     7
 10
94.46147689086615
 20
202.458255661271
  0
VERTEX
  8
0
  6
CONTINUOUS
 62
     7
 10
94.46046887292654
 20
202.4443640529871
  0
VERTEX
  8
0
  6
CONTINUOUS
 62
     7
 10
94.45817363999213
 20
202.4215033874582
  0
VERTEX
  8
0
  6
CONTINUOUS
 62
     7
 10
94.45509276192749
 20
202.3987695491553
  0
VERTEX
  8
0
  6
CONTINUOUS
 62
     7
 10
94.4516623940165
 20
202.3785239398638
  0
VERTEX
  8
0
  6
CONTINUOUS
 62
     7
 10
94.44760657547802
 20
202.3584647857403
  0
VERTEX
  8
0
  6
CONTINUOUS
 62
     7
 10
94.44291480561132
 20
202.338566672955
  0
VERTEX
  8
0
  6
CONTINUOUS
 62
     7
 10
94.43812460613796
 20
202.3207429957091
  0
VERTEX
  8
0
  6
CONTINUOUS
 62
     7
 10
94.43284194980613
 20
202.3031920676451
  0
VERTEX
  8
0
  6
CONTINUOUS
 62
     7
 10
94.42703928193762
 20
202.2858359357053
  0
VERTEX
  8
0
  6
CONTINUOUS
 62
     7
 10
94.42075781756765
 20
202.2688071886366
  0
VERTEX
  8
0
  6
CONTINUOUS
 62
     7
 10
94.41533985142362
 20
202.2553040071564
  0
VERTEX
  8
0
  6
CONTINUOUS
 62
     7
 10
94.40962251270483
 20
202.2420432489984
  0
VERTEX
  8
0
  6
CONTINUOUS
 62
     7
 10
94.40358798044201
 20
202.2289869285678
  0
VERTEX
  8
0
  6
CONTINUOUS
 62
     7
 10
94.39726490005607
 20
202.2161992313508
  0
VERTEX
  8
0
  6
CONTINUOUS
 62
     7
 10
94.38602333433322
 20
202.1953730976757
  0
VERTEX
  8
0
  6
CONTINUOUS
 62
     7
 10
94.37720522710292
 20
202.1804866639424
  0
VERTEX
  8
0
  6
CONTINUOUS
 62
     7
 10
94.36798550920881
 20
202.1660820923681
  0
VERTEX
  8
0
  6
CONTINUOUS
 62
     7
 10
94.35832118787316
 20
202.1520985054133
  0
VERTEX
  8
0
  6
CONTINUOUS
 62
     7
 10
94.34828144463975
 20
202.1386404343671
  0
VERTEX
  8
0
  6
CONTINUOUS
 62
     7
 10
94.33990865353859
 20
202.1281657624537
  0
VERTEX
  8
0
  6
CONTINUOUS
 62
     7
 10
94.33131004045612
 20
202.1180542580098
  0
VERTEX
  8
0
  6
CONTINUOUS
 62
     7
 10
94.32246064546118
 20
202.1082784423716
  0
VERTEX
  8
0
  6
CONTINUOUS
 62
     7
 10
94.31340156734774
 20
202.0988849953074
  0
VERTEX
  8
0
  6
CONTINUOUS
 62
     7
 10
94.29775508345818
 20
202.0840036810845
  0
VERTEX
  8
0
  6
CONTINUOUS
 62
     7
 10
94.2848617482862
 20
202.0729127582117
  0
VERTEX
  8
0
  6
CONTINUOUS
 62
     7
 10
94.27159571096908
 20
202.0625153012151
  0
VERTEX
  8
0
  6
CONTINUOUS
 62
     7
 10
94.25801637871396
 20
202.0528635524793
  0
VERTEX
  8
0
  6
CONTINUOUS
 62
     7
 10
94.24403258477165
 20
202.0439059436426
  0
VERTEX
  8
0
  6
CONTINUOUS
 62
     7
 10
94.22977574473704
 20
202.0357398737364
  0
VERTEX
  8
0
  6
CONTINUOUS
 62
     7
 10
94.21515119526582
 20
202.0283245020788
  0
VERTEX
  8
0
  6
CONTINUOUS
 62
     7
 10
94.20029707580096
 20
202.0217433410454
  0
VERTEX
  8
0
  6
CONTINUOUS
 62
     7
 10
94.18519308469713
 20
202.0159939294079
  0
VERTEX
  8
0
  6
CONTINUOUS
 62
     7
 10
94.17439104823487
 20
202.0124463239156
  0
VERTEX
  8
0
  6
CONTINUOUS
 62
     7
 10
94.16352040710885
 20
202.0093393244499
  0
VERTEX
  8
0
  6
CONTINUOUS
 62
     7
 10
94.15255313661939
 20
202.0066668747145
  0
VERTEX
  8
0
  6
CONTINUOUS
 62
     7
 10
94.14153554851836
 20
202.0044419141861
  0
VERTEX
  8
0
  6
CONTINUOUS
 62
     7
 10
94.13042004652331
 20
202.0026581237689
  0
VERTEX
  8
0
  6
CONTINUOUS
 62
     7
 10
94.11927275412745
 20
202.0013291128199
  0
VERTEX
  8
0
  6
CONTINUOUS
 62
     7
 10
94.10806477366734
 20
202.0004537201479
  0
VERTEX
  8
0
  6
CONTINUOUS
 62
     7
 10
94.09684404560295
 20
202.0000376865937
  0
VERTEX
  8
0
  6
CONTINUOUS
 62
     7
 10
94.09229933040632
 20
202.0
  0
SEQEND
  8
0
  6
CONTINUOUS
 62
     7
  0
LINE
  8
0
  6
CONTINUOUS
 62
     7
 10
94.46277142583183
 20
217.5
 11
94.46277142583183
 21
202.5
  0
POLYLINE
  8
0
  6
CONTINUOUS
 62
     7
 66
     1
  0
VERTEX
  8
0
  6
CONTINUOUS
 62
     7
 10
94.46277142583183
 20
217.5
  0
VERTEX
  8
0
  6
CONTINUOUS
 62
     7
 10
94.46262778407602
 20
217.5139147460631
  0
VERTEX
  8
0
  6
CONTINUOUS
 62
     7
 10
94.46219712797851
 20
217.5278179735064
  0
VERTEX
  8
0
  6
CONTINUOUS
 62
     7
 10
94.46147689086615
 20
217.5417443387289
  0
VERTEX
  8
0
  6
CONTINUOUS
 62
     7
 10
94.46046887292654
 20
217.5556359470129
  0
VERTEX
  8
0
  6
CONTINUOUS
 62
     7
 10
94.45817363999213
 20
217.5784966125418
  0
VERTEX
  8
0
  6
CONTINUOUS
 62
     7
 10
94.45509276192749
 20
217.6012304508447
  0
VERTEX
  8
0
  6
CONTINUOUS
 62
     7
 10
94.4516623940165
 20
217.6214760601362
  0
VERTEX
  8
0
  6
CONTINUOUS
 62
     7
 10
94.44760657547802
 20
217.6415352142596
  0
VERTEX
  8
0
  6
CONTINUOUS
 62
     7
 10
94.44291480561132
 20
217.661433327045
  0
VERTEX
  8
0
  6
CONTINUOUS
 62
     7
 10
94.43812460613796
 20
217.6792570042909
  0
VERTEX
  8
0
  6
CONTINUOUS
 62
     7
 10
94.43284194980613
 20
217.6968079323549
  0
VERTEX
  8
0
  6
CONTINUOUS
 62
     7
 10
94.42703928193762
 20
217.7141640642947
  0
VERTEX
  8
0
  6
CONTINUOUS
 62
     7
 10
94.42075781756765
 20
217.7311928113634
  0
VERTEX
  8
0
  6
CONTINUOUS
 62
     7
 10
94.41533985142362
 20
217.7446959928436
  0
VERTEX
  8
0
  6
CONTINUOUS
 62
     7
 10
94.40962251270483
 20
217.7579567510015
  0
VERTEX
  8
0
  6
CONTINUOUS
 62
     7
 10
94.40358798044201
 20
217.7710130714321
  0
VERTEX
  8
0
  6
CONTINUOUS
 62
     7
 10
94.39726490005607
 20
217.7838007686492
  0
VERTEX
  8
0
  6
CONTINUOUS
 62
     7
 10
94.38602333433322
 20
217.8046269023243
  0
VERTEX
  8
0
  6
CONTINUOUS
 62
     7
 10
94.37720522710292
 20
217.8195133360576
  0
VERTEX
  8
0
  6
CONTINUOUS
 62
     7
 10
94.36798550920881
 20
217.8339179076318
  0
VERTEX
  8
0
  6
CONTINUOUS
 62
     7
 10
94.35832118787316
 20
217.8479014945867
  0
VERTEX
  8
0
  6
CONTINUOUS
 62
     7
 10
94.34828144463975
 20
217.8613595656329
  0
VERTEX
  8
0
  6
CONTINUOUS
 62
     7
 10
94.33990865353859
 20
217.8718342375463
  0
VERTEX
  8
0
  6
CONTINUOUS
 62
     7
 10
94.33131004045612
 20
217.8819457419902
  0
VERTEX
  8
0
  6
CONTINUOUS
 62
     7
 10
94.32246064546118
 20
217.8917215576283
  0
VERTEX
  8
0
  6
CONTINUOUS
 62
     7
 10
94.31340156734774
 20
217.9011150046926
  0
VERTEX
  8
0
  6
CONTINUOUS
 62
     7
 10
94.29775508345818
 20
217.9159963189154
  0
VERTEX
  8
0
  6
CONTINUOUS
 62
     7
 10
94.2848617482862
 20
217.9270872417883
  0
VERTEX
  8
0
  6
CONTINUOUS
 62
     7
 10
94.27159571096908
 20
217.9374846987849
  0
VERTEX
  8
0
  6
CONTINUOUS
 62
     7
 10
94.25801637871396
 20
217.9471364475206
  0
VERTEX
  8
0
  6
CONTINUOUS
 62
     7
 10
94.24403258477165
 20
217.9560940563574
  0
VERTEX
  8
0
  6
CONTINUOUS
 62
     7
 10
94.22977574473704
 20
217.9642601262635
  0
VERTEX
  8
0
  6
CONTINUOUS
 62
     7
 10
94.21515119526582
 20
217.9716754979212
  0
VERTEX
  8
0
  6
CONTINUOUS
 62
     7
 10
94.20029707580096
 20
217.9782566589546
  0
VERTEX
  8
0
  6
CONTINUOUS
 62
     7
 10
94.18519308469713
 20
217.984006070592
  0
VERTEX
  8
0
  6
CONTINUOUS
 62
     7
 10
94.17439104823487
 20
217.9875536760844
  0
VERTEX
  8
0
  6
CONTINUOUS
 62
     7
 10
94.16352040710886
 20
217.9906606755501
  0
VERTEX
  8
0
  6
CONTINUOUS
 62
     7
 10
94.15255313661939
 20
217.9933331252855
  0
VERTEX
  8
0
  6
CONTINUOUS
 62
     7
 10
94.14153554851836
 20
217.9955580858139
  0
VERTEX
  8
0
  6
CONTINUOUS
 62
     7
 10
94.13042004652333
 20
217.9973418762311
  0
VERTEX
  8
0
  6
CONTINUOUS
 62
     7
 10
94.11927275412745
 20
217.99867088718
  0
VERTEX
  8
0
  6
CONTINUOUS
 62
     7
 10
94.10806477366734
 20
217.999546279852
  0
VERTEX
  8
0
  6
CONTINUOUS
 62
     7
 10
94.09684404560296
 20
217.9999623134063
  0
VERTEX
  8
0
  6
CONTINUOUS
 62
     7
 10
94.09229933040633
 20
218.0
  0
SEQEND
  8
0
  6
CONTINUOUS
 62
     7
  0
LINE
  8
0
  6
CONTINUOUS
 62
     7
 10
72.51666350249673
 20
200.3847380087081
 11
72.51668522645208
 21
200.389394111307
  0
LINE
  8
0
  6
CONTINUOUS
 62
     7
 10
72.51668522645208
 20
219.610605888693
 11
72.51666350249671
 21
219.6152619912919
  0
LINE
  8
0
  6
CONTINUOUS
 62
     7
 10
72.51668522645208
 20
200.389394111307
 11
72.51668522645208
 21
219.610605888693
  0
POLYLINE
  8
0
  6
CONTINUOUS
 62
     7
 66
     1
  0
VERTEX
  8
0
  6
CONTINUOUS
 62
     7
 10
62.06260888534793
 20
217.5
  0
VERTEX
  8
0
  6
CONTINUOUS
 62
     7
 10
62.06298708799758
 20
217.5155016260605
  0
VERTEX
  8
0
  6
CONTINUOUS
 62
     7
 10
62.06411435226642
 20
217.5309848184689
  0
VERTEX
  8
0
  6
CONTINUOUS
 62
     7
 10
62.06597966263416
 20
217.5463970450994
  0
VERTEX
  8
0
  6
CONTINUOUS
 62
     7
 10
62.06857200358057
 20
217.5616857738259
  0
VERTEX
  8
0
  6
CONTINUOUS
 62
     7
 10
62.07202143316569
 20
217.5774008697832
  0
VERTEX
  8
0
  6
CONTINUOUS
 62
     7
 10
62.0762219354763
 20
217.5929505888557
  0
VERTEX
  8
0
  6
CONTINUOUS
 62
     7
 10
62.0811421145708
 20
217.6082893438698
  0
VERTEX
  8
0
  6
CONTINUOUS
 62
     7
 10
62.08675057450757
 20
217.6233715476518
  0
VERTEX
  8
0
  6
CONTINUOUS
 62
     7
 10
62.09501168682792
 20
217.6425154623907
  0
VERTEX
  8
0
  6
CONTINUOUS
 62
     7
 10
62.10434581798597
 20
217.6612154314268
  0
VERTEX
  8
0
  6
CONTINUOUS
 62
     7
 10
62.1146706969519
 20
217.6794267141173
  0
VERTEX
  8
0
  6
CONTINUOUS
 62
     7
 10
62.12590405269589
 20
217.6971045698194
  0
VERTEX
  8
0
  6
CONTINUOUS
 62
     7
 10
62.13796361418811
 20
217.7142042578902
  0
VERTEX
  8
0
  6
CONTINUOUS
 62
     7
 10
62.15076711039874
 20
217.7306810376868
  0
VERTEX
  8
0
  6
CONTINUOUS
 62
     7
 10
62.16576554435647
 20
217.7482320107362
  0
VERTEX
  8
0
  6
CONTINUOUS
 62
     7
 10
62.1815704365464
 20
217.7650918153802
  0
VERTEX
  8
0
  6
CONTINUOUS
 62
     7
 10
62.19809711990405
 20
217.7812508962068
  0
VERTEX
  8
0
  6
CONTINUOUS
 62
     7
 10
62.21526092736493
 20
217.7966996978037
  0
VERTEX
  8
0
  6
CONTINUOUS
 62
     7
 10
62.23972656932578
 20
217.8167563360751
  0
VERTEX
  8
0
  6
CONTINUOUS
 62
     7
 10
62.26518340040518
 20
217.8355753537667
  0
VERTEX
  8
0
  6
CONTINUOUS
 62
     7
 10
62.29148083183799
 20
217.8531721577827
  0
VERTEX
  8
0
  6
CONTINUOUS
 62
     7
 10
62.32164673710363
 20
217.8713937430478
  0
VERTEX
  8
0
  6
CONTINUOUS
 62
     7
 10
62.35264676302698
 20
217.8882294882483
  0
VERTEX
  8
0
  6
CONTINUOUS
 62
     7
 10
62.38435087384033
 20
217.9037151604647
  0
VERTEX
  8
0
  6
CONTINUOUS
 62
     7
 10
62.41662903377594
 20
217.9178865267779
  0
VERTEX
  8
0
  6
CONTINUOUS
 62
     7
 10
62.46165554232375
 20
217.9352687404563
  0
VERTEX
  8
0
  6
CONTINUOUS
 62
     7
 10
62.50751599159997
 20
217.9504153593922
  0
VERTEX
  8
0
  6
CONTINUOUS
 62
     7
 10
62.55400883697371
 20
217.9634030928972
  0
VERTEX
  8
0
  6
CONTINUOUS
 62
     7
 10
62.6129346032309
 20
217.9767651991975
  0
VERTEX
  8
0
  6
CONTINUOUS
 62
     7
 10
62.67259021064074
 20
217.9870357356542
  0
VERTEX
  8
0
  6
CONTINUOUS
 62
     7
 10
62.73273923127637
 20
217.9942849096711
  0
VERTEX
  8
0
  6
CONTINUOUS
 62
     7
 10
62.79314523721099
 20
217.9985829286517
  0
VERTEX
  8
0
  6
CONTINUOUS
 62
     7
 10
62.85357180051776
 20
218.0
  0
SEQEND
  8
0
  6
CONTINUOUS
 62
     7
  0
LINE
  8
0
  6
CONTINUOUS
 62
     7
 10
62.06260888534793
 20
217.5
 11
62.06260888534793
 21
202.5
  0
ARC
  8
0
  6
CONTINUOUS
 62
     7
 10
62.84588139871445
 20
203.1692508014008
 40
1.16927609180057
 50
250.0060216699087
 51
270.3768406332775
  0
POLYLINE
  8
0
  6
CONTINUOUS
 62
     7
 66
     1
  0
VERTEX
  8
0
  6
CONTINUOUS
 62
     7
 10
62.44608090187162
 20
202.0704486619869
  0
VERTEX
  8
0
  6
CONTINUOUS
 62
     7
 10
62.3458037670989
 20
202.1153229238602
  0
VERTEX
  8
0
  6
CONTINUOUS
 62
     7
 10
62.25270996427276
 20
202.1734077366914
  0
VERTEX
  8
0
  6
CONTINUOUS
 62
     7
 10
62.17386055363929
 20
202.2429438765683
  0
VERTEX
  8
0
  6
CONTINUOUS
 62
     7
 10
62.11067819557186
 20
202.3273088579907
  0
VERTEX
  8
0
  6
CONTINUOUS
 62
     7
 10
62.06913710062096
 20
202.4355885149739
  0
VERTEX
  8
0
  6
CONTINUOUS
 62
     7
 10
62.06260888534793
 20
202.5
  0
SEQEND
  8
0
  6
CONTINUOUS
 62
     7
  0
LINE
  8
0
  6
CONTINUOUS
 62
     7
 10
67.25
 20
202.0
 11
62.85357180051776
 21
202.0
  0
ARC
  8
0
  6
CONTINUOUS
 62
     7
 10
67.25
 20
202.5
 40
0.5000000000000004
 50
270.0
 51
0.0
  0
LINE
  8
0
  6
CONTINUOUS
 62
     7
 10
67.75
 20
217.5
 11
67.75
 21
202.5
  0
ARC
  8
0
  6
CONTINUOUS
 62
     7
 10
67.25
 20
217.5
 40
0.5000000000000004
 50
0.0
 51
90.0
  0
LINE
  8
0
  6
CONTINUOUS
 62
     7
 10
67.25
 20
218.0
 11
62.85357180051776
 21
218.0
  0
POLYLINE
  8
0
  6
CONTINUOUS
 62
     7
 66
     1
  0
VERTEX
  8
0
  6
CONTINUOUS
 62
     7
 10
65.53722857416815
 20
202.5
  0
VERTEX
  8
0
  6
CONTINUOUS
 62
     7
 10
65.53737221592398
 20
202.4860852539369
  0
VERTEX
  8
0
  6
CONTINUOUS
 62
     7
 10
65.53780287202149
 20
202.4721820264936
  0
VERTEX
  8
0
  6
CONTINUOUS
 62
     7
 10
65.53852310913385
 20
202.458255661271
  0
VERTEX
  8
0
  6
CONTINUOUS
 62
     7
 10
65.53953112707345
 20
202.4443640529871
  0
VERTEX
  8
0
  6
CONTINUOUS
 62
     7
 10
65.54182636000786
 20
202.4215033874582
  0
VERTEX
  8
0
  6
CONTINUOUS
 62
     7
 10
65.54490723807251
 20
202.3987695491553
  0
VERTEX
  8
0
  6
CONTINUOUS
 62
     7
 10
65.5483376059835
 20
202.3785239398638
  0
VERTEX
  8
0
  6
CONTINUOUS
 62
     7
 10
65.55239342452198
 20
202.3584647857403
  0
VERTEX
  8
0
  6
CONTINUOUS
 62
     7
 10
65.55708519438868
 20
202.338566672955
  0
VERTEX
  8
0
  6
CONTINUOUS
 62
     7
 10
65.56187539386204
 20
202.3207429957091
  0
VERTEX
  8
0
  6
CONTINUOUS
 62
     7
 10
65.56715805019387
 20
202.3031920676451
  0
VERTEX
  8
0
  6
CONTINUOUS
 62
     7
 10
65.57296071806236
 20
202.2858359357053
  0
VERTEX
  8
0
  6
CONTINUOUS
 62
     7
 10
65.57924218243235
 20
202.2688071886366
  0
VERTEX
  8
0
  6
CONTINUOUS
 62
     7
 10
65.58466014857638
 20
202.2553040071564
  0
VERTEX
  8
0
  6
CONTINUOUS
 62
     7
 10
65.59037748729517
 20
202.2420432489984
  0
VERTEX
  8
0
  6
CONTINUOUS
 62
     7
 10
65.59641201955799
 20
202.2289869285678
  0
VERTEX
  8
0
  6
CONTINUOUS
 62
     7
 10
65.60273509994391
 20
202.2161992313508
  0
VERTEX
  8
0
  6
CONTINUOUS
 62
     7
 10
65.61397666566677
 20
202.1953730976757
  0
VERTEX
  8
0
  6
CONTINUOUS
 62
     7
 10
65.62279477289708
 20
202.1804866639424
  0
VERTEX
  8
0
  6
CONTINUOUS
 62
     7
 10
65.63201449079119
 20
202.1660820923681
  0
VERTEX
  8
0
  6
CONTINUOUS
 62
     7
 10
65.64167881212684
 20
202.1520985054133
  0
VERTEX
  8
0
  6
CONTINUOUS
 62
     7
 10
65.65171855536025
 20
202.1386404343671
  0
VERTEX
  8
0
  6
CONTINUOUS
 62
     7
 10
65.66009134646141
 20
202.1281657624537
  0
VERTEX
  8
0
  6
CONTINUOUS
 62
     7
 10
65.66868995954388
 20
202.1180542580098
  0
VERTEX
  8
0
  6
CONTINUOUS
 62
     7
 10
65.67753935453882
 20
202.1082784423716
  0
VERTEX
  8
0
  6
CONTINUOUS
 62
     7
 10
65.68659843265226
 20
202.0988849953074
  0
VERTEX
  8
0
  6
CONTINUOUS
 62
     7
 10
65.70224491654182
 20
202.0840036810845
  0
VERTEX
  8
0
  6
CONTINUOUS
 62
     7
 10
65.71513825171378
 20
202.0729127582117
  0
VERTEX
  8
0
  6
CONTINUOUS
 62
     7
 10
65.72840428903092
 20
202.0625153012151
  0
VERTEX
  8
0
  6
CONTINUOUS
 62
     7
 10
65.74198362128604
 20
202.0528635524793
  0
VERTEX
  8
0
  6
CONTINUOUS
 62
     7
 10
65.75596741522835
 20
202.0439059436426
  0
VERTEX
  8
0
  6
CONTINUOUS
 62
     7
 10
65.77022425526296
 20
202.0357398737364
  0
VERTEX
  8
0
  6
CONTINUOUS
 62
     7
 10
65.78484880473417
 20
202.0283245020788
  0
VERTEX
  8
0
  6
CONTINUOUS
 62
     7
 10
65.79970292419902
 20
202.0217433410454
  0
VERTEX
  8
0
  6
CONTINUOUS
 62
     7
 10
65.81480691530287
 20
202.0159939294079
  0
VERTEX
  8
0
  6
CONTINUOUS
 62
     7
 10
65.82560895176512
 20
202.0124463239156
  0
VERTEX
  8
0
  6
CONTINUOUS
 62
     7
 10
65.83647959289114
 20
202.0093393244499
  0
VERTEX
  8
0
  6
CONTINUOUS
 62
     7
 10
65.8474468633806
 20
202.0066668747145
  0
VERTEX
  8
0
  6
CONTINUOUS
 62
     7
 10
65.85846445148162
 20
202.0044419141861
  0
VERTEX
  8
0
  6
CONTINUOUS
 62
     7
 10
65.86957995347667
 20
202.0026581237689
  0
VERTEX
  8
0
  6
CONTINUOUS
 62
     7
 10
65.88072724587254
 20
202.0013291128199
  0
VERTEX
  8
0
  6
CONTINUOUS
 62
     7
 10
65.89193522633265
 20
202.0004537201479
  0
VERTEX
  8
0
  6
CONTINUOUS
 62
     7
 10
65.90315595439704
 20
202.0000376865937
  0
VERTEX
  8
0
  6
CONTINUOUS
 62
     7
 10
65.90770066959367
 20
202.0
  0
SEQEND
  8
0
  6
CONTINUOUS
 62
     7
  0
LINE
  8
0
  6
CONTINUOUS
 62
     7
 10
65.53722857416815
 20
202.5
 11
65.53722857416815
 21
217.5
  0
POLYLINE
  8
0
  6
CONTINUOUS
 62
     7
 66
     1
  0
VERTEX
  8
0
  6
CONTINUOUS
 62
     7
 10
65.53722857416815
 20
217.5
  0
VERTEX
  8
0
  6
CONTINUOUS
 62
     7
 10
65.53739866877103
 20
217.5151432949729
  0
VERTEX
  8
0
  6
CONTINUOUS
 62
     7
 10
65.53790942083991
 20
217.5302865899459
  0
VERTEX
  8
0
  6
CONTINUOUS
 62
     7
 10
65.53860076647433
 20
217.5429761313354
  0
VERTEX
  8
0
  6
CONTINUOUS
 62
     7
 10
65.53953112707345
 20
217.5556359470129
  0
VERTEX
  8
0
  6
CONTINUOUS
 62
     7
 10
65.54070339778039
 20
217.5682922810165
  0
VERTEX
  8
0
  6
CONTINUOUS
 62
     7
 10
65.5421142667426
 20
217.5809011890634
  0
VERTEX
  8
0
  6
CONTINUOUS
 62
     7
 10
65.54490723807251
 20
217.6012304508447
  0
VERTEX
  8
0
  6
CONTINUOUS
 62
     7
 10
65.54832568303932
 20
217.6214118438733
  0
VERTEX
  8
0
  6
CONTINUOUS
 62
     7
 10
65.55239342452198
 20
217.6415352142596
  0
VERTEX
  8
0
  6
CONTINUOUS
 62
     7
 10
65.55708519438868
 20
217.661433327045
  0
VERTEX
  8
0
  6
CONTINUOUS
 62
     7
 10
65.56219936374106
 20
217.6803909658167
  0
VERTEX
  8
0
  6
CONTINUOUS
 62
     7
 10
65.56788092359363
 20
217.6990694240031
  0
VERTEX
  8
0
  6
CONTINUOUS
 62
     7
 10
65.5733523930969
 20
217.7152750482227
  0
VERTEX
  8
0
  6
CONTINUOUS
 62
     7
 10
65.57924218243235
 20
217.7311928113634
  0
VERTEX
  8
0
  6
CONTINUOUS
 62
     7
 10
65.58557609007362
 20
217.7468844048595
  0
VERTEX
  8
0
  6
CONTINUOUS
 62
     7
 10
65.59231400834597
 20
217.7622449826299
  0
VERTEX
  8
0
  6
CONTINUOUS
 62
     7
 10
65.60273509994391
 20
217.7838007686492
  0
VERTEX
  8
0
  6
CONTINUOUS
 62
     7
 10
65.61397666566677
 20
217.8046269023243
  0
VERTEX
  8
0
  6
CONTINUOUS
 62
     7
 10
65.6233747331672
 20
217.8204529378908
  0
VERTEX
  8
0
  6
CONTINUOUS
 62
     7
 10
65.633243506698
 20
217.8357566232376
  0
VERTEX
  8
0
  6
CONTINUOUS
 62
     7
 10
65.64231726971781
 20
217.8487884729305
  0
VERTEX
  8
0
  6
CONTINUOUS
 62
     7
 10
65.65171855536025
 20
217.8613595656329
  0
VERTEX
  8
0
  6
CONTINUOUS
 62
     7
 10
65.66148501876565
 20
217.8735160814591
  0
VERTEX
  8
0
  6
CONTINUOUS
 62
     7
 10
65.67155540495592
 20
217.8851788359716
  0
VERTEX
  8
0
  6
CONTINUOUS
 62
     7
 10
65.68659843265226
 20
217.9011150046926
  0
VERTEX
  8
0
  6
CONTINUOUS
 62
     7
 10
65.70224491654182
 20
217.9159963189154
  0
VERTEX
  8
0
  6
CONTINUOUS
 62
     7
 10
65.71513825171378
 20
217.9270872417883
  0
VERTEX
  8
0
  6
CONTINUOUS
 62
     7
 10
65.72836454704742
 20
217.9374550129027
  0
VERTEX
  8
0
  6
CONTINUOUS
 62
     7
 10
65.74198362128604
 20
217.9471364475206
  0
VERTEX
  8
0
  6
CONTINUOUS
 62
     7
 10
65.75589566637753
 20
217.9560505376817
  0
VERTEX
  8
0
  6
CONTINUOUS
 62
     7
 10
65.77022425526296
 20
217.9642601262635
  0
VERTEX
  8
0
  6
CONTINUOUS
 62
     7
 10
65.78480515480113
 20
217.9716547676034
  0
VERTEX
  8
0
  6
CONTINUOUS
 62
     7
 10
65.79970292419902
 20
217.9782566589546
  0
VERTEX
  8
0
  6
CONTINUOUS
 62
     7
 10
65.81480691530287
 20
217.984006070592
  0
VERTEX
  8
0
  6
CONTINUOUS
 62
     7
 10
65.82559504426547
 20
217.9875494513299
  0
VERTEX
  8
0
  6
CONTINUOUS
 62
     7
 10
65.83646084578871
 20
217.990655712225
  0
VERTEX
  8
0
  6
CONTINUOUS
 62
     7
 10
65.84743744266663
 20
217.9933310264418
  0
VERTEX
  8
0
  6
CONTINUOUS
 62
     7
 10
65.85846445148162
 20
217.9955580858139
  0
VERTEX
  8
0
  6
CONTINUOUS
 62
     7
 10
65.8695703646654
 20
217.9973405355469
  0
VERTEX
  8
0
  6
CONTINUOUS
 62
     7
 10
65.88070802173007
 20
217.9986689895587
  0
VERTEX
  8
0
  6
CONTINUOUS
 62
     7
 10
65.89192076446854
 20
217.9995454927751
  0
VERTEX
  8
0
  6
CONTINUOUS
 62
     7
 10
65.90315595439704
 20
217.9999623134063
  0
VERTEX
  8
0
  6
CONTINUOUS
 62
     7
 10
65.90770066959367
 20
218.0
  0
SEQEND
  8
0
  6
CONTINUOUS
 62
     7
  0
ARC
  8
0
  6
CONTINUOUS
 62
     7
 10
70.12509679297993
 20
200.330759993103
 40
2.392175777872039
 50
339.9130965896562
 51
1.292954728911354
  0
POLYLINE
  8
0
  6
CONTINUOUS
 62
     7
 66
     1
  0
VERTEX
  8
0
  6
CONTINUOUS
 62
     7
 10
72.37176317048574
 20
199.5091791142952
  0
VERTEX
  8
0
  6
CONTINUOUS
 62
     7
 10
72.30965461259292
 20
199.4161032922858
  0
VERTEX
  8
0
  6
CONTINUOUS
 62
     7
 10
72.25403330758515
 20
199.385347181689
  0
SEQEND
  8
0
  6
CONTINUOUS
 62
     7
  0
ARC
  8
0
  6
CONTINUOUS
 62
     7
 10
90.204153881956
 20
200.364587931631
 40
2.720891998067326
 50
179.5756814575765
 51
196.8517864942236
  0
POLYLINE
  8
0
  6
CONTINUOUS
 62
     7
 66
     1
  0
VERTEX
  8
0
  6
CONTINUOUS
 62
     7
 10
87.60010279093463
 20
199.5758096481462
  0
VERTEX
  8
0
  6
CONTINUOUS
 62
     7
 10
87.6480445108814
 20
199.4720931673529
  0
VERTEX
  8
0
  6
CONTINUOUS
 62
     7
 10
87.71678066612186
 20
199.3956568981264
  0
VERTEX
  8
0
  6
CONTINUOUS
 62
     7
 10
87.74596669241478
 20
199.385347181689
  0
SEQEND
  8
0
  6
CONTINUOUS
 62
     7
  0
POLYLINE
  8
0
  6
CONTINUOUS
 62
     7
 66
     1
  0
VERTEX
  8
0
  6
CONTINUOUS
 62
     7
 10
72.75
 20
217.5
  0
VERTEX
  8
0
  6
CONTINUOUS
 62
     7
 10
72.75035930489709
 20
217.5189037025007
  0
VERTEX
  8
0
  6
CONTINUOUS
 62
     7
 10
72.75143335967027
 20
217.5377896385491
  0
VERTEX
  8
0
  6
CONTINUOUS
 62
     7
 10
72.7532163744424
 20
217.556605672576
  0
VERTEX
  8
0
  6
CONTINUOUS
 62
     7
 10
72.75570255933634
 20
217.5752996690123
  0
VERTEX
  8
0
  6
CONTINUOUS
 62
     7
 10
72.75899865760024
 20
217.5944235343161
  0
VERTEX
  8
0
  6
CONTINUOUS
 62
     7
 10
72.76302866230367
 20
217.6133824156226
  0
VERTEX
  8
0
  6
CONTINUOUS
 62
     7
 10
72.76777479977328
 20
217.6321248408771
  0
VERTEX
  8
0
  6
CONTINUOUS
 62
     7
 10
72.7732192963358
 20
217.6505993380246
  0
VERTEX
  8
0
  6
CONTINUOUS
 62
     7
 10
72.77915688792764
 20
217.6682419836817
  0
VERTEX
  8
0
  6
CONTINUOUS
 62
     7
 10
72.78572905254663
 20
217.6856070961285
  0
VERTEX
  8
0
  6
CONTINUOUS
 62
     7
 10
72.79291239945941
 20
217.7026561627941
  0
VERTEX
  8
0
  6
CONTINUOUS
 62
     7
 10
72.80068353793266
 20
217.7193506711075
  0
VERTEX
  8
0
  6
CONTINUOUS
 62
     7
 10
72.8092592558994
 20
217.7361066582349
  0
VERTEX
  8
0
  6
CONTINUOUS
 62
     7
 10
72.81842624717065
 20
217.7524715397234
  0
VERTEX
  8
0
  6
CONTINUOUS
 62
     7
 10
72.82815536927154
 20
217.7684135916724
  0
VERTEX
  8
0
  6
CONTINUOUS
 62
     7
 10
72.83841747972731
 20
217.783901090181
  0
VERTEX
  8
0
  6
CONTINUOUS
 62
     7
 10
72.85344767691993
 20
217.8045285474869
  0
VERTEX
  8
0
  6
CONTINUOUS
 62
     7
 10
72.86945134182265
 20
217.824284516711
  0
VERTEX
  8
0
  6
CONTINUOUS
 62
     7
 10
72.8863503480442
 20
217.8431188147062
  0
VERTEX
  8
0
  6
CONTINUOUS
 62
     7
 10
72.90406656919329
 20
217.8609812583252
  0
VERTEX
  8
0
  6
CONTINUOUS
 62
     7
 10
72.92252187887864
 20
217.8778216644209
  0
VERTEX
  8
0
  6
CONTINUOUS
 62
     7
 10
72.94163815070895
 20
217.893589849846
  0
VERTEX
  8
0
  6
CONTINUOUS
 62
     7
 10
72.96379631157086
 20
217.9099738915519
  0
VERTEX
  8
0
  6
CONTINUOUS
 62
     7
 10
72.9867564466681
 20
217.9250646057318
  0
VERTEX
  8
0
  6
CONTINUOUS
 62
     7
 10
73.01042075304272
 20
217.9388308682792
  0
VERTEX
  8
0
  6
CONTINUOUS
 62
     7
 10
73.0346914277368
 20
217.9512415550878
  0
VERTEX
  8
0
  6
CONTINUOUS
 62
     7
 10
73.05947066779244
 20
217.9622655420509
  0
VERTEX
  8
0
  6
CONTINUOUS
 62
     7
 10
73.08466067025172
 20
217.9718717050623
  0
VERTEX
  8
0
  6
CONTINUOUS
 62
     7
 10
73.1114479146603
 20
217.9804105318775
  0
VERTEX
  8
0
  6
CONTINUOUS
 62
     7
 10
73.13868186397958
 20
217.98742694522
  0
VERTEX
  8
0
  6
CONTINUOUS
 62
     7
 10
73.16625828269142
 20
217.9929075218966
  0
VERTEX
  8
0
  6
CONTINUOUS
 62
     7
 10
73.19407293527756
 20
217.9968388387142
  0
VERTEX
  8
0
  6
CONTINUOUS
 62
     7
 10
73.22202158621982
 20
217.9992074724797
  0
VERTEX
  8
0
  6
CONTINUOUS
 62
     7
 10
73.25
 20
218.0
  0
SEQEND
  8
0
  6
CONTINUOUS
 62
     7
  0
LINE
  8
0
  6
CONTINUOUS
 62
     7
 10
72.75
 20
217.5
 11
72.75
 21
202.5
  0
POLYLINE
  8
0
  6
CONTINUOUS
 62
     7
 66
     1
  0
VERTEX
  8
0
  6
CONTINUOUS
 62
     7
 10
73.25
 20
202.0
  0
VERTEX
  8
0
  6
CONTINUOUS
 62
     7
 10
73.22698179017222
 20
202.0005316065293
  0
VERTEX
  8
0
  6
CONTINUOUS
 62
     7
 10
73.20400299611802
 20
202.0021228741025
  0
VERTEX
  8
0
  6
CONTINUOUS
 62
     7
 10
73.1811214805615
 20
202.0047684746972
  0
VERTEX
  8
0
  6
CONTINUOUS
 62
     7
 10
73.15839510622675
 20
202.0084630802911
  0
VERTEX
  8
0
  6
CONTINUOUS
 62
     7
 10
73.13520160399476
 20
202.0133588350507
  0
VERTEX
  8
0
  6
CONTINUOUS
 62
     7
 10
73.11221348555806
 20
202.0193630734237
  0
VERTEX
  8
0
  6
CONTINUOUS
 62
     7
 10
73.08949415015857
 20
202.0264641722213
  0
VERTEX
  8
0
  6
CONTINUOUS
 62
     7
 10
73.06710699703815
 20
202.0346505082547
  0
VERTEX
  8
0
  6
CONTINUOUS
 62
     7
 10
73.04567499332937
 20
202.0436563006299
  0
VERTEX
  8
0
  6
CONTINUOUS
 62
     7
 10
73.02459991122939
 20
202.0536909580574
  0
VERTEX
  8
0
  6
CONTINUOUS
 62
     7
 10
73.00394310011151
 20
202.0647365110534
  0
VERTEX
  8
0
  6
CONTINUOUS
 62
     7
 10
72.983765909349
 20
202.0767749901337
  0
VERTEX
  8
0
  6
CONTINUOUS
 62
     7
 10
72.96346172849992
 20
202.0902520502023
  0
VERTEX
  8
0
  6
CONTINUOUS
 62
     7
 10
72.94372290426043
 20
202.1047911438897
  0
VERTEX
  8
0
  6
CONTINUOUS
 62
     7
 10
72.92462230955172
 20
202.1203594330242
  0
VERTEX
  8
0
  6
CONTINUOUS
 62
     7
 10
72.90623281729495
 20
202.1369240794337
  0
VERTEX
  8
0
  6
CONTINUOUS
 62
     7
 10
72.8901389993122
 20
202.1528720288588
  0
VERTEX
  8
0
  6
CONTINUOUS
 62
     7
 10
72.87468676606848
 20
202.169642570078
  0
VERTEX
  8
0
  6
CONTINUOUS
 62
     7
 10
72.85993438366204
 20
202.1871955702976
  0
VERTEX
  8
0
  6
CONTINUOUS
 62
     7
 10
72.84594011819107
 20
202.2054908967238
  0
VERTEX
  8
0
  6
CONTINUOUS
 62
     7
 10
72.83225212679451
 20
202.225257964332
  0
VERTEX
  8
0
  6
CONTINUOUS
 62
     7
 10
72.81944232612442
 20
202.2458074703328
  0
VERTEX
  8
0
  6
CONTINUOUS
 62
     7
 10
72.8075743846882
 20
202.2670706559239
  0
VERTEX
  8
0
  6
CONTINUOUS
 62
     7
 10
72.7967119709933
 20
202.2889787623029
  0
VERTEX
  8
0
  6
CONTINUOUS
 62
     7
 10
72.78835315442086
 20
202.3079586847257
  0
VERTEX
  8
0
  6
CONTINUOUS
 62
     7
 10
72.78075061263169
 20
202.3273706572409
  0
VERTEX
  8
0
  6
CONTINUOUS
 62
     7
 10
72.77393603107726
 20
202.3471576464639
  0
VERTEX
  8
0
  6
CONTINUOUS
 62
     7
 10
72.76794109520898
 20
202.3672626190102
  0
VERTEX
  8
0
  6
CONTINUOUS
 62
     7
 10
72.76261048490113
 20
202.3884281612355
  0
VERTEX
  8
0
  6
CONTINUOUS
 62
     7
 10
72.75819202197614
 20
202.4098931010753
  0
VERTEX
  8
0
  6
CONTINUOUS
 62
     7
 10
72.75470663212506
 20
202.4315799636965
  0
VERTEX
  8
0
  6
CONTINUOUS
 62
     7
 10
72.75217524103904
 20
202.4534112742666
  0
VERTEX
  8
0
  6
CONTINUOUS
 62
     7
 10
72.75096811168704
 20
202.4689066028724
  0
VERTEX
  8
0
  6
CONTINUOUS
 62
     7
 10
72.75024236239474
 20
202.484445945058
  0
VERTEX
  8
0
  6
CONTINUOUS
 62
     7
 10
72.75
 20
202.5
  0
SEQEND
  8
0
  6
CONTINUOUS
 62
     7
  0
POLYLINE
  8
0
  6
CONTINUOUS
 62
     7
 66
     1
  0
VERTEX
  8
0
  6
CONTINUOUS
 62
     7
 10
87.25
 20
202.5
  0
VERTEX
  8
0
  6
CONTINUOUS
 62
     7
 10
87.24964069510291
 20
202.4810962974992
  0
VERTEX
  8
0
  6
CONTINUOUS
 62
     7
 10
87.24856664032973
 20
202.4622103614509
  0
VERTEX
  8
0
  6
CONTINUOUS
 62
     7
 10
87.2467836255576
 20
202.443394327424
  0
VERTEX
  8
0
  6
CONTINUOUS
 62
     7
 10
87.24429744066366
 20
202.4247003309877
  0
VERTEX
  8
0
  6
CONTINUOUS
 62
     7
 10
87.24100134239976
 20
202.4055764656839
  0
VERTEX
  8
0
  6
CONTINUOUS
 62
     7
 10
87.23697133769633
 20
202.3866175843774
  0
VERTEX
  8
0
  6
CONTINUOUS
 62
     7
 10
87.23222520022672
 20
202.3678751591229
  0
VERTEX
  8
0
  6
CONTINUOUS
 62
     7
 10
87.2267807036642
 20
202.3494006619753
  0
VERTEX
  8
0
  6
CONTINUOUS
 62
     7
 10
87.22084311207237
 20
202.3317580163183
  0
VERTEX
  8
0
  6
CONTINUOUS
 62
     7
 10
87.21427094745337
 20
202.3143929038715
  0
VERTEX
  8
0
  6
CONTINUOUS
 62
     7
 10
87.20708760054059
 20
202.2973438372059
  0
VERTEX
  8
0
  6
CONTINUOUS
 62
     7
 10
87.19931646206734
 20
202.2806493288925
  0
VERTEX
  8
0
  6
CONTINUOUS
 62
     7
 10
87.1907407441006
 20
202.2638933417651
  0
VERTEX
  8
0
  6
CONTINUOUS
 62
     7
 10
87.18157375282937
 20
202.2475284602766
  0
VERTEX
  8
0
  6
CONTINUOUS
 62
     7
 10
87.17184463072846
 20
202.2315864083276
  0
VERTEX
  8
0
  6
CONTINUOUS
 62
     7
 10
87.16158252027269
 20
202.216098909819
  0
VERTEX
  8
0
  6
CONTINUOUS
 62
     7
 10
87.14655232308007
 20
202.1954714525131
  0
VERTEX
  8
0
  6
CONTINUOUS
 62
     7
 10
87.13054865817735
 20
202.175715483289
  0
VERTEX
  8
0
  6
CONTINUOUS
 62
     7
 10
87.11364965195581
 20
202.1568811852938
  0
VERTEX
  8
0
  6
CONTINUOUS
 62
     7
 10
87.09593343080671
 20
202.1390187416748
  0
VERTEX
  8
0
  6
CONTINUOUS
 62
     7
 10
87.07747812112136
 20
202.1221783355791
  0
VERTEX
  8
0
  6
CONTINUOUS
 62
     7
 10
87.05836184929105
 20
202.106410150154
  0
VERTEX
  8
0
  6
CONTINUOUS
 62
     7
 10
87.03620368842914
 20
202.0900261084481
  0
VERTEX
  8
0
  6
CONTINUOUS
 62
     7
 10
87.0132435533319
 20
202.0749353942682
  0
VERTEX
  8
0
  6
CONTINUOUS
 62
     7
 10
86.98957924695728
 20
202.0611691317208
  0
VERTEX
  8
0
  6
CONTINUOUS
 62
     7
 10
86.9653085722632
 20
202.0487584449122
  0
VERTEX
  8
0
  6
CONTINUOUS
 62
     7
 10
86.94052933220756
 20
202.037734457949
  0
VERTEX
  8
0
  6
CONTINUOUS
 62
     7
 10
86.91533932974829
 20
202.0281282949377
  0
VERTEX
  8
0
  6
CONTINUOUS
 62
     7
 10
86.8885520853397
 20
202.0195894681225
  0
VERTEX
  8
0
  6
CONTINUOUS
 62
     7
 10
86.8613181360204
 20
202.01257305478
  0
VERTEX
  8
0
  6
CONTINUOUS
 62
     7
 10
86.83374171730858
 20
202.0070924781034
  0
VERTEX
  8
0
  6
CONTINUOUS
 62
     7
 10
86.80592706472243
 20
202.0031611612858
  0
VERTEX
  8
0
  6
CONTINUOUS
 62
     7
 10
86.77797841378018
 20
202.0007925275203
  0
VERTEX
  8
0
  6
CONTINUOUS
 62
     7
 10
86.75
 20
202.0
  0
SEQEND
  8
0
  6
CONTINUOUS
 62
     7
  0
LINE
  8
0
  6
CONTINUOUS
 62
     7
 10
87.25
 20
217.5
 11
87.25
 21
202.5
  0
POLYLINE
  8
0
  6
CONTINUOUS
 62
     7
 66
     1
  0
VERTEX
  8
0
  6
CONTINUOUS
 62
     7
 10
86.75
 20
218.0
  0
VERTEX
  8
0
  6
CONTINUOUS
 62
     7
 10
86.77301820982778
 20
217.9994683934706
  0
VERTEX
  8
0
  6
CONTINUOUS
 62
     7
 10
86.79599700388198
 20
217.9978771258975
  0
VERTEX
  8
0
  6
CONTINUOUS
 62
     7
 10
86.81887851943848
 20
217.9952315253028
  0
VERTEX
  8
0
  6
CONTINUOUS
 62
     7
 10
86.84160489377324
 20
217.9915369197089
  0
VERTEX
  8
0
  6
CONTINUOUS
 62
     7
 10
86.86479839600524
 20
217.9866411649492
  0
VERTEX
  8
0
  6
CONTINUOUS
 62
     7
 10
86.88778651444194
 20
217.9806369265763
  0
VERTEX
  8
0
  6
CONTINUOUS
 62
     7
 10
86.91050584984143
 20
217.9735358277787
  0
VERTEX
  8
0
  6
CONTINUOUS
 62
     7
 10
86.93289300296185
 20
217.9653494917453
  0
VERTEX
  8
0
  6
CONTINUOUS
 62
     7
 10
86.95432500667063
 20
217.9563436993701
  0
VERTEX
  8
0
  6
CONTINUOUS
 62
     7
 10
86.97540008877061
 20
217.9463090419425
  0
VERTEX
  8
0
  6
CONTINUOUS
 62
     7
 10
86.99605689988849
 20
217.9352634889466
  0
VERTEX
  8
0
  6
CONTINUOUS
 62
     7
 10
87.016234090651
 20
217.9232250098663
  0
VERTEX
  8
0
  6
CONTINUOUS
 62
     7
 10
87.03653827150009
 20
217.9097479497977
  0
VERTEX
  8
0
  6
CONTINUOUS
 62
     7
 10
87.05627709573957
 20
217.8952088561102
  0
VERTEX
  8
0
  6
CONTINUOUS
 62
     7
 10
87.07537769044828
 20
217.8796405669758
  0
VERTEX
  8
0
  6
CONTINUOUS
 62
     7
 10
87.09376718270507
 20
217.8630759205662
  0
VERTEX
  8
0
  6
CONTINUOUS
 62
     7
 10
87.10986100068781
 20
217.8471279711411
  0
VERTEX
  8
0
  6
CONTINUOUS
 62
     7
 10
87.12531323393152
 20
217.8303574299219
  0
VERTEX
  8
0
  6
CONTINUOUS
 62
     7
 10
87.14006561633796
 20
217.8128044297023
  0
VERTEX
  8
0
  6
CONTINUOUS
 62
     7
 10
87.15405988180895
 20
217.7945091032762
  0
VERTEX
  8
0
  6
CONTINUOUS
 62
     7
 10
87.1677478732055
 20
217.774742035668
  0
VERTEX
  8
0
  6
CONTINUOUS
 62
     7
 10
87.18055767387558
 20
217.7541925296672
  0
VERTEX
  8
0
  6
CONTINUOUS
 62
     7
 10
87.1924256153118
 20
217.7329293440761
  0
VERTEX
  8
0
  6
CONTINUOUS
 62
     7
 10
87.20328802900671
 20
217.7110212376971
  0
VERTEX
  8
0
  6
CONTINUOUS
 62
     7
 10
87.21164684557915
 20
217.6920413152743
  0
VERTEX
  8
0
  6
CONTINUOUS
 62
     7
 10
87.21924938736831
 20
217.6726293427591
  0
VERTEX
  8
0
  6
CONTINUOUS
 62
     7
 10
87.22606396892274
 20
217.652842353536
  0
VERTEX
  8
0
  6
CONTINUOUS
 62
     7
 10
87.23205890479103
 20
217.6327373809898
  0
VERTEX
  8
0
  6
CONTINUOUS
 62
     7
 10
87.23738951509887
 20
217.6115718387644
  0
VERTEX
  8
0
  6
CONTINUOUS
 62
     7
 10
87.24180797802386
 20
217.5901068989247
  0
VERTEX
  8
0
  6
CONTINUOUS
 62
     7
 10
87.24529336787494
 20
217.5684200363034
  0
VERTEX
  8
0
  6
CONTINUOUS
 62
     7
 10
87.24782475896096
 20
217.5465887257334
  0
VERTEX
  8
0
  6
CONTINUOUS
 62
     7
 10
87.24903188831296
 20
217.5310933971276
  0
VERTEX
  8
0
  6
CONTINUOUS
 62
     7
 10
87.24975763760526
 20
217.5155540549419
  0
VERTEX
  8
0
  6
CONTINUOUS
 62
     7
 10
87.25
 20
217.5
  0
SEQEND
  8
0
  6
CONTINUOUS
 62
     7
  0
LINE
  8
0
  6
CONTINUOUS
 62
     7
 10
73.25
 20
218.0
 11
86.75
 21
218.0
  0
LINE
  8
0
  6
CONTINUOUS
 62
     7
 10
73.25
 20
202.0
 11
86.75
 21
202.0
  0
POLYLINE
  8
0
  6
CONTINUOUS
 62
     7
 66
     1
  0
VERTEX
  8
0
  6
CONTINUOUS
 62
     7
 10
72.25403330758515
 20
220.614652818311
  0
VERTEX
  8
0
  6
CONTINUOUS
 62
     7
 10
72.34073889447032
 20
220.5457007376363
  0
VERTEX
  8
0
  6
CONTINUOUS
 62
     7
 10
72.39074689104412
 20
220.4478240108007
  0
SEQEND
  8
0
  6
CONTINUOUS
 62
     7
  0
ARC
  8
0
  6
CONTINUOUS
 62
     7
 10
69.87265643478044
 20
219.6411853982632
 40
2.644134148859063
 50
359.4382563356527
 51
17.76220712144783
  0
POLYLINE
  8
0
  6
CONTINUOUS
 62
     7
 66
     1
  0
VERTEX
  8
0
  6
CONTINUOUS
 62
     7
 10
87.74596669241478
 20
220.614652818311
  0
VERTEX
  8
0
  6
CONTINUOUS
 62
     7
 10
87.65930456992129
 20
220.5457650500913
  0
VERTEX
  8
0
  6
CONTINUOUS
 62
     7
 10
87.60925310895581
 20
220.4478240108007
  0
SEQEND
  8
0
  6
CONTINUOUS
 62
     7
  0
ARC
  8
0
  6
CONTINUOUS
 62
     7
 10
90.0907016608751
 20
219.6467271168668
 40
2.60755501366564
 50
162.1081368822202
 51
180.6913996606773
  0
POLYLINE
  8
0
  6
CONTINUOUS
 62
     7
 66
     1
  0
VERTEX
  8
0
  6
CONTINUOUS
 62
     7
 10
98.00121834596175
 20
199.0
  0
VERTEX
  8
0
  6
CONTINUOUS
 62
     7
 10
98.39129094117439
 20
199.0383934463856
  0
VERTEX
  8
0
  6
CONTINUOUS
 62
     7
 10
98.76630290372592
 20
199.1521006267726
  0
VERTEX
  8
0
  6
CONTINUOUS
 62
     7
 10
99.1118650028118
 20
199.336758590039
  0
VERTEX
  8
0
  6
CONTINUOUS
 62
     7
 10
99.41471800060069
 20
199.5852819993993
  0
VERTEX
  8
0
  6
CONTINUOUS
 62
     7
 10
99.66324140996095
 20
199.8881349971882
  0
VERTEX
  8
0
  6
CONTINUOUS
 62
     7
 10
99.84789937322739
 20
200.233697096274
  0
VERTEX
  8
0
  6
CONTINUOUS
 62
     7
 10
99.96160655361436
 20
200.6087090588256
  0
VERTEX
  8
0
  6
CONTINUOUS
 62
     7
 10
99.99999999999997
 20
200.9987816540382
  0
SEQEND
  8
0
  6
CONTINUOUS
 62
     7
  0
POLYLINE
  8
0
  6
CONTINUOUS
 62
     7
 66
     1
  0
VERTEX
  8
0
  6
CONTINUOUS
 62
     7
 10
59.99999999999999
 20
200.9987816540382
  0
VERTEX
  8
0
  6
CONTINUOUS
 62
     7
 10
60.03839344638558
 20
200.6087090588256
  0
VERTEX
  8
0
  6
CONTINUOUS
 62
     7
 10
60.15210062677254
 20
200.233697096274
  0
VERTEX
  8
0
  6
CONTINUOUS
 62
     7
 10
60.336758590039
 20
199.8881349971882
  0
VERTEX
  8
0
  6
CONTINUOUS
 62
     7
 10
60.58528199939924
 20
199.5852819993993
  0
VERTEX
  8
0
  6
CONTINUOUS
 62
     7
 10
60.88813499718813
 20
199.336758590039
  0
VERTEX
  8
0
  6
CONTINUOUS
 62
     7
 10
61.233697096274
 20
199.1521006267726
  0
VERTEX
  8
0
  6
CONTINUOUS
 62
     7
 10
61.60870905882554
 20
199.0383934463856
  0
VERTEX
  8
0
  6
CONTINUOUS
 62
     7
 10
61.99878165403817
 20
199.0
  0
SEQEND
  8
0
  6
CONTINUOUS
 62
     7
  0
POLYLINE
  8
0
  6
CONTINUOUS
 62
     7
 66
     1
  0
VERTEX
  8
0
  6
CONTINUOUS
 62
     7
 10
61.99878165403817
 20
221.0
  0
VERTEX
  8
0
  6
CONTINUOUS
 62
     7
 10
61.60870905882554
 20
220.9616065536144
  0
VERTEX
  8
0
  6
CONTINUOUS
 62
     7
 10
61.233697096274
 20
220.8478993732274
  0
VERTEX
  8
0
  6
CONTINUOUS
 62
     7
 10
60.88813499718813
 20
220.663241409961
  0
VERTEX
  8
0
  6
CONTINUOUS
 62
     7
 10
60.58528199939924
 20
220.4147180006007
  0
VERTEX
  8
0
  6
CONTINUOUS
 62
     7
 10
60.336758590039
 20
220.1118650028118
  0
VERTEX
  8
0
  6
CONTINUOUS
 62
     7
 10
60.15210062677254
 20
219.766302903726
  0
VERTEX
  8
0
  6
CONTINUOUS
 62
     7
 10
60.03839344638558
 20
219.3912909411744
  0
VERTEX
  8
0
  6
CONTINUOUS
 62
     7
 10
59.99999999999999
 20
219.0012183459618
  0
SEQEND
  8
0
  6
CONTINUOUS
 62
     7
  0
POLYLINE
  8
0
  6
CONTINUOUS
 62
     7
 66
     1
  0
VERTEX
  8
0
  6
CONTINUOUS
 62
     7
 10
99.99999999999997
 20
219.0012183459618
  0
VERTEX
  8
0
  6
CONTINUOUS
 62
     7
 10
99.96160655361437
 20
219.3912909411744
  0
VERTEX
  8
0
  6
CONTINUOUS
 62
     7
 10
99.8478993732274
 20
219.766302903726
  0
VERTEX
  8
0
  6
CONTINUOUS
 62
     7
 10
99.66324140996096
 20
220.1118650028118
  0
VERTEX
  8
0
  6
CONTINUOUS
 62
     7
 10
99.4147180006007
 20
220.4147180006007
  0
VERTEX
  8
0
  6
CONTINUOUS
 62
     7
 10
99.11186500281183
 20
220.663241409961
  0
VERTEX
  8
0
  6
CONTINUOUS
 62
     7
 10
98.76630290372593
 20
220.8478993732274
  0
VERTEX
  8
0
  6
CONTINUOUS
 62
     7
 10
98.39129094117439
 20
220.9616065536144
  0
VERTEX
  8
0
  6
CONTINUOUS
 62
     7
 10
98.00121834596176
 20
221.0
  0
SEQEND
  8
0
  6
CONTINUOUS
 62
     7
  0
LINE
  8
0
  6
CONTINUOUS
 62
     7
 10
98.00121834596176
 20
199.0
 11
89.94987437106616
 21
199.0
  0
POLYLINE
  8
0
  6
CONTINUOUS
 62
     7
 66
     1
  0
VERTEX
  8
0
  6
CONTINUOUS
 62
     7
 10
89.94987437106616
 20
199.0
  0
VERTEX
  8
0
  6
CONTINUOUS
 62
     7
 10
79.99999999999997
 20
199.0349207694917
  0
VERTEX
  8
0
  6
CONTINUOUS
 62
     7
 10
70.05012562893378
 20
199.0
  0
SEQEND
  8
0
  6
CONTINUOUS
 62
     7
  0
LINE
  8
0
  6
CONTINUOUS
 62
     7
 10
70.05012562893377
 20
199.0
 11
61.99878165403818
 21
199.0
  0
LINE
  8
0
  6
CONTINUOUS
 62
     7
 10
59.99999999999999
 20
200.9987816540382
 11
59.99999999999999
 21
219.0012183459618
  0
LINE
  8
0
  6
CONTINUOUS
 62
     7
 10
70.05012562893377
 20
221.0
 11
61.99878165403818
 21
221.0
  0
POLYLINE
  8
0
  6
CONTINUOUS
 62
     7
 66
     1
  0
VERTEX
  8
0
  6
CONTINUOUS
 62
     7
 10
70.05012562893371
 20
221.0
  0
VERTEX
  8
0
  6
CONTINUOUS
 62
     7
 10
79.9999999999999
 20
220.9650792305083
  0
VERTEX
  8
0
  6
CONTINUOUS
 62
     7
 10
89.94987437106609
 20
221.0
  0
SEQEND
  8
0
  6
CONTINUOUS
 62
     7
  0
LINE
  8
0
  6
CONTINUOUS
 62
     7
 10
98.00121834596176
 20
221.0
 11
89.94987437106616
 21
221.0
  0
LINE
  8
0
  6
CONTINUOUS
 62
     7
 10
99.99999999999994
 20
200.9987816540382
 11
99.99999999999994
 21
219.0012183459618
  0
POLYLINE
  8
0
  6
CONTINUOUS
 62
     7
 66
     1
  0
VERTEX
  8
0
  6
CONTINUOUS
 62
     7
 10
66.75
 20
217.517946721658
  0
VERTEX
  8
0
  6
CONTINUOUS
 62
     7
 10
66.75022598799067
 20
217.5326659992155
  0
VERTEX
  8
0
  6
CONTINUOUS
 62
     7
 10
66.75090319937503
 20
217.5473648174314
  0
VERTEX
  8
0
  6
CONTINUOUS
 62
     7
 10
66.75203597713187
 20
217.5620858753227
  0
VERTEX
  8
0
  6
CONTINUOUS
 62
     7
 10
66.75362063641205
 20
217.5767573235113
  0
VERTEX
  8
0
  6
CONTINUOUS
 62
     7
 10
66.75647444248048
 20
217.5964682588316
  0
VERTEX
  8
0
  6
CONTINUOUS
 62
     7
 10
66.76014898578053
 20
217.6160618971206
  0
VERTEX
  8
0
  6
CONTINUOUS
 62
     7
 10
66.76348138156789
 20
217.6308251717558
  0
VERTEX
  8
0
  6
CONTINUOUS
 62
     7
 10
66.76727555632557
 20
217.6454652862382
  0
VERTEX
  8
0
  6
CONTINUOUS
 62
     7
 10
66.77154518698805
 20
217.6600265352985
  0
VERTEX
  8
0
  6
CONTINUOUS
 62
     7
 10
66.77626987338483
 20
217.6744339032169
  0
VERTEX
  8
0
  6
CONTINUOUS
 62
     7
 10
66.78304405902202
 20
217.6928109508699
  0
VERTEX
  8
0
  6
CONTINUOUS
 62
     7
 10
66.7905544848038
 20
217.7108760430621
  0
VERTEX
  8
0
  6
CONTINUOUS
 62
     7
 10
66.79884477873765
 20
217.7287188452815
  0
VERTEX
  8
0
  6
CONTINUOUS
 62
     7
 10
66.80784842045418
 20
217.7461860839269
  0
VERTEX
  8
0
  6
CONTINUOUS
 62
     7
 10
66.81768703576881
 20
217.763482941931
  0
VERTEX
  8
0
  6
CONTINUOUS
 62
     7
 10
66.82821976064143
 20
217.7803364621517
  0
VERTEX
  8
0
  6
CONTINUOUS
 62
     7
 10
66.83950543137846
 20
217.7968305175567
  0
VERTEX
  8
0
  6
CONTINUOUS
 62
     7
 10
66.85145032900289
 20
217.8128212858035
  0
VERTEX
  8
0
  6
CONTINUOUS
 62
     7
 10
66.8607302165609
 20
217.8243513398736
  0
VERTEX
  8
0
  6
CONTINUOUS
 62
     7
 10
66.8703503620545
 20
217.8355803376432
  0
VERTEX
  8
0
  6
CONTINUOUS
 62
     7
 10
66.88033825724133
 20
217.8465387333183
  0
VERTEX
  8
0
  6
CONTINUOUS
 62
     7
 10
66.89064803560711
 20
217.8571752685959
  0
VERTEX
  8
0
  6
CONTINUOUS
 62
     7
 10
66.90505295869986
 20
217.8710040155244
  0
VERTEX
  8
0
  6
CONTINUOUS
 62
     7
 10
66.92002282027381
 20
217.8842318217673
  0
VERTEX
  8
0
  6
CONTINUOUS
 62
     7
 10
66.93569219710642
 20
217.8969608497898
  0
VERTEX
  8
0
  6
CONTINUOUS
 62
     7
 10
66.95188595196527
 20
217.9090325349321
  0
VERTEX
  8
0
  6
CONTINUOUS
 62
     7
 10
66.96860523856718
 20
217.9204449291427
  0
VERTEX
  8
0
  6
CONTINUOUS
 62
     7
 10
66.9857530504776
 20
217.9311326822478
  0
VERTEX
  8
0
  6
CONTINUOUS
 62
     7
 10
67.00337002212173
 20
217.9411218871011
  0
VERTEX
  8
0
  6
CONTINUOUS
 62
     7
 10
67.02139914801622
 20
217.9503773076648
  0
VERTEX
  8
0
  6
CONTINUOUS
 62
     7
 10
67.03999934058388
 20
217.9589653900943
  0
VERTEX
  8
0
  6
CONTINUOUS
 62
     7
 10
67.05895918910048
 20
217.9667734107972
  0
VERTEX
  8
0
  6
CONTINUOUS
 62
     7
 10
67.07844411647696
 20
217.973854166945
  0
VERTEX
  8
0
  6
CONTINUOUS
 62
     7
 10
67.09823159144219
 20
217.9801113716003
  0
VERTEX
  8
0
  6
CONTINUOUS
 62
     7
 10
67.11832259890966
 20
217.9855412568704
  0
VERTEX
  8
0
  6
CONTINUOUS
 62
     7
 10
67.13207018624848
 20
217.9887376459862
  0
VERTEX
  8
0
  6
CONTINUOUS
 62
     7
 10
67.14591084594207
 20
217.9915399278148
  0
VERTEX
  8
0
  6
CONTINUOUS
 62
     7
 10
67.1599045443
 20
217.9939567457102
  0
VERTEX
  8
0
  6
CONTINUOUS
 62
     7
 10
67.17395971853246
 20
217.9959693561897
  0
VERTEX
  8
0
  6
CONTINUOUS
 62
     7
 10
67.18810915408451
 20
217.9975808756089
  0
VERTEX
  8
0
  6
CONTINUOUS
 62
     7
 10
67.20229820400246
 20
217.9987837282514
  0
VERTEX
  8
0
  6
CONTINUOUS
 62
     7
 10
67.21659907017715
 20
217.9995806408373
  0
VERTEX
  8
0
  6
CONTINUOUS
 62
     7
 10
67.23092864124835
 20
217.9999631741146
  0
VERTEX
  8
0
  6
CONTINUOUS
 62
     7
 10
67.23696578544691
 20
218.0
  0
SEQEND
  8
0
  6
CONTINUOUS
 62
     7
  0
LINE
  8
0
  6
CONTINUOUS
 62
     7
 10
66.75
 20
217.517946721658
 11
66.75
 21
217.5
  0
LINE
  8
0
  6
CONTINUOUS
 62
     7
 10
66.75
 20
202.5
 11
66.75
 21
202.4820532783419
  0
POLYLINE
  8
0
  6
CONTINUOUS
 62
     7
 66
     1
  0
VERTEX
  8
0
  6
CONTINUOUS
 62
     7
 10
67.23696578544605
 20
202.0
  0
VERTEX
  8
0
  6
CONTINUOUS
 62
     7
 10
67.2309286412454
 20
202.0000368258854
  0
VERTEX
  8
0
  6
CONTINUOUS
 62
     7
 10
67.21532013937814
 20
202.0004737148232
  0
VERTEX
  8
0
  6
CONTINUOUS
 62
     7
 10
67.19971917532173
 20
202.0014042878747
  0
VERTEX
  8
0
  6
CONTINUOUS
 62
     7
 10
67.18407417182834
 20
202.0028365936188
  0
VERTEX
  8
0
  6
CONTINUOUS
 62
     7
 10
67.1684812451119
 20
202.0047660322714
  0
VERTEX
  8
0
  6
CONTINUOUS
 62
     7
 10
67.15289648958849
 20
202.007201732973
  0
VERTEX
  8
0
  6
CONTINUOUS
 62
     7
 10
67.13739441447808
 20
202.0101354397392
  0
VERTEX
  8
0
  6
CONTINUOUS
 62
     7
 10
67.12190897563553
 20
202.0135847494737
  0
VERTEX
  8
0
  6
CONTINUOUS
 62
     7
 10
67.10652292061705
 20
202.0175370292265
  0
VERTEX
  8
0
  6
CONTINUOUS
 62
     7
 10
67.08728214217159
 20
202.0232372537003
  0
VERTEX
  8
0
  6
CONTINUOUS
 62
     7
 10
67.06824997756074
 20
202.0297339331777
  0
VERTEX
  8
0
  6
CONTINUOUS
 62
     7
 10
67.04935054753484
 20
202.0370674917079
  0
VERTEX
  8
0
  6
CONTINUOUS
 62
     7
 10
67.03072729422907
 20
202.0451974698244
  0
VERTEX
  8
0
  6
CONTINUOUS
 62
     7
 10
67.01223146558192
 20
202.0542107768775
  0
VERTEX
  8
0
  6
CONTINUOUS
 62
     7
 10
66.99408518753083
 20
202.0640221586685
  0
VERTEX
  8
0
  6
CONTINUOUS
 62
     7
 10
66.97621978587657
 20
202.0746869314602
  0
VERTEX
  8
0
  6
CONTINUOUS
 62
     7
 10
66.95877810410865
 20
202.0861389581195
  0
VERTEX
  8
0
  6
CONTINUOUS
 62
     7
 10
66.94290647464791
 20
202.097531507305
  0
VERTEX
  8
0
  6
CONTINUOUS
 62
     7
 10
66.92746564113743
 20
202.1095867793478
  0
VERTEX
  8
0
  6
CONTINUOUS
 62
     7
 10
66.91239903530241
 20
202.1223672296183
  0
VERTEX
  8
0
  6
CONTINUOUS
 62
     7
 10
66.89782621967086
 20
202.1357907137583
  0
VERTEX
  8
0
  6
CONTINUOUS
 62
     7
 10
66.8836379549459
 20
202.1499854778596
  0
VERTEX
  8
0
  6
CONTINUOUS
 62
     7
 10
66.87001234713452
 20
202.1648025794453
  0
VERTEX
  8
0
  6
CONTINUOUS
 62
     7
 10
66.8569037428767
 20
202.1803153276556
  0
VERTEX
  8
0
  6
CONTINUOUS
 62
     7
 10
66.84442337769497
 20
202.196417249991
  0
VERTEX
  8
0
  6
CONTINUOUS
 62
     7
 10
66.83317586457032
 20
202.212238193308
  0
VERTEX
  8
0
  6
CONTINUOUS
 62
     7
 10
66.82254652590926
 20
202.2285479143849
  0
VERTEX
  8
0
  6
CONTINUOUS
 62
     7
 10
66.81371101476988
 20
202.2433076675218
  0
VERTEX
  8
0
  6
CONTINUOUS
 62
     7
 10
66.80540107598814
 20
202.2583909632053
  0
VERTEX
  8
0
  6
CONTINUOUS
 62
     7
 10
66.79759078244807
 20
202.2738606692431
  0
VERTEX
  8
0
  6
CONTINUOUS
 62
     7
 10
66.79033701995814
 20
202.2896190646328
  0
VERTEX
  8
0
  6
CONTINUOUS
 62
     7
 10
66.78545337397395
 20
202.3011629925616
  0
VERTEX
  8
0
  6
CONTINUOUS
 62
     7
 10
66.78087005632815
 20
202.3128391442929
  0
VERTEX
  8
0
  6
CONTINUOUS
 62
     7
 10
66.77657957320332
 20
202.3246728267712
  0
VERTEX
  8
0
  6
CONTINUOUS
 62
     7
 10
66.77259880375249
 20
202.3366233643249
  0
VERTEX
  8
0
  6
CONTINUOUS
 62
     7
 10
66.76741056785517
 20
202.354046703748
  0
VERTEX
  8
0
  6
CONTINUOUS
 62
     7
 10
66.7628772787196
 20
202.3716966914043
  0
VERTEX
  8
0
  6
CONTINUOUS
 62
     7
 10
66.75898641833571
 20
202.389671306236
  0
VERTEX
  8
0
  6
CONTINUOUS
 62
     7
 10
66.75578587226539
 20
202.4077967979251
  0
VERTEX
  8
0
  6
CONTINUOUS
 62
     7
 10
66.75326946614712
 20
202.4261579263027
  0
VERTEX
  8
0
  6
CONTINUOUS
 62
     7
 10
66.75146369648795
 20
202.444615588676
  0
VERTEX
  8
0
  6
CONTINUOUS
 62
     7
 10
66.75036680481186
 20
202.4632999451775
  0
VERTEX
  8
0
  6
CONTINUOUS
 62
     7
 10
66.75
 20
202.4820532783419
  0
SEQEND
  8
0
  6
CONTINUOUS
 62
     7
  0
LINE
  8
0
  6
CONTINUOUS
 62
     7
 10
93.25
 20
217.517946721658
 11
93.25
 21
217.5
  0
POLYLINE
  8
0
  6
CONTINUOUS
 62
     7
 66
     1
  0
VERTEX
  8
0
  6
CONTINUOUS
 62
     7
 10
92.7630342145531
 20
218.0
  0
VERTEX
  8
0
  6
CONTINUOUS
 62
     7
 10
92.76907135875175
 20
217.9999631741146
  0
VERTEX
  8
0
  6
CONTINUOUS
 62
     7
 10
92.78319711582844
 20
217.9995889613164
  0
VERTEX
  8
0
  6
CONTINUOUS
 62
     7
 10
92.79730599301357
 20
217.9988113824386
  0
VERTEX
  8
0
  6
CONTINUOUS
 62
     7
 10
92.81143013419525
 20
217.997626410701
  0
VERTEX
  8
0
  6
CONTINUOUS
 62
     7
 10
92.82551538680003
 20
217.9960365370496
  0
VERTEX
  8
0
  6
CONTINUOUS
 62
     7
 10
92.8396378571231
 20
217.9940287850157
  0
VERTEX
  8
0
  6
CONTINUOUS
 62
     7
 10
92.85369864227393
 20
217.991613019513
  0
VERTEX
  8
0
  6
CONTINUOUS
 62
     7
 10
92.8677303474769
 20
217.9887809354107
  0
VERTEX
  8
0
  6
CONTINUOUS
 62
     7
 10
92.88167740109034
 20
217.9855412568704
  0
VERTEX
  8
0
  6
CONTINUOUS
 62
     7
 10
92.90109961262293
 20
217.9803068954511
  0
VERTEX
  8
0
  6
CONTINUOUS
 62
     7
 10
92.92033121553223
 20
217.9742683146905
  0
VERTEX
  8
0
  6
CONTINUOUS
 62
     7
 10
92.93944935404346
 20
217.9673869667467
  0
VERTEX
  8
0
  6
CONTINUOUS
 62
     7
 10
92.95830911292747
 20
217.9597000244808
  0
VERTEX
  8
0
  6
CONTINUOUS
 62
     7
 10
92.97706187955492
 20
217.9511240782189
  0
VERTEX
  8
0
  6
CONTINUOUS
 62
     7
 10
92.99548274859163
 20
217.9417392827841
  0
VERTEX
  8
0
  6
CONTINUOUS
 62
     7
 10
93.01364199033921
 20
217.9314919314932
  0
VERTEX
  8
0
  6
CONTINUOUS
 62
     7
 10
93.03139476143284
 20
217.9204449291427
  0
VERTEX
  8
0
  6
CONTINUOUS
 62
     7
 10
93.04355631553607
 20
217.9122454877899
  0
VERTEX
  8
0
  6
CONTINUOUS
 62
     7
 10
93.05548463487963
 20
217.9036679418112
  0
VERTEX
  8
0
  6
CONTINUOUS
 62
     7
 10
93.07491723054913
 20
217.8884614541495
  0
VERTEX
  8
0
  6
CONTINUOUS
 62
     7
 10
93.09362320392275
 20
217.8722188393422
  0
VERTEX
  8
0
  6
CONTINUOUS
 62
     7
 10
93.10817084721546
 20
217.8583529201384
  0
VERTEX
  8
0
  6
CONTINUOUS
 62
     7
 10
93.12216974311873
 20
217.8438501711879
  0
VERTEX
  8
0
  6
CONTINUOUS
 62
     7
 10
93.13566729181358
 20
217.8286383803965
  0
VERTEX
  8
0
  6
CONTINUOUS
 62
     7
 10
93.14854967099713
 20
217.8128212858035
  0
VERTEX
  8
0
  6
CONTINUOUS
 62
     7
 10
93.15729856763738
 20
217.8012465919477
  0
VERTEX
  8
0
  6
CONTINUOUS
 62
     7
 10
93.16570966506848
 20
217.7893912098017
  0
VERTEX
  8
0
  6
CONTINUOUS
 62
     7
 10
93.17902228113357
 20
217.7689173585203
  0
VERTEX
  8
0
  6
CONTINUOUS
 62
     7
 10
93.19132584028632
 20
217.747703971773
  0
VERTEX
  8
0
  6
CONTINUOUS
 62
     7
 10
93.20269444004433
 20
217.7255473025745
  0
VERTEX
  8
0
  6
CONTINUOUS
 62
     7
 10
93.20796325891075
 20
217.7142109960473
  0
VERTEX
  8
0
  6
CONTINUOUS
 62
     7
 10
93.2129383347857
 20
217.7027326169545
  0
VERTEX
  8
0
  6
CONTINUOUS
 62
     7
 10
93.21855284303334
 20
217.6886817640888
  0
VERTEX
  8
0
  6
CONTINUOUS
 62
     7
 10
93.22373012661517
 20
217.6744339032169
  0
VERTEX
  8
0
  6
CONTINUOUS
 62
     7
 10
93.22974136886356
 20
217.6558149782855
  0
VERTEX
  8
0
  6
CONTINUOUS
 62
     7
 10
93.23500042564764
 20
217.6369144710251
  0
VERTEX
  8
0
  6
CONTINUOUS
 62
     7
 10
93.23952443720466
 20
217.617609513313
  0
VERTEX
  8
0
  6
CONTINUOUS
 62
     7
 10
93.24324890907337
 20
217.5981162710103
  0
VERTEX
  8
0
  6
CONTINUOUS
 62
     7
 10
93.24618232836363
 20
217.5783282629369
  0
VERTEX
  8
0
  6
CONTINUOUS
 62
     7
 10
93.24828886761395
 20
217.5584196569026
  0
VERTEX
  8
0
  6
CONTINUOUS
 62
     7
 10
93.24957102709016
 20
217.5382263216886
  0
VERTEX
  8
0
  6
CONTINUOUS
 62
     7
 10
93.25
 20
217.517946721658
  0
SEQEND
  8
0
  6
CONTINUOUS
 62
     7
  0
POLYLINE
  8
0
  6
CONTINUOUS
 62
     7
 66
     1
  0
VERTEX
  8
0
  6
CONTINUOUS
 62
     7
 10
93.25
 20
202.482053278342
  0
VERTEX
  8
0
  6
CONTINUOUS
 62
     7
 10
93.24965115051259
 20
202.4637681030098
  0
VERTEX
  8
0
  6
CONTINUOUS
 62
     7
 10
93.24860627080662
 20
202.4455198909441
  0
VERTEX
  8
0
  6
CONTINUOUS
 62
     7
 10
93.24685479410377
 20
202.4272266530208
  0
VERTEX
  8
0
  6
CONTINUOUS
 62
     7
 10
93.2444053450102
 20
202.4090265685777
  0
VERTEX
  8
0
  6
CONTINUOUS
 62
     7
 10
93.24121929235007
 20
202.3907246973853
  0
VERTEX
  8
0
  6
CONTINUOUS
 62
     7
 10
93.23732968012538
 20
202.3725748832449
  0
VERTEX
  8
0
  6
CONTINUOUS
 62
     7
 10
93.23271307235612
 20
202.3544940912545
  0
VERTEX
  8
0
  6
CONTINUOUS
 62
     7
 10
93.22740119624757
 20
202.336623364325
  0
VERTEX
  8
0
  6
CONTINUOUS
 62
     7
 10
93.22107483814978
 20
202.3180840974006
  0
VERTEX
  8
0
  6
CONTINUOUS
 62
     7
 10
93.214004302536
 20
202.2998384315264
  0
VERTEX
  8
0
  6
CONTINUOUS
 62
     7
 10
93.2061479147513
 20
202.2817954424266
  0
VERTEX
  8
0
  6
CONTINUOUS
 62
     7
 10
93.19756853996219
 20
202.2641104848386
  0
VERTEX
  8
0
  6
CONTINUOUS
 62
     7
 10
93.19057874437317
 20
202.2509339404068
  0
VERTEX
  8
0
  6
CONTINUOUS
 62
     7
 10
93.18319003708531
 20
202.2379929078639
  0
VERTEX
  8
0
  6
CONTINUOUS
 62
     7
 10
93.17537981701702
 20
202.2252505815655
  0
VERTEX
  8
0
  6
CONTINUOUS
 62
     7
 10
93.16718518595113
 20
202.2127691591616
  0
VERTEX
  8
0
  6
CONTINUOUS
 62
     7
 10
93.1555766223049
 20
202.1964172499908
  0
VERTEX
  8
0
  6
CONTINUOUS
 62
     7
 10
93.14352794827327
 20
202.1808493724406
  0
VERTEX
  8
0
  6
CONTINUOUS
 62
     7
 10
93.13082689014648
 20
202.16575684911
  0
VERTEX
  8
0
  6
CONTINUOUS
 62
     7
 10
93.11751412519054
 20
202.151191172793
  0
VERTEX
  8
0
  6
CONTINUOUS
 62
     7
 10
93.10346756950595
 20
202.1370370390246
  0
VERTEX
  8
0
  6
CONTINUOUS
 62
     7
 10
93.08884302716439
 20
202.1234689790799
  0
VERTEX
  8
0
  6
CONTINUOUS
 62
     7
 10
93.07350847939162
 20
202.1103816066843
  0
VERTEX
  8
0
  6
CONTINUOUS
 62
     7
 10
93.05763515967993
 20
202.0979376378374
  0
VERTEX
  8
0
  6
CONTINUOUS
 62
     7
 10
93.04122189589117
 20
202.0861389581194
  0
VERTEX
  8
0
  6
CONTINUOUS
 62
     7
 10
93.02437441484518
 20
202.075059683962
  0
VERTEX
  8
0
  6
CONTINUOUS
 62
     7
 10
93.00704306573095
 20
202.0646653834316
  0
VERTEX
  8
0
  6
CONTINUOUS
 62
     7
 10
92.98928388796682
 20
202.0549925049
  0
VERTEX
  8
0
  6
CONTINUOUS
 62
     7
 10
92.97094019130643
 20
202.0459708498319
  0
VERTEX
  8
0
  6
CONTINUOUS
 62
     7
 10
92.95222000867716
 20
202.0377178205342
  0
VERTEX
  8
0
  6
CONTINUOUS
 62
     7
 10
92.93295987813377
 20
202.0301766212241
  0
VERTEX
  8
0
  6
CONTINUOUS
 62
     7
 10
92.91337923909016
 20
202.0234485009383
  0
VERTEX
  8
0
  6
CONTINUOUS
 62
     7
 10
92.89347707938273
 20
202.0175370292264
  0
VERTEX
  8
0
  6
CONTINUOUS
 62
     7
 10
92.87833201864402
 20
202.0136426426075
  0
VERTEX
  8
0
  6
CONTINUOUS
 62
     7
 10
92.86307579557194
 20
202.010232490487
  0
VERTEX
  8
0
  6
CONTINUOUS
 62
     7
 10
92.84766479622927
 20
202.0072990080089
  0
VERTEX
  8
0
  6
CONTINUOUS
 62
     7
 10
92.83217151280091
 20
202.0048578236858
  0
VERTEX
  8
0
  6
CONTINUOUS
 62
     7
 10
92.81649140341126
 20
202.0028977870099
  0
VERTEX
  8
0
  6
CONTINUOUS
 62
     7
 10
92.80075806991809
 20
202.0014405680906
  0
VERTEX
  8
0
  6
CONTINUOUS
 62
     7
 10
92.78492618606226
 20
202.0004846210703
  0
VERTEX
  8
0
  6
CONTINUOUS
 62
     7
 10
92.76907135875457
 20
202.0000368258855
  0
VERTEX
  8
0
  6
CONTINUOUS
 62
     7
 10
92.76303421455303
 20
202.0
  0
SEQEND
  8
0
  6
CONTINUOUS
 62
     7
  0
LINE
  8
0
  6
CONTINUOUS
 62
     7
 10
93.25
 20
202.482053278342
 11
93.25
 21
202.5
  0
LINE
  8
0
  6
CONTINUOUS
 62
     7
 10
66.75
 20
217.5
 11
66.75
 21
202.5
  0
LINE
  8
0
  6
CONTINUOUS
 62
     7
 10
93.25
 20
202.5
 11
93.25
 21
217.5
  0
POLYLINE
  8
0
  6
CONTINUOUS
 62
     7
 66
     1
  0
VERTEX
  8
0
  6
CONTINUOUS
 62
     7
 10
85.11890639961736
 20
202.5
  0
VERTEX
  8
0
  6
CONTINUOUS
 62
     7
 10
85.11901046202468
 20
202.4806759961456
  0
VERTEX
  8
0
  6
CONTINUOUS
 62
     7
 10
85.11932212582262
 20
202.4613871631186
  0
VERTEX
  8
0
  6
CONTINUOUS
 62
     7
 10
85.11984530394919
 20
202.4420274863871
  0
VERTEX
  8
0
  6
CONTINUOUS
 62
     7
 10
85.12057673746637
 20
202.4227743262373
  0
VERTEX
  8
0
  6
CONTINUOUS
 62
     7
 10
85.12153021558554
 20
202.40337661365
  0
VERTEX
  8
0
  6
CONTINUOUS
 62
     7
 10
85.1226933280608
 20
202.3841599237379
  0
VERTEX
  8
0
  6
CONTINUOUS
 62
     7
 10
85.12407396426438
 20
202.3650179209106
  0
VERTEX
  8
0
  6
CONTINUOUS
 62
     7
 10
85.12566005217826
 20
202.3461287050545
  0
VERTEX
  8
0
  6
CONTINUOUS
 62
     7
 10
85.12739136814035
 20
202.3280738909802
  0
VERTEX
  8
0
  6
CONTINUOUS
 62
     7
 10
85.12930746978512
 20
202.3103164080073
  0
VERTEX
  8
0
  6
CONTINUOUS
 62
     7
 10
85.13141842728933
 20
202.2927674330058
  0
VERTEX
  8
0
  6
CONTINUOUS
 62
     7
 10
85.13370654578286
 20
202.2755735648236
  0
VERTEX
  8
0
  6
CONTINUOUS
 62
     7
 10
85.13620063846331
 20
202.2585367297496
  0
VERTEX
  8
0
  6
CONTINUOUS
 62
     7
 10
85.13886502201476
 20
202.2419140626263
  0
VERTEX
  8
0
  6
CONTINUOUS
 62
     7
 10
85.14171253734162
 20
202.2256247157416
  0
VERTEX
  8
0
  6
CONTINUOUS
 62
     7
 10
85.14471980088435
 20
202.2097989290257
  0
VERTEX
  8
0
  6
CONTINUOUS
 62
     7
 10
85.14791984628827
 20
202.1942723709921
  0
VERTEX
  8
0
  6
CONTINUOUS
 62
     7
 10
85.15126984245578
 20
202.1792595492576
  0
VERTEX
  8
0
  6
CONTINUOUS
 62
     7
 10
85.15478486529248
 20
202.1646903089301
  0
VERTEX
  8
0
  6
CONTINUOUS
 62
     7
 10
85.15843743932673
 20
202.1506743122326
  0
VERTEX
  8
0
  6
CONTINUOUS
 62
     7
 10
85.16129491520637
 20
202.1404226438205
  0
VERTEX
  8
0
  6
CONTINUOUS
 62
     7
 10
85.16422428172706
 20
202.130503254733
  0
VERTEX
  8
0
  6
CONTINUOUS
 62
     7
 10
85.16723245008501
 20
202.1208905633609
  0
VERTEX
  8
0
  6
CONTINUOUS
 62
     7
 10
85.17030675639297
 20
202.111622567085
  0
VERTEX
  8
0
  6
CONTINUOUS
 62
     7
 10
85.17453434973645
 20
202.0997256262992
  0
VERTEX
  8
0
  6
CONTINUOUS
 62
     7
 10
85.17911534476335
 20
202.0878538620137
  0
VERTEX
  8
0
  6
CONTINUOUS
 62
     7
 10
85.18382096512346
 20
202.076673179544
  0
VERTEX
  8
0
  6
CONTINUOUS
 62
     7
 10
85.18863616276292
 20
202.0662148879326
  0
VERTEX
  8
0
  6
CONTINUOUS
 62
     7
 10
85.19359846223838
 20
202.0564045784033
  0
VERTEX
  8
0
  6
CONTINUOUS
 62
     7
 10
85.19865595558342
 20
202.0473522743114
  0
VERTEX
  8
0
  6
CONTINUOUS
 62
     7
 10
85.2038476626514
 20
202.0389958748217
  0
VERTEX
  8
0
  6
CONTINUOUS
 62
     7
 10
85.20911980663313
 20
202.0314301104933
  0
VERTEX
  8
0
  6
CONTINUOUS
 62
     7
 10
85.21447216975925
 20
202.0246537249543
  0
VERTEX
  8
0
  6
CONTINUOUS
 62
     7
 10
85.2194764436209
 20
202.0191095744274
  0
VERTEX
  8
0
  6
CONTINUOUS
 62
     7
 10
85.22453499083333
 20
202.0142564440832
  0
VERTEX
  8
0
  6
CONTINUOUS
 62
     7
 10
85.2296354455011
 20
202.0101061443222
  0
VERTEX
  8
0
  6
CONTINUOUS
 62
     7
 10
85.23480958922828
 20
202.0066401245142
  0
VERTEX
  8
0
  6
CONTINUOUS
 62
     7
 10
85.24001356260592
 20
202.0038955926975
  0
VERTEX
  8
0
  6
CONTINUOUS
 62
     7
 10
85.24527961016156
 20
202.0018639792376
  0
VERTEX
  8
0
  6
CONTINUOUS
 62
     7
 10
85.25056308709635
 20
202.0005715294422
  0
VERTEX
  8
0
  6
CONTINUOUS
 62
     7
 10
85.25586403673904
 20
202.0000210826332
  0
VERTEX
  8
0
  6
CONTINUOUS
 62
     7
 10
85.25712416177491
 20
202.0
  0
SEQEND
  8
0
  6
CONTINUOUS
 62
     7
  0
POLYLINE
  8
0
  6
CONTINUOUS
 62
     7
 66
     1
  0
VERTEX
  8
0
  6
CONTINUOUS
 62
     7
 10
74.88109360038264
 20
202.5
  0
VERTEX
  8
0
  6
CONTINUOUS
 62
     7
 10
74.88098953797532
 20
202.4806759961456
  0
VERTEX
  8
0
  6
CONTINUOUS
 62
     7
 10
74.88067787417738
 20
202.4613871631186
  0
VERTEX
  8
0
  6
CONTINUOUS
 62
     7
 10
74.88015469605081
 20
202.4420274863871
  0
VERTEX
  8
0
  6
CONTINUOUS
 62
     7
 10
74.87942326253363
 20
202.4227743262373
  0
VERTEX
  8
0
  6
CONTINUOUS
 62
     7
 10
74.87846978441445
 20
202.40337661365
  0
VERTEX
  8
0
  6
CONTINUOUS
 62
     7
 10
74.8773066719392
 20
202.3841599237379
  0
VERTEX
  8
0
  6
CONTINUOUS
 62
     7
 10
74.87592603573562
 20
202.3650179209106
  0
VERTEX
  8
0
  6
CONTINUOUS
 62
     7
 10
74.87433994782174
 20
202.3461287050545
  0
VERTEX
  8
0
  6
CONTINUOUS
 62
     7
 10
74.87260863185963
 20
202.3280738909802
  0
VERTEX
  8
0
  6
CONTINUOUS
 62
     7
 10
74.87069253021487
 20
202.3103164080073
  0
VERTEX
  8
0
  6
CONTINUOUS
 62
     7
 10
74.86858157271067
 20
202.2927674330058
  0
VERTEX
  8
0
  6
CONTINUOUS
 62
     7
 10
74.86629345421714
 20
202.2755735648236
  0
VERTEX
  8
0
  6
CONTINUOUS
 62
     7
 10
74.86379936153668
 20
202.2585367297496
  0
VERTEX
  8
0
  6
CONTINUOUS
 62
     7
 10
74.86113497798523
 20
202.2419140626263
  0
VERTEX
  8
0
  6
CONTINUOUS
 62
     7
 10
74.85828746265838
 20
202.2256247157416
  0
VERTEX
  8
0
  6
CONTINUOUS
 62
     7
 10
74.85528019911565
 20
202.2097989290257
  0
VERTEX
  8
0
  6
CONTINUOUS
 62
     7
 10
74.85208015371171
 20
202.1942723709921
  0
VERTEX
  8
0
  6
CONTINUOUS
 62
     7
 10
74.84873015754422
 20
202.1792595492576
  0
VERTEX
  8
0
  6
CONTINUOUS
 62
     7
 10
74.84521513470752
 20
202.1646903089301
  0
VERTEX
  8
0
  6
CONTINUOUS
 62
     7
 10
74.84156256067327
 20
202.1506743122326
  0
VERTEX
  8
0
  6
CONTINUOUS
 62
     7
 10
74.83870508479363
 20
202.1404226438205
  0
VERTEX
  8
0
  6
CONTINUOUS
 62
     7
 10
74.83577571827294
 20
202.130503254733
  0
VERTEX
  8
0
  6
CONTINUOUS
 62
     7
 10
74.83276754991498
 20
202.1208905633609
  0
VERTEX
  8
0
  6
CONTINUOUS
 62
     7
 10
74.82969324360703
 20
202.111622567085
  0
VERTEX
  8
0
  6
CONTINUOUS
 62
     7
 10
74.82546565026354
 20
202.0997256262992
  0
VERTEX
  8
0
  6
CONTINUOUS
 62
     7
 10
74.82088465523667
 20
202.0878538620137
  0
VERTEX
  8
0
  6
CONTINUOUS
 62
     7
 10
74.81617903487654
 20
202.076673179544
  0
VERTEX
  8
0
  6
CONTINUOUS
 62
     7
 10
74.81136383723708
 20
202.0662148879326
  0
VERTEX
  8
0
  6
CONTINUOUS
 62
     7
 10
74.8064015377616
 20
202.0564045784033
  0
VERTEX
  8
0
  6
CONTINUOUS
 62
     7
 10
74.8013440444166
 20
202.0473522743114
  0
VERTEX
  8
0
  6
CONTINUOUS
 62
     7
 10
74.79615233734859
 20
202.0389958748217
  0
VERTEX
  8
0
  6
CONTINUOUS
 62
     7
 10
74.79088019336686
 20
202.0314301104933
  0
VERTEX
  8
0
  6
CONTINUOUS
 62
     7
 10
74.78552783024075
 20
202.0246537249543
  0
VERTEX
  8
0
  6
CONTINUOUS
 62
     7
 10
74.7805235563791
 20
202.0191095744274
  0
VERTEX
  8
0
  6
CONTINUOUS
 62
     7
 10
74.77546500916667
 20
202.0142564440832
  0
VERTEX
  8
0
  6
CONTINUOUS
 62
     7
 10
74.7703645544989
 20
202.0101061443222
  0
VERTEX
  8
0
  6
CONTINUOUS
 62
     7
 10
74.76519041077172
 20
202.0066401245142
  0
VERTEX
  8
0
  6
CONTINUOUS
 62
     7
 10
74.75998643739408
 20
202.0038955926975
  0
VERTEX
  8
0
  6
CONTINUOUS
 62
     7
 10
74.75472038983843
 20
202.0018639792376
  0
VERTEX
  8
0
  6
CONTINUOUS
 62
     7
 10
74.74943691290365
 20
202.0005715294422
  0
VERTEX
  8
0
  6
CONTINUOUS
 62
     7
 10
74.74413596326096
 20
202.0000210826332
  0
VERTEX
  8
0
  6
CONTINUOUS
 62
     7
 10
74.74287583822509
 20
202.0
  0
SEQEND
  8
0
  6
CONTINUOUS
 62
     7
  0
POLYLINE
  8
0
  6
CONTINUOUS
 62
     7
 66
     1
  0
VERTEX
  8
0
  6
CONTINUOUS
 62
     7
 10
73.75
 20
202.5
  0
VERTEX
  8
0
  6
CONTINUOUS
 62
     7
 10
73.74939772810258
 20
202.4754661628363
  0
VERTEX
  8
0
  6
CONTINUOUS
 62
     7
 10
73.7475923633361
 20
202.4509914298352
  0
VERTEX
  8
0
  6
CONTINUOUS
 62
     7
 10
73.74458825498238
 20
202.4266347627723
  0
VERTEX
  8
0
  6
CONTINUOUS
 62
     7
 10
73.74039264020162
 20
202.4024548389919
  0
VERTEX
  8
0
  6
CONTINUOUS
 62
     7
 10
73.73501562659727
 20
202.3785099100483
  0
VERTEX
  8
0
  6
CONTINUOUS
 62
     7
 10
73.72847016786609
 20
202.3548576613728
  0
VERTEX
  8
0
  6
CONTINUOUS
 62
     7
 10
73.7207720325915
 20
202.3315550733039
  0
VERTEX
  8
0
  6
CONTINUOUS
 62
     7
 10
73.71193976625564
 20
202.3086582838174
  0
VERTEX
  8
0
  6
CONTINUOUS
 62
     7
 10
73.70199464656172
 20
202.2862224532848
  0
VERTEX
  8
0
  6
CONTINUOUS
 62
     7
 10
73.69096063217417
 20
202.264301631587
  0
VERTEX
  8
0
  6
CONTINUOUS
 62
     7
 10
73.67886430500013
 20
202.2429486279034
  0
VERTEX
  8
0
  6
CONTINUOUS
 62
     7
 10
73.66573480615126
 20
202.2222148834902
  0
VERTEX
  8
0
  6
CONTINUOUS
 62
     7
 10
73.65160376574032
 20
202.2021503477538
  0
VERTEX
  8
0
  6
CONTINUOUS
 62
     7
 10
73.63650522668135
 20
202.1828033579181
  0
VERTEX
  8
0
  6
CONTINUOUS
 62
     7
 10
73.62047556267748
 20
202.1642205225765
  0
VERTEX
  8
0
  6
CONTINUOUS
 62
     7
 10
73.60355339059326
 20
202.1464466094067
  0
VERTEX
  8
0
  6
CONTINUOUS
 62
     7
 10
73.5857794774235
 20
202.1295244373225
  0
VERTEX
  8
0
  6
CONTINUOUS
 62
     7
 10
73.56719664208183
 20
202.1134947733186
  0
VERTEX
  8
0
  6
CONTINUOUS
 62
     7
 10
73.54784965224621
 20
202.0983962342597
  0
VERTEX
  8
0
  6
CONTINUOUS
 62
     7
 10
73.5277851165098
 20
202.0842651938487
  0
VERTEX
  8
0
  6
CONTINUOUS
 62
     7
 10
73.50705137209661
 20
202.0711356949998
  0
VERTEX
  8
0
  6
CONTINUOUS
 62
     7
 10
73.485698368413
 20
202.0590393678258
  0
VERTEX
  8
0
  6
CONTINUOUS
 62
     7
 10
73.46377754671514
 20
202.0480053534383
  0
VERTEX
  8
0
  6
CONTINUOUS
 62
     7
 10
73.44134171618254
 20
202.0380602337443
  0
VERTEX
  8
0
  6
CONTINUOUS
 62
     7
 10
73.41844492669611
 20
202.0292279674085
  0
VERTEX
  8
0
  6
CONTINUOUS
 62
     7
 10
73.39514233862724
 20
202.0215298321339
  0
VERTEX
  8
0
  6
CONTINUOUS
 62
     7
 10
73.37149008995162
 20
202.0149843734027
  0
VERTEX
  8
0
  6
CONTINUOUS
 62
     7
 10
73.34754516100807
 20
202.0096073597984
  0
VERTEX
  8
0
  6
CONTINUOUS
 62
     7
 10
73.32336523722768
 20
202.0054117450176
  0
VERTEX
  8
0
  6
CONTINUOUS
 62
     7
 10
73.29900857016477
 20
202.0024076366639
  0
VERTEX
  8
0
  6
CONTINUOUS
 62
     7
 10
73.2745338371637
 20
202.0006022718974
  0
VERTEX
  8
0
  6
CONTINUOUS
 62
     7
 10
73.25
 20
202.0
  0
SEQEND
  8
0
  6
CONTINUOUS
 62
     7
  0
POLYLINE
  8
0
  6
CONTINUOUS
 62
     7
 66
     1
  0
VERTEX
  8
0
  6
CONTINUOUS
 62
     7
 10
74.74287583822509
 20
218.0
  0
VERTEX
  8
0
  6
CONTINUOUS
 62
     7
 10
74.74413596326096
 20
217.9999789173668
  0
VERTEX
  8
0
  6
CONTINUOUS
 62
     7
 10
74.74930379477522
 20
217.9994514316369
  0
VERTEX
  8
0
  6
CONTINUOUS
 62
     7
 10
74.75447949888603
 20
217.9982111562259
  0
VERTEX
  8
0
  6
CONTINUOUS
 62
     7
 10
74.75965095426395
 20
217.9962561048947
  0
VERTEX
  8
0
  6
CONTINUOUS
 62
     7
 10
74.76484955881213
 20
217.9935622566389
  0
VERTEX
  8
0
  6
CONTINUOUS
 62
     7
 10
74.77003128434576
 20
217.9901395173132
  0
VERTEX
  8
0
  6
CONTINUOUS
 62
     7
 10
74.77522737854855
 20
217.9859533384154
  0
VERTEX
  8
0
  6
CONTINUOUS
 62
     7
 10
74.78039305892266
 20
217.9810250137646
  0
VERTEX
  8
0
  6
CONTINUOUS
 62
     7
 10
74.78552783024075
 20
217.9753462750457
  0
VERTEX
  8
0
  6
CONTINUOUS
 62
     7
 10
74.79071754302687
 20
217.9687890366131
  0
VERTEX
  8
0
  6
CONTINUOUS
 62
     7
 10
74.79586060579601
 20
217.9614465802317
  0
VERTEX
  8
0
  6
CONTINUOUS
 62
     7
 10
74.80094186999716
 20
217.9533282636933
  0
VERTEX
  8
0
  6
CONTINUOUS
 62
     7
 10
74.80599723102942
 20
217.9443534277158
  0
VERTEX
  8
0
  6
CONTINUOUS
 62
     7
 10
74.81097296721757
 20
217.9345926103837
  0
VERTEX
  8
0
  6
CONTINUOUS
 62
     7
 10
74.81590378739426
 20
217.9239507222769
  0
VERTEX
  8
0
  6
CONTINUOUS
 62
     7
 10
74.82073540876198
 20
217.9125160878707
  0
VERTEX
  8
0
  6
CONTINUOUS
 62
     7
 10
74.82546565026354
 20
217.9002743737008
  0
VERTEX
  8
0
  6
CONTINUOUS
 62
     7
 10
74.82958060460825
 20
217.8887067011303
  0
VERTEX
  8
0
  6
CONTINUOUS
 62
     7
 10
74.8335880754137
 20
217.87654255488
  0
VERTEX
  8
0
  6
CONTINUOUS
 62
     7
 10
74.83750246548108
 20
217.8637190515267
  0
VERTEX
  8
0
  6
CONTINUOUS
 62
     7
 10
74.84129413553892
 20
217.8503142528912
  0
VERTEX
  8
0
  6
CONTINUOUS
 62
     7
 10
74.844082878224
 20
217.8397704363203
  0
VERTEX
  8
0
  6
CONTINUOUS
 62
     7
 10
74.84679384668968
 20
217.8289058614863
  0
VERTEX
  8
0
  6
CONTINUOUS
 62
     7
 10
74.84943294413401
 20
217.817687335531
  0
VERTEX
  8
0
  6
CONTINUOUS
 62
     7
 10
74.85198742341534
 20
217.8061596611119
  0
VERTEX
  8
0
  6
CONTINUOUS
 62
     7
 10
74.85528019911565
 20
217.7902010709743
  0
VERTEX
  8
0
  6
CONTINUOUS
 62
     7
 10
74.8582119466378
 20
217.774789026747
  0
VERTEX
  8
0
  6
CONTINUOUS
 62
     7
 10
74.86099223047555
 20
217.7589364879919
  0
VERTEX
  8
0
  6
CONTINUOUS
 62
     7
 10
74.86363064897279
 20
217.742560724495
  0
VERTEX
  8
0
  6
CONTINUOUS
 62
     7
 10
74.86610368631057
 20
217.7257803107168
  0
VERTEX
  8
0
  6
CONTINUOUS
 62
     7
 10
74.86843457006066
 20
217.7083894533187
  0
VERTEX
  8
0
  6
CONTINUOUS
 62
     7
 10
74.87058401099405
 20
217.6906324331154
  0
VERTEX
  8
0
  6
CONTINUOUS
 62
     7
 10
74.87255935375036
 20
217.6724090436519
  0
VERTEX
  8
0
  6
CONTINUOUS
 62
     7
 10
74.87433994782174
 20
217.6538712949455
  0
VERTEX
  8
0
  6
CONTINUOUS
 62
     7
 10
74.87588281801513
 20
217.6355348648256
  0
VERTEX
  8
0
  6
CONTINUOUS
 62
     7
 10
74.8772321139212
 20
217.6169591984329
  0
VERTEX
  8
0
  6
CONTINUOUS
 62
     7
 10
74.87839147750756
 20
217.5980409978712
  0
VERTEX
  8
0
  6
CONTINUOUS
 62
     7
 10
74.87934760524936
 20
217.5789446150892
  0
VERTEX
  8
0
  6
CONTINUOUS
 62
     7
 10
74.88010719103673
 20
217.5594159810375
  0
VERTEX
  8
0
  6
CONTINUOUS
 62
     7
 10
74.88065243400028
 20
217.5397749481998
  0
VERTEX
  8
0
  6
CONTINUOUS
 62
     7
 10
74.88098316143679
 20
217.5199066972475
  0
VERTEX
  8
0
  6
CONTINUOUS
 62
     7
 10
74.88109360038264
 20
217.5
  0
SEQEND
  8
0
  6
CONTINUOUS
 62
     7
  0
POLYLINE
  8
0
  6
CONTINUOUS
 62
     7
 66
     1
  0
VERTEX
  8
0
  6
CONTINUOUS
 62
     7
 10
73.25
 20
218.0
  0
VERTEX
  8
0
  6
CONTINUOUS
 62
     7
 10
73.27453383716372
 20
217.9993977281026
  0
VERTEX
  8
0
  6
CONTINUOUS
 62
     7
 10
73.29900857016477
 20
217.9975923633361
  0
VERTEX
  8
0
  6
CONTINUOUS
 62
     7
 10
73.32336523722768
 20
217.9945882549824
  0
VERTEX
  8
0
  6
CONTINUOUS
 62
     7
 10
73.34754516100807
 20
217.9903926402016
  0
VERTEX
  8
0
  6
CONTINUOUS
 62
     7
 10
73.37149008995164
 20
217.9850156265973
  0
VERTEX
  8
0
  6
CONTINUOUS
 62
     7
 10
73.39514233862724
 20
217.9784701678661
  0
VERTEX
  8
0
  6
CONTINUOUS
 62
     7
 10
73.41844492669611
 20
217.9707720325915
  0
VERTEX
  8
0
  6
CONTINUOUS
 62
     7
 10
73.44134171618255
 20
217.9619397662556
  0
VERTEX
  8
0
  6
CONTINUOUS
 62
     7
 10
73.46377754671514
 20
217.9519946465617
  0
VERTEX
  8
0
  6
CONTINUOUS
 62
     7
 10
73.485698368413
 20
217.9409606321742
  0
VERTEX
  8
0
  6
CONTINUOUS
 62
     7
 10
73.50705137209661
 20
217.9288643050001
  0
VERTEX
  8
0
  6
CONTINUOUS
 62
     7
 10
73.5277851165098
 20
217.9157348061512
  0
VERTEX
  8
0
  6
CONTINUOUS
 62
     7
 10
73.54784965224621
 20
217.9016037657403
  0
VERTEX
  8
0
  6
CONTINUOUS
 62
     7
 10
73.56719664208183
 20
217.8865052266814
  0
VERTEX
  8
0
  6
CONTINUOUS
 62
     7
 10
73.5857794774235
 20
217.8704755626775
  0
VERTEX
  8
0
  6
CONTINUOUS
 62
     7
 10
73.60355339059326
 20
217.8535533905932
  0
VERTEX
  8
0
  6
CONTINUOUS
 62
     7
 10
73.62047556267748
 20
217.8357794774235
  0
VERTEX
  8
0
  6
CONTINUOUS
 62
     7
 10
73.63650522668136
 20
217.8171966420818
  0
VERTEX
  8
0
  6
CONTINUOUS
 62
     7
 10
73.65160376574033
 20
217.7978496522462
  0
VERTEX
  8
0
  6
CONTINUOUS
 62
     7
 10
73.66573480615126
 20
217.7777851165098
  0
VERTEX
  8
0
  6
CONTINUOUS
 62
     7
 10
73.67886430500013
 20
217.7570513720966
  0
VERTEX
  8
0
  6
CONTINUOUS
 62
     7
 10
73.69096063217417
 20
217.735698368413
  0
VERTEX
  8
0
  6
CONTINUOUS
 62
     7
 10
73.70199464656173
 20
217.7137775467151
  0
VERTEX
  8
0
  6
CONTINUOUS
 62
     7
 10
73.71193976625564
 20
217.6913417161825
  0
VERTEX
  8
0
  6
CONTINUOUS
 62
     7
 10
73.72077203259151
 20
217.6684449266961
  0
VERTEX
  8
0
  6
CONTINUOUS
 62
     7
 10
73.72847016786609
 20
217.6451423386272
  0
VERTEX
  8
0
  6
CONTINUOUS
 62
     7
 10
73.73501562659727
 20
217.6214900899516
  0
VERTEX
  8
0
  6
CONTINUOUS
 62
     7
 10
73.74039264020162
 20
217.597545161008
  0
VERTEX
  8
0
  6
CONTINUOUS
 62
     7
 10
73.74458825498239
 20
217.5733652372277
  0
VERTEX
  8
0
  6
CONTINUOUS
 62
     7
 10
73.7475923633361
 20
217.5490085701648
  0
VERTEX
  8
0
  6
CONTINUOUS
 62
     7
 10
73.74939772810258
 20
217.5245338371637
  0
VERTEX
  8
0
  6
CONTINUOUS
 62
     7
 10
73.75
 20
217.5
  0
SEQEND
  8
0
  6
CONTINUOUS
 62
     7
  0
POLYLINE
  8
0
  6
CONTINUOUS
 62
     7
 66
     1
  0
VERTEX
  8
0
  6
CONTINUOUS
 62
     7
 10
85.11890639961736
 20
217.5
  0
VERTEX
  8
0
  6
CONTINUOUS
 62
     7
 10
85.11900943773078
 20
217.5192339118682
  0
VERTEX
  8
0
  6
CONTINUOUS
 62
     7
 10
85.1193190045425
 20
217.5384678237364
  0
VERTEX
  8
0
  6
CONTINUOUS
 62
     7
 10
85.1198429607891
 20
217.5579003393261
  0
VERTEX
  8
0
  6
CONTINUOUS
 62
     7
 10
85.12057673746637
 20
217.5772256737627
  0
VERTEX
  8
0
  6
CONTINUOUS
 62
     7
 10
85.12152623019288
 20
217.5965506790051
  0
VERTEX
  8
0
  6
CONTINUOUS
 62
     7
 10
85.12268379444347
 20
217.6156961511477
  0
VERTEX
  8
0
  6
CONTINUOUS
 62
     7
 10
85.12406698098384
 20
217.6348933090678
  0
VERTEX
  8
0
  6
CONTINUOUS
 62
     7
 10
85.12566005217826
 20
217.6538712949455
  0
VERTEX
  8
0
  6
CONTINUOUS
 62
     7
 10
85.1273836391063
 20
217.6718507162561
  0
VERTEX
  8
0
  6
CONTINUOUS
 62
     7
 10
85.12929391642068
 20
217.6895646984423
  0
VERTEX
  8
0
  6
CONTINUOUS
 62
     7
 10
85.13141104647448
 20
217.7071742693619
  0
VERTEX
  8
0
  6
CONTINUOUS
 62
     7
 10
85.13370654578286
 20
217.7244264351763
  0
VERTEX
  8
0
  6
CONTINUOUS
 62
     7
 10
85.13619192570292
 20
217.7414064237674
  0
VERTEX
  8
0
  6
CONTINUOUS
 62
     7
 10
85.1388464693251
 20
217.7579751123945
  0
VERTEX
  8
0
  6
CONTINUOUS
 62
     7
 10
85.14170033340618
 20
217.7743086153143
  0
VERTEX
  8
0
  6
CONTINUOUS
 62
     7
 10
85.14471980088435
 20
217.7902010709743
  0
VERTEX
  8
0
  6
CONTINUOUS
 62
     7
 10
85.14790725019685
 20
217.8056691354151
  0
VERTEX
  8
0
  6
CONTINUOUS
 62
     7
 10
85.15124885785197
 20
217.8206499971237
  0
VERTEX
  8
0
  6
CONTINUOUS
 62
     7
 10
85.15477394234034
 20
217.8352661282958
  0
VERTEX
  8
0
  6
CONTINUOUS
 62
     7
 10
85.15843743932673
 20
217.8493256877674
  0
VERTEX
  8
0
  6
CONTINUOUS
 62
     7
 10
85.16225535990365
 20
217.8628929290556
  0
VERTEX
  8
0
  6
CONTINUOUS
 62
     7
 10
85.16619872303133
 20
217.875868922628
  0
VERTEX
  8
0
  6
CONTINUOUS
 62
     7
 10
85.17030675639297
 20
217.8883774329149
  0
VERTEX
  8
0
  6
CONTINUOUS
 62
     7
 10
85.17453434973645
 20
217.9002743737008
  0
VERTEX
  8
0
  6
CONTINUOUS
 62
     7
 10
85.17911534476335
 20
217.9121461379863
  0
VERTEX
  8
0
  6
CONTINUOUS
 62
     7
 10
85.18381371052695
 20
217.9233103326628
  0
VERTEX
  8
0
  6
CONTINUOUS
 62
     7
 10
85.18863616276292
 20
217.9337851120674
  0
VERTEX
  8
0
  6
CONTINUOUS
 62
     7
 10
85.1935604213069
 20
217.9435237878019
  0
VERTEX
  8
0
  6
CONTINUOUS
 62
     7
 10
85.19865595558342
 20
217.9526477256886
  0
VERTEX
  8
0
  6
CONTINUOUS
 62
     7
 10
85.20383992573791
 20
217.96099235239
  0
VERTEX
  8
0
  6
CONTINUOUS
 62
     7
 10
85.20911980663313
 20
217.9685698895067
  0
VERTEX
  8
0
  6
CONTINUOUS
 62
     7
 10
85.21447216975925
 20
217.9753462750457
  0
VERTEX
  8
0
  6
CONTINUOUS
 62
     7
 10
85.2194764436209
 20
217.9808904255726
  0
VERTEX
  8
0
  6
CONTINUOUS
 62
     7
 10
85.22452883000882
 20
217.985738095563
  0
VERTEX
  8
0
  6
CONTINUOUS
 62
     7
 10
85.2296354455011
 20
217.9898938556777
  0
VERTEX
  8
0
  6
CONTINUOUS
 62
     7
 10
85.23477778422468
 20
217.9933408286323
  0
VERTEX
  8
0
  6
CONTINUOUS
 62
     7
 10
85.24001356260592
 20
217.9961044073024
  0
VERTEX
  8
0
  6
CONTINUOUS
 62
     7
 10
85.24527315940772
 20
217.9981339873892
  0
VERTEX
  8
0
  6
CONTINUOUS
 62
     7
 10
85.25056308709635
 20
217.9994284705577
  0
VERTEX
  8
0
  6
CONTINUOUS
 62
     7
 10
85.25586403673904
 20
217.9999789173668
  0
VERTEX
  8
0
  6
CONTINUOUS
 62
     7
 10
85.25712416177491
 20
218.0
  0
SEQEND
  8
0
  6
CONTINUOUS
 62
     7
  0
POLYLINE
  8
0
  6
CONTINUOUS
 62
     7
 66
     1
  0
VERTEX
  8
0
  6
CONTINUOUS
 62
     7
 10
86.25
 20
202.5
  0
VERTEX
  8
0
  6
CONTINUOUS
 62
     7
 10
86.25060227189742
 20
202.4754661628363
  0
VERTEX
  8
0
  6
CONTINUOUS
 62
     7
 10
86.2524076366639
 20
202.4509914298352
  0
VERTEX
  8
0
  6
CONTINUOUS
 62
     7
 10
86.25541174501761
 20
202.4266347627723
  0
VERTEX
  8
0
  6
CONTINUOUS
 62
     7
 10
86.25960735979838
 20
202.4024548389919
  0
VERTEX
  8
0
  6
CONTINUOUS
 62
     7
 10
86.26498437340273
 20
202.3785099100483
  0
VERTEX
  8
0
  6
CONTINUOUS
 62
     7
 10
86.27152983213391
 20
202.3548576613728
  0
VERTEX
  8
0
  6
CONTINUOUS
 62
     7
 10
86.27922796740849
 20
202.3315550733039
  0
VERTEX
  8
0
  6
CONTINUOUS
 62
     7
 10
86.28806023374436
 20
202.3086582838174
  0
VERTEX
  8
0
  6
CONTINUOUS
 62
     7
 10
86.29800535343827
 20
202.2862224532848
  0
VERTEX
  8
0
  6
CONTINUOUS
 62
     7
 10
86.30903936782583
 20
202.264301631587
  0
VERTEX
  8
0
  6
CONTINUOUS
 62
     7
 10
86.32113569499987
 20
202.2429486279034
  0
VERTEX
  8
0
  6
CONTINUOUS
 62
     7
 10
86.33426519384874
 20
202.2222148834902
  0
VERTEX
  8
0
  6
CONTINUOUS
 62
     7
 10
86.34839623425967
 20
202.2021503477538
  0
VERTEX
  8
0
  6
CONTINUOUS
 62
     7
 10
86.36349477331864
 20
202.1828033579181
  0
VERTEX
  8
0
  6
CONTINUOUS
 62
     7
 10
86.37952443732252
 20
202.1642205225765
  0
VERTEX
  8
0
  6
CONTINUOUS
 62
     7
 10
86.39644660940674
 20
202.1464466094067
  0
VERTEX
  8
0
  6
CONTINUOUS
 62
     7
 10
86.4142205225765
 20
202.1295244373225
  0
VERTEX
  8
0
  6
CONTINUOUS
 62
     7
 10
86.43280335791817
 20
202.1134947733186
  0
VERTEX
  8
0
  6
CONTINUOUS
 62
     7
 10
86.45215034775379
 20
202.0983962342597
  0
VERTEX
  8
0
  6
CONTINUOUS
 62
     7
 10
86.4722148834902
 20
202.0842651938487
  0
VERTEX
  8
0
  6
CONTINUOUS
 62
     7
 10
86.49294862790339
 20
202.0711356949998
  0
VERTEX
  8
0
  6
CONTINUOUS
 62
     7
 10
86.514301631587
 20
202.0590393678258
  0
VERTEX
  8
0
  6
CONTINUOUS
 62
     7
 10
86.53622245328486
 20
202.0480053534383
  0
VERTEX
  8
0
  6
CONTINUOUS
 62
     7
 10
86.55865828381745
 20
202.0380602337443
  0
VERTEX
  8
0
  6
CONTINUOUS
 62
     7
 10
86.58155507330389
 20
202.0292279674085
  0
VERTEX
  8
0
  6
CONTINUOUS
 62
     7
 10
86.60485766137276
 20
202.0215298321339
  0
VERTEX
  8
0
  6
CONTINUOUS
 62
     7
 10
86.62850991004838
 20
202.0149843734027
  0
VERTEX
  8
0
  6
CONTINUOUS
 62
     7
 10
86.65245483899193
 20
202.0096073597984
  0
VERTEX
  8
0
  6
CONTINUOUS
 62
     7
 10
86.67663476277232
 20
202.0054117450176
  0
VERTEX
  8
0
  6
CONTINUOUS
 62
     7
 10
86.70099142983523
 20
202.0024076366639
  0
VERTEX
  8
0
  6
CONTINUOUS
 62
     7
 10
86.7254661628363
 20
202.0006022718974
  0
VERTEX
  8
0
  6
CONTINUOUS
 62
     7
 10
86.75
 20
202.0
  0
SEQEND
  8
0
  6
CONTINUOUS
 62
     7
  0
POLYLINE
  8
0
  6
CONTINUOUS
 62
     7
 66
     1
  0
VERTEX
  8
0
  6
CONTINUOUS
 62
     7
 10
86.25
 20
217.5
  0
VERTEX
  8
0
  6
CONTINUOUS
 62
     7
 10
86.25060227189742
 20
217.5245338371637
  0
VERTEX
  8
0
  6
CONTINUOUS
 62
     7
 10
86.2524076366639
 20
217.5490085701648
  0
VERTEX
  8
0
  6
CONTINUOUS
 62
     7
 10
86.25541174501761
 20
217.5733652372277
  0
VERTEX
  8
0
  6
CONTINUOUS
 62
     7
 10
86.25960735979838
 20
217.597545161008
  0
VERTEX
  8
0
  6
CONTINUOUS
 62
     7
 10
86.26498437340273
 20
217.6214900899516
  0
VERTEX
  8
0
  6
CONTINUOUS
 62
     7
 10
86.27152983213391
 20
217.6451423386272
  0
VERTEX
  8
0
  6
CONTINUOUS
 62
     7
 10
86.27922796740849
 20
217.6684449266961
  0
VERTEX
  8
0
  6
CONTINUOUS
 62
     7
 10
86.28806023374436
 20
217.6913417161825
  0
VERTEX
  8
0
  6
CONTINUOUS
 62
     7
 10
86.29800535343827
 20
217.7137775467151
  0
VERTEX
  8
0
  6
CONTINUOUS
 62
     7
 10
86.30903936782583
 20
217.735698368413
  0
VERTEX
  8
0
  6
CONTINUOUS
 62
     7
 10
86.32113569499987
 20
217.7570513720966
  0
VERTEX
  8
0
  6
CONTINUOUS
 62
     7
 10
86.33426519384874
 20
217.7777851165098
  0
VERTEX
  8
0
  6
CONTINUOUS
 62
     7
 10
86.34839623425967
 20
217.7978496522462
  0
VERTEX
  8
0
  6
CONTINUOUS
 62
     7
 10
86.36349477331864
 20
217.8171966420818
  0
VERTEX
  8
0
  6
CONTINUOUS
 62
     7
 10
86.37952443732252
 20
217.8357794774235
  0
VERTEX
  8
0
  6
CONTINUOUS
 62
     7
 10
86.39644660940672
 20
217.8535533905932
  0
VERTEX
  8
0
  6
CONTINUOUS
 62
     7
 10
86.4142205225765
 20
217.8704755626775
  0
VERTEX
  8
0
  6
CONTINUOUS
 62
     7
 10
86.43280335791817
 20
217.8865052266814
  0
VERTEX
  8
0
  6
CONTINUOUS
 62
     7
 10
86.45215034775379
 20
217.9016037657403
  0
VERTEX
  8
0
  6
CONTINUOUS
 62
     7
 10
86.4722148834902
 20
217.9157348061512
  0
VERTEX
  8
0
  6
CONTINUOUS
 62
     7
 10
86.49294862790339
 20
217.9288643050001
  0
VERTEX
  8
0
  6
CONTINUOUS
 62
     7
 10
86.514301631587
 20
217.9409606321742
  0
VERTEX
  8
0
  6
CONTINUOUS
 62
     7
 10
86.53622245328486
 20
217.9519946465617
  0
VERTEX
  8
0
  6
CONTINUOUS
 62
     7
 10
86.55865828381745
 20
217.9619397662556
  0
VERTEX
  8
0
  6
CONTINUOUS
 62
     7
 10
86.58155507330389
 20
217.9707720325915
  0
VERTEX
  8
0
  6
CONTINUOUS
 62
     7
 10
86.60485766137276
 20
217.9784701678661
  0
VERTEX
  8
0
  6
CONTINUOUS
 62
     7
 10
86.62850991004836
 20
217.9850156265973
  0
VERTEX
  8
0
  6
CONTINUOUS
 62
     7
 10
86.65245483899193
 20
217.9903926402016
  0
VERTEX
  8
0
  6
CONTINUOUS
 62
     7
 10
86.67663476277232
 20
217.9945882549824
  0
VERTEX
  8
0
  6
CONTINUOUS
 62
     7
 10
86.70099142983523
 20
217.9975923633361
  0
VERTEX
  8
0
  6
CONTINUOUS
 62
     7
 10
86.72546616283628
 20
217.9993977281026
  0
VERTEX
  8
0
  6
CONTINUOUS
 62
     7
 10
86.75
 20
218.0
  0
SEQEND
  8
0
  6
CONTINUOUS
 62
     7
  0
LINE
  8
0
  6
CONTINUOUS
 62
     7
 10
74.88109360038264
 20
217.5
 11
74.88109360038264
 21
202.5
  0
LINE
  8
0
  6
CONTINUOUS
 62
     7
 10
85.11890639961736
 20
202.5
 11
85.11890639961736
 21
217.5
  0
CIRCLE
  8
0
  6
CONTINUOUS
 62
     7
 10
79.99929343741206
 20
210.0043017628504
 40
4.869261730174204
  0
LINE
  8
0
  6
CONTINUOUS
 62
     7
 10
73.75
 20
202.5
 11
73.75
 21
217.5
  0
LINE
  8
0
  6
CONTINUOUS
 62
     7
 10
86.25
 20
217.5
 11
86.25
 21
202.5
  0
CIRCLE
  8
0
  6
CONTINUOUS
 62
     7
 10
80.0
 20
210.0
 40
2.500000000000002
  0
ENDBLK
  8
0
  0
BLOCK
  8
0
  2
D_FRAME_VIEW_1398
 70
     0
 10
0.0
 20
0.0
  0
LINE
  8
0
  6
CONTINUOUS
 62
     7
 10
124.0
 20
169.0
 11
124.3853471816889
 21
180.0348994967025
  0
LINE
  8
0
  6
CONTINUOUS
 62
     7
 10
125.9987816540382
 20
169.0
 11
124.0
 21
169.0
  0
LINE
  8
0
  6
CONTINUOUS
 62
     7
 10
125.9987816540382
 20
169.0
 11
144.0012183459618
 21
169.0
  0
LINE
  8
0
  6
CONTINUOUS
 62
     7
 10
145.614652818311
 20
180.0348994967025
 11
146.0
 21
169.0
  0
LINE
  8
0
  6
CONTINUOUS
 62
     7
 10
146.0
 20
169.0
 11
144.0012183459618
 21
169.0
  0
LINE
  8
0
  6
CONTINUOUS
 62
     7
 10
125.384738008708
 20
181.0
 11
126.3841288357271
 21
181.0
  0
ARC
  8
0
  6
CONTINUOUS
 62
     7
 10
125.384738008708
 20
180.0
 40
1.000000000000001
 50
90.0
 51
177.9999999999999
  0
LINE
  8
0
  6
CONTINUOUS
 62
     7
 10
143.6158711642728
 20
181.0
 11
144.615261991292
 21
181.0
  0
ARC
  8
0
  6
CONTINUOUS
 62
     7
 10
144.615261991292
 20
180.0
 40
0.9999999999999859
 50
2.000000000000248
 51
90.0
  0
LINE
  8
0
  6
CONTINUOUS
 62
     7
 10
126.3841288357271
 20
181.0
 11
143.6158711642728
 21
181.0
  0
ENDBLK
  8
0
  0
ENDSEC
  0
SECTION
  2
ENTITIES
  0
TEXT
  8
0
  6
CONTINUOUS
 62
     1
 10
73.97648805802177
 20
158.3284200325122
 40
3.0
  1
MPBB-15
  0
INSERT
  8
0
  6
CENTER
 62
     7
  2
D_FRAME_VIEW_1288
 10
0.0
 20
0.0
 30
0.0
  0
INSERT
  8
0
  6
CENTER
 62
     7
  2
D_FRAME_VIEW_1386
 10
0.0
 20
0.0
 30
0.0
  0
INSERT
  8
0
  6
CENTER
 62
     7
  2
D_FRAME_VIEW_1398
 10
0.0
 20
0.0
 30
0.0
  0
POINT
  8
0
 62
     1
 10
80.0
 20
210.0
 30
0.0
  0
POINT
  8
0
 62
     1
 10
135.0
 20
175.0
 30
0.0
  0
POINT
  8
0
 62
     1
 10
80.0
 20
210.0
 30
0.0
  0
POINT
  8
0
 62
     1
 10
80.0
 20
175.0
 30
0.0
  0
LINE
  8
0
  6
CENTER
 62
     1
 10
80.0
 20
166.0
 11
80.0
 21
184.0
  0
LINE
  8
0
  6
CENTER
 62
     1
 10
56.99999999999998
 20
210.0
 11
103.0
 21
210.0
  0
LINE
  8
0
  6
CENTER
 62
     1
 10
80.0
 20
196.0
 11
80.0
 21
224.0
  0
LINE
  8
0
  6
CENTER
 62
     1
 10
135.0
 20
166.0
 11
135.0
 21
184.0
  0
ENDSEC
  0
EOF
