  0
SECTION
  2
HEADER
  9
$ACADVER
  1
AC1004
  9
$INSBASE
 10
0.0
 20
0.0
  9
$EXTMIN
 10
51.0
 20
118.6704545454545
  9
$EXTMAX
 10
136.0
 20
191.0
  9
$LIMMIN
 10
0.0
 20
0.0
  9
$LIMMAX
 10
12.0
 20
9.0
  9
$ORTHOMODE
 70
     0
  9
$REGENMODE
 70
     1
  9
$FILLMODE
 70
     1
  9
$QTEXTMODE
 70
     0
  9
$DRAGMODE
 70
     2
  9
$LTSCALE
 40
1.0
  9
$OSMODE
 70
    37
  9
$ATTMODE
 70
     1
  9
$TEXTSIZE
 40
0.2
  9
$TRACEWID
 40
0.05
  9
$TEXTSTYLE
  7
STANDARD
  9
$CLAYER
  8
0
  9
$CELTYPE
  6
BYLAYER
  9
$CECOLOR
 62
   256
  9
$DIMSCALE
 40
1.0
  9
$DIMASZ
 40
3.0
  9
$DIMEXO
 40
0.0625
  9
$DIMDLI
 40
0.38
  9
$DIMRND
 40
0.0
  9
$DIMDLE
 40
0.0
  9
$DIMEXE
 40
1.5
  9
$DIMTP
 40
0.0
  9
$DIMTM
 40
0.0
  9
$DIMTXT
 40
3.0
  9
$DIMCEN
 40
0.09
  9
$DIMTSZ
 40
0.0
  9
$DIMTOL
 70
     0
  9
$DIMLIM
 70
     0
  9
$DIMTIH
 70
     1
  9
$DIMTOH
 70
     1
  9
$DIMSE1
 70
     0
  9
$DIMSE2
 70
     0
  9
$DIMTAD
 70
     1
  9
$DIMZIN
 70
     0
  9
$DIMBLK
  1

  9
$DIMASO
 70
     1
  9
$DIMSHO
 70
     1
  9
$DIMPOST
  1

  9
$DIMAPOST
  1

  9
$DIMALT
 70
     0
  9
$DIMALTD
 70
     2
  9
$DIMALTF
 40
25.4
  9
$DIMLFAC
 40
1.0
  9
$DIMTOFL
 70
     0
  9
$DIMTVP
 40
0.0
  9
$DIMTIX
 70
     0
  9
$DIMSOXD
 70
     0
  9
$DIMSAH
 70
     0
  9
$DIMBLK1
  1

  9
$DIMBLK2
  1

  9
$LUNITS
 70
     2
  9
$LUPREC
 70
     4
  9
$SKETCHINC
 40
0.1
  9
$FILLETRAD
 40
0.5
  9
$AUNITS
 70
     0
  9
$AUPREC
 70
     0
  9
$MENU
  1
.
  9
$ELEVATION
 40
0.0
  9
$THICKNESS
 40
0.0
  9
$LIMCHECK
 70
     0
  9
$CHAMFERA
 40
0.0
  9
$CHAMFERB
 40
0.0
  9
$SKPOLY
 70
     0
  9
$TDCREATE
 40
2458878.483453901
  9
$TDUPDATE
 40
2458878.483454271
  9
$TDINDWG
 40
0.0000000116
  9
$TDUSRTIMER
 40
0.0000000116
  9
$USRTIMER
 70
     1
  9
$ANGBASE
 50
0.0
  9
$ANGDIR
 70
     0
  9
$PDMODE
 70
     0
  9
$PDSIZE
 40
0.0
  9
$PLINEWID
 40
0.0
  9
$COORDS
 70
     1
  9
$SPLFRAME
 70
     0
  9
$SPLINETYPE
 70
     6
  9
$SPLINESEGS
 70
     8
  9
$ATTDIA
 70
     0
  9
$ATTREQ
 70
     1
  9
$SURFTAB1
 70
     6
  9
$SURFTAB2
 70
     6
  9
$SURFTYPE
 70
     6
  9
$SURFU
 70
     6
  9
$SURFV
 70
     6
  9
$UCSNAME
  2

  9
$UCSORG
 10
0.0
 20
0.0
 30
0.0
  9
$UCSXDIR
 10
1.0
 20
0.0
 30
0.0
  9
$UCSYDIR
 10
0.0
 20
1.0
 30
0.0
  9
$USERI1
 70
     0
  9
$USERI2
 70
     0
  9
$USERI3
 70
     0
  9
$USERI4
 70
     0
  9
$USERI5
 70
     0
  9
$USERR1
 40
0.0
  9
$USERR2
 40
0.0
  9
$USERR3
 40
0.0
  9
$USERR4
 40
0.0
  9
$USERR5
 40
0.0
  9
$WORLDVIEW
 70
     1
  0
ENDSEC
  0
SECTION
  2
TABLES
  0
TABLE
  2
LTYPE
 70
     2
  0
LTYPE
  2
CONTINUOUS
 70
     0
  3
Solid line
 72
    65
 73
     0
 40
0.0
  0
LTYPE
  2
CENTER
 70
     0
  3

 72
    65
 73
     0
 40
0.0
  0
ENDTAB
  0
TABLE
  2
LAYER
 70
     1
  0
LAYER
  2
0
 70
     0
 62
     7
  6
CONTINUOUS
  0
ENDTAB
  0
TABLE
  2
STYLE
 70
     2
  0
STYLE
  2
STANDARD
 70
     0
 40
0.0
 41
1.0
 50
0.0
 71
     0
 42
0.2
  3
txt
  4

  0
STYLE
  2
ＭＳ_ゴシック
 70
     0
 40
0.0
 41
1.0
 50
0.0
 71
     0
 42
0.2
  3
ＭＳ ゴシック.shx
  4

  0
ENDTAB
  0
TABLE
  2
VIEW
 70
     0
  0
ENDTAB
  0
ENDSEC
  0
SECTION
  2
BLOCKS
  0
BLOCK
  8
0
  2
D_FRAME_VIEW_1376
 70
     0
 10
0.0
 20
0.0
  0
LINE
  8
0
  6
CONTINUOUS
 62
     7
 10
85.5
 20
162.0
 11
81.90797373358349
 21
162.0
  0
LINE
  8
0
  6
CONTINUOUS
 62
     7
 10
58.09202626641653
 20
162.0
 11
54.50000000000001
 21
162.0
  0
LINE
  8
0
  6
CONTINUOUS
 62
     7
 10
81.90797373358349
 20
188.0
 11
85.50000000000001
 21
188.0
  0
LINE
  8
0
  6
CONTINUOUS
 62
     7
 10
54.50000000000001
 20
188.0
 11
58.09202626641653
 21
188.0
  0
LINE
  8
0
  6
CONTINUOUS
 62
     7
 10
58.09202626641651
 20
162.0
 11
81.9079737335835
 21
162.0
  0
LINE
  8
0
  6
CONTINUOUS
 62
     7
 10
81.9079737335835
 20
188.0
 11
58.09202626641652
 21
188.0
  0
LINE
  8
0
  6
CONTINUOUS
 62
     7
 10
63.49999999999996
 20
167.0
 11
59.69617107236362
 21
167.0
  0
LINE
  8
0
  6
CONTINUOUS
 62
     7
 10
59.69617107236503
 20
183.0
 11
63.5
 21
183.0
  0
LINE
  8
0
  6
CONTINUOUS
 62
     7
 10
80.30382892763498
 20
167.0
 11
76.50000000000001
 21
167.0
  0
LINE
  8
0
  6
CONTINUOUS
 62
     7
 10
76.50000000000006
 20
183.0
 11
80.30382892763639
 21
183.0
  0
POLYLINE
  8
0
  6
CONTINUOUS
 62
     7
 66
     1
  0
VERTEX
  8
0
  6
CONTINUOUS
 62
     7
 10
76.50000000000001
 20
183.0
  0
VERTEX
  8
0
  6
CONTINUOUS
 62
     7
 10
76.45837515906595
 20
182.9991329752481
  0
VERTEX
  8
0
  6
CONTINUOUS
 62
     7
 10
76.41679361046081
 20
182.9965323360232
  0
VERTEX
  8
0
  6
CONTINUOUS
 62
     7
 10
76.37504849330898
 20
182.9921624949333
  0
VERTEX
  8
0
  6
CONTINUOUS
 62
     7
 10
76.3334873266287
 20
182.9860393144326
  0
VERTEX
  8
0
  6
CONTINUOUS
 62
     7
 10
76.29131687531905
 20
182.9779829075405
  0
VERTEX
  8
0
  6
CONTINUOUS
 62
     7
 10
76.24948785442008
 20
182.9681134566346
  0
VERTEX
  8
0
  6
CONTINUOUS
 62
     7
 10
76.2077804295992
 20
182.956350819876
  0
VERTEX
  8
0
  6
CONTINUOUS
 62
     7
 10
76.16657427468884
 20
182.942776370992
  0
VERTEX
  8
0
  6
CONTINUOUS
 62
     7
 10
76.12751987782602
 20
182.9280397774733
  0
VERTEX
  8
0
  6
CONTINUOUS
 62
     7
 10
76.08906918395473
 20
182.9116665313723
  0
VERTEX
  8
0
  6
CONTINUOUS
 62
     7
 10
76.0510328376076
 20
182.8935478251001
  0
VERTEX
  8
0
  6
CONTINUOUS
 62
     7
 10
76.01374779077311
 20
182.8738185103452
  0
VERTEX
  8
0
  6
CONTINUOUS
 62
     7
 10
75.97649564512815
 20
182.8520224917063
  0
VERTEX
  8
0
  6
CONTINUOUS
 62
     7
 10
75.94017299076606
 20
182.8286095098007
  0
VERTEX
  8
0
  6
CONTINUOUS
 62
     7
 10
75.90459107760519
 20
182.803422243684
  0
VERTEX
  8
0
  6
CONTINUOUS
 62
     7
 10
75.87009780827306
 20
182.7766744677518
  0
VERTEX
  8
0
  6
CONTINUOUS
 62
     7
 10
75.83836113012251
 20
182.7498221391134
  0
VERTEX
  8
0
  6
CONTINUOUS
 62
     7
 10
75.80773312221369
 20
182.721641579955
  0
VERTEX
  8
0
  6
CONTINUOUS
 62
     7
 10
75.77806881316596
 20
182.6919642749765
  0
VERTEX
  8
0
  6
CONTINUOUS
 62
     7
 10
75.74964496741187
 20
182.6610350407277
  0
VERTEX
  8
0
  6
CONTINUOUS
 62
     7
 10
75.72192717676933
 20
182.6281733739138
  0
VERTEX
  8
0
  6
CONTINUOUS
 62
     7
 10
75.69562065497107
 20
182.5941160402571
  0
VERTEX
  8
0
  6
CONTINUOUS
 62
     7
 10
75.67059692089694
 20
182.5586497971319
  0
VERTEX
  8
0
  6
CONTINUOUS
 62
     7
 10
75.64711416423211
 20
182.5220974536871
  0
VERTEX
  8
0
  6
CONTINUOUS
 62
     7
 10
75.62627738593902
 20
182.4864237045892
  0
VERTEX
  8
0
  6
CONTINUOUS
 62
     7
 10
75.60691696702571
 20
182.4498918716908
  0
VERTEX
  8
0
  6
CONTINUOUS
 62
     7
 10
75.58895029356694
 20
182.4122955595598
  0
VERTEX
  8
0
  6
CONTINUOUS
 62
     7
 10
75.57255453606429
 20
182.373958435425
  0
VERTEX
  8
0
  6
CONTINUOUS
 62
     7
 10
75.55745061603848
 20
182.334065521628
  0
VERTEX
  8
0
  6
CONTINUOUS
 62
     7
 10
75.54405411633368
 20
182.2935429568247
  0
VERTEX
  8
0
  6
CONTINUOUS
 62
     7
 10
75.53231236984631
 20
182.2521502152394
  0
VERTEX
  8
0
  6
CONTINUOUS
 62
     7
 10
75.52235742236462
 20
182.2102736084117
  0
VERTEX
  8
0
  6
CONTINUOUS
 62
     7
 10
75.51717020604424
 20
182.1845141405892
  0
VERTEX
  8
0
  6
CONTINUOUS
 62
     7
 10
75.51266070036604
 20
182.1586225311812
  0
VERTEX
  8
0
  6
CONTINUOUS
 62
     7
 10
75.50882270437232
 20
182.1325422153447
  0
VERTEX
  8
0
  6
CONTINUOUS
 62
     7
 10
75.50567299110587
 20
182.1063663451644
  0
VERTEX
  8
0
  6
CONTINUOUS
 62
     7
 10
75.50319578220446
 20
182.0798825186723
  0
VERTEX
  8
0
  6
CONTINUOUS
 62
     7
 10
75.50142359374196
 20
182.0533400493508
  0
VERTEX
  8
0
  6
CONTINUOUS
 62
     7
 10
75.50035603948588
 20
182.0266798785908
  0
VERTEX
  8
0
  6
CONTINUOUS
 62
     7
 10
75.50000000000001
 20
182.0
  0
SEQEND
  8
0
  6
CONTINUOUS
 62
     7
  0
POLYLINE
  8
0
  6
CONTINUOUS
 62
     7
 66
     1
  0
VERTEX
  8
0
  6
CONTINUOUS
 62
     7
 10
63.5
 20
167.0
  0
VERTEX
  8
0
  6
CONTINUOUS
 62
     7
 10
63.54162484093405
 20
167.0008670247519
  0
VERTEX
  8
0
  6
CONTINUOUS
 62
     7
 10
63.58320638953919
 20
167.0034676639768
  0
VERTEX
  8
0
  6
CONTINUOUS
 62
     7
 10
63.62495150669103
 20
167.0078375050667
  0
VERTEX
  8
0
  6
CONTINUOUS
 62
     7
 10
63.66651267337131
 20
167.0139606855674
  0
VERTEX
  8
0
  6
CONTINUOUS
 62
     7
 10
63.70868312468096
 20
167.0220170924596
  0
VERTEX
  8
0
  6
CONTINUOUS
 62
     7
 10
63.75051214557993
 20
167.0318865433655
  0
VERTEX
  8
0
  6
CONTINUOUS
 62
     7
 10
63.79221957040082
 20
167.043649180124
  0
VERTEX
  8
0
  6
CONTINUOUS
 62
     7
 10
63.83342572531117
 20
167.0572236290081
  0
VERTEX
  8
0
  6
CONTINUOUS
 62
     7
 10
63.87248012217399
 20
167.0719602225267
  0
VERTEX
  8
0
  6
CONTINUOUS
 62
     7
 10
63.91093081604528
 20
167.0883334686277
  0
VERTEX
  8
0
  6
CONTINUOUS
 62
     7
 10
63.94896716239241
 20
167.1064521748999
  0
VERTEX
  8
0
  6
CONTINUOUS
 62
     7
 10
63.9862522092269
 20
167.1261814896548
  0
VERTEX
  8
0
  6
CONTINUOUS
 62
     7
 10
64.02350435487186
 20
167.1479775082937
  0
VERTEX
  8
0
  6
CONTINUOUS
 62
     7
 10
64.05982700923394
 20
167.1713904901993
  0
VERTEX
  8
0
  6
CONTINUOUS
 62
     7
 10
64.09540892239482
 20
167.196577756316
  0
VERTEX
  8
0
  6
CONTINUOUS
 62
     7
 10
64.12990219172696
 20
167.2233255322482
  0
VERTEX
  8
0
  6
CONTINUOUS
 62
     7
 10
64.1616388698775
 20
167.2501778608866
  0
VERTEX
  8
0
  6
CONTINUOUS
 62
     7
 10
64.19226687778632
 20
167.278358420045
  0
VERTEX
  8
0
  6
CONTINUOUS
 62
     7
 10
64.22193118683406
 20
167.3080357250235
  0
VERTEX
  8
0
  6
CONTINUOUS
 62
     7
 10
64.25035503258815
 20
167.3389649592723
  0
VERTEX
  8
0
  6
CONTINUOUS
 62
     7
 10
64.27807282323069
 20
167.3718266260862
  0
VERTEX
  8
0
  6
CONTINUOUS
 62
     7
 10
64.30437934502895
 20
167.4058839597429
  0
VERTEX
  8
0
  6
CONTINUOUS
 62
     7
 10
64.32940307910306
 20
167.4413502028682
  0
VERTEX
  8
0
  6
CONTINUOUS
 62
     7
 10
64.35288583576789
 20
167.4779025463129
  0
VERTEX
  8
0
  6
CONTINUOUS
 62
     7
 10
64.373722614061
 20
167.5135762954108
  0
VERTEX
  8
0
  6
CONTINUOUS
 62
     7
 10
64.3930830329743
 20
167.5501081283092
  0
VERTEX
  8
0
  6
CONTINUOUS
 62
     7
 10
64.41104970643308
 20
167.5877044404403
  0
VERTEX
  8
0
  6
CONTINUOUS
 62
     7
 10
64.42744546393573
 20
167.626041564575
  0
VERTEX
  8
0
  6
CONTINUOUS
 62
     7
 10
64.44254938396153
 20
167.665934478372
  0
VERTEX
  8
0
  6
CONTINUOUS
 62
     7
 10
64.45594588366633
 20
167.7064570431753
  0
VERTEX
  8
0
  6
CONTINUOUS
 62
     7
 10
64.4676876301537
 20
167.7478497847606
  0
VERTEX
  8
0
  6
CONTINUOUS
 62
     7
 10
64.47764257763538
 20
167.7897263915884
  0
VERTEX
  8
0
  6
CONTINUOUS
 62
     7
 10
64.48282979395577
 20
167.8154858594109
  0
VERTEX
  8
0
  6
CONTINUOUS
 62
     7
 10
64.48733929963397
 20
167.8413774688189
  0
VERTEX
  8
0
  6
CONTINUOUS
 62
     7
 10
64.49117729562768
 20
167.8674577846553
  0
VERTEX
  8
0
  6
CONTINUOUS
 62
     7
 10
64.49432700889413
 20
167.8936336548356
  0
VERTEX
  8
0
  6
CONTINUOUS
 62
     7
 10
64.49680421779554
 20
167.9201174813278
  0
VERTEX
  8
0
  6
CONTINUOUS
 62
     7
 10
64.49857640625805
 20
167.9466599506492
  0
VERTEX
  8
0
  6
CONTINUOUS
 62
     7
 10
64.49964396051413
 20
167.9733201214092
  0
VERTEX
  8
0
  6
CONTINUOUS
 62
     7
 10
64.5
 20
168.0
  0
SEQEND
  8
0
  6
CONTINUOUS
 62
     7
  0
POLYLINE
  8
0
  6
CONTINUOUS
 62
     7
 66
     1
  0
VERTEX
  8
0
  6
CONTINUOUS
 62
     7
 10
75.50000000000001
 20
168.0
  0
VERTEX
  8
0
  6
CONTINUOUS
 62
     7
 10
75.50084671588853
 20
167.9588667460742
  0
VERTEX
  8
0
  6
CONTINUOUS
 62
     7
 10
75.50338367560047
 20
167.917805706157
  0
VERTEX
  8
0
  6
CONTINUOUS
 62
     7
 10
75.5076435389699
 20
167.8765987716811
  0
VERTEX
  8
0
  6
CONTINUOUS
 62
     7
 10
75.51360434295422
 20
167.835611412314
  0
VERTEX
  8
0
  6
CONTINUOUS
 62
     7
 10
75.5214453848411
 20
167.7940145534796
  0
VERTEX
  8
0
  6
CONTINUOUS
 62
     7
 10
75.53103548668378
 20
167.7528001376743
  0
VERTEX
  8
0
  6
CONTINUOUS
 62
     7
 10
75.54244814185381
 20
167.7117404701193
  0
VERTEX
  8
0
  6
CONTINUOUS
 62
     7
 10
75.55559247728833
 20
167.671222824628
  0
VERTEX
  8
0
  6
CONTINUOUS
 62
     7
 10
75.56991594883917
 20
167.6326542585198
  0
VERTEX
  8
0
  6
CONTINUOUS
 62
     7
 10
75.58580348321334
 20
167.5947288207939
  0
VERTEX
  8
0
  6
CONTINUOUS
 62
     7
 10
75.60335407811039
 20
167.5572525412931
  0
VERTEX
  8
0
  6
CONTINUOUS
 62
     7
 10
75.62242565068513
 20
167.5205594286832
  0
VERTEX
  8
0
  6
CONTINUOUS
 62
     7
 10
75.64345076826928
 20
167.4839354942617
  0
VERTEX
  8
0
  6
CONTINUOUS
 62
     7
 10
75.66598341587046
 20
167.448260625479
  0
VERTEX
  8
0
  6
CONTINUOUS
 62
     7
 10
75.69016201491955
 20
167.413347133768
  0
VERTEX
  8
0
  6
CONTINUOUS
 62
     7
 10
75.71577566500179
 20
167.3795226092785
  0
VERTEX
  8
0
  6
CONTINUOUS
 62
     7
 10
75.74199517888685
 20
167.3477516246772
  0
VERTEX
  8
0
  6
CONTINUOUS
 62
     7
 10
75.7694719693294
 20
167.3171172894234
  0
VERTEX
  8
0
  6
CONTINUOUS
 62
     7
 10
75.79835859570811
 20
167.2874702919038
  0
VERTEX
  8
0
  6
CONTINUOUS
 62
     7
 10
75.82841334747056
 20
167.2590739793041
  0
VERTEX
  8
0
  6
CONTINUOUS
 62
     7
 10
75.86026340267641
 20
167.2314062963346
  0
VERTEX
  8
0
  6
CONTINUOUS
 62
     7
 10
75.89321213930988
 20
167.2051361801421
  0
VERTEX
  8
0
  6
CONTINUOUS
 62
     7
 10
75.92744492225377
 20
167.1801342340254
  0
VERTEX
  8
0
  6
CONTINUOUS
 62
     7
 10
75.96266230830538
 20
167.1566328171643
  0
VERTEX
  8
0
  6
CONTINUOUS
 62
     7
 10
75.99801092072357
 20
167.1351264592371
  0
VERTEX
  8
0
  6
CONTINUOUS
 62
     7
 10
76.03417423822349
 20
167.1151235342347
  0
VERTEX
  8
0
  6
CONTINUOUS
 62
     7
 10
76.0713416101767
 20
167.096533751796
  0
VERTEX
  8
0
  6
CONTINUOUS
 62
     7
 10
76.10920289496345
 20
167.0795231547208
  0
VERTEX
  8
0
  6
CONTINUOUS
 62
     7
 10
76.148507384276
 20
167.0638097540654
  0
VERTEX
  8
0
  6
CONTINUOUS
 62
     7
 10
76.18839384867178
 20
167.0497886516914
  0
VERTEX
  8
0
  6
CONTINUOUS
 62
     7
 10
76.22907533390885
 20
167.0373998436639
  0
VERTEX
  8
0
  6
CONTINUOUS
 62
     7
 10
76.27020071556886
 20
167.0267619567265
  0
VERTEX
  8
0
  6
CONTINUOUS
 62
     7
 10
76.29833614541477
 20
167.0205452889045
  0
VERTEX
  8
0
  6
CONTINUOUS
 62
     7
 10
76.32661945503932
 20
167.0151450936158
  0
VERTEX
  8
0
  6
CONTINUOUS
 62
     7
 10
76.35511844660078
 20
167.0105510737578
  0
VERTEX
  8
0
  6
CONTINUOUS
 62
     7
 10
76.3837202326538
 20
167.0067835000837
  0
VERTEX
  8
0
  6
CONTINUOUS
 62
     7
 10
76.41267990144796
 20
167.0038197757946
  0
VERTEX
  8
0
  6
CONTINUOUS
 62
     7
 10
76.44169746282051
 20
167.0017010396888
  0
VERTEX
  8
0
  6
CONTINUOUS
 62
     7
 10
76.47084314435399
 20
167.0004252319553
  0
VERTEX
  8
0
  6
CONTINUOUS
 62
     7
 10
76.50000000000001
 20
167.0
  0
SEQEND
  8
0
  6
CONTINUOUS
 62
     7
  0
POLYLINE
  8
0
  6
CONTINUOUS
 62
     7
 66
     1
  0
VERTEX
  8
0
  6
CONTINUOUS
 62
     7
 10
64.5
 20
182.0
  0
VERTEX
  8
0
  6
CONTINUOUS
 62
     7
 10
64.49915328411149
 20
182.0411332539258
  0
VERTEX
  8
0
  6
CONTINUOUS
 62
     7
 10
64.49661632439954
 20
182.082194293843
  0
VERTEX
  8
0
  6
CONTINUOUS
 62
     7
 10
64.4923564610301
 20
182.1234012283189
  0
VERTEX
  8
0
  6
CONTINUOUS
 62
     7
 10
64.48639565704578
 20
182.164388587686
  0
VERTEX
  8
0
  6
CONTINUOUS
 62
     7
 10
64.47855461515891
 20
182.2059854465204
  0
VERTEX
  8
0
  6
CONTINUOUS
 62
     7
 10
64.46896451331624
 20
182.2471998623257
  0
VERTEX
  8
0
  6
CONTINUOUS
 62
     7
 10
64.45755185814619
 20
182.2882595298807
  0
VERTEX
  8
0
  6
CONTINUOUS
 62
     7
 10
64.44440752271169
 20
182.328777175372
  0
VERTEX
  8
0
  6
CONTINUOUS
 62
     7
 10
64.43008405116083
 20
182.3673457414802
  0
VERTEX
  8
0
  6
CONTINUOUS
 62
     7
 10
64.41419651678667
 20
182.4052711792062
  0
VERTEX
  8
0
  6
CONTINUOUS
 62
     7
 10
64.39664592188961
 20
182.442747458707
  0
VERTEX
  8
0
  6
CONTINUOUS
 62
     7
 10
64.37757434931487
 20
182.4794405713168
  0
VERTEX
  8
0
  6
CONTINUOUS
 62
     7
 10
64.35654923173072
 20
182.5160645057384
  0
VERTEX
  8
0
  6
CONTINUOUS
 62
     7
 10
64.33401658412956
 20
182.5517393745211
  0
VERTEX
  8
0
  6
CONTINUOUS
 62
     7
 10
64.30983798508045
 20
182.586652866232
  0
VERTEX
  8
0
  6
CONTINUOUS
 62
     7
 10
64.28422433499823
 20
182.6204773907215
  0
VERTEX
  8
0
  6
CONTINUOUS
 62
     7
 10
64.25800482111316
 20
182.6522483753228
  0
VERTEX
  8
0
  6
CONTINUOUS
 62
     7
 10
64.23052803067061
 20
182.6828827105767
  0
VERTEX
  8
0
  6
CONTINUOUS
 62
     7
 10
64.2016414042919
 20
182.7125297080962
  0
VERTEX
  8
0
  6
CONTINUOUS
 62
     7
 10
64.17158665252944
 20
182.740926020696
  0
VERTEX
  8
0
  6
CONTINUOUS
 62
     7
 10
64.13973659732359
 20
182.7685937036654
  0
VERTEX
  8
0
  6
CONTINUOUS
 62
     7
 10
64.10678786069013
 20
182.7948638198579
  0
VERTEX
  8
0
  6
CONTINUOUS
 62
     7
 10
64.07255507774624
 20
182.8198657659746
  0
VERTEX
  8
0
  6
CONTINUOUS
 62
     7
 10
64.03733769169463
 20
182.8433671828357
  0
VERTEX
  8
0
  6
CONTINUOUS
 62
     7
 10
64.00198907927644
 20
182.8648735407629
  0
VERTEX
  8
0
  6
CONTINUOUS
 62
     7
 10
63.96582576177652
 20
182.8848764657653
  0
VERTEX
  8
0
  6
CONTINUOUS
 62
     7
 10
63.92865838982331
 20
182.903466248204
  0
VERTEX
  8
0
  6
CONTINUOUS
 62
     7
 10
63.89079710503656
 20
182.9204768452792
  0
VERTEX
  8
0
  6
CONTINUOUS
 62
     7
 10
63.85149261572401
 20
182.9361902459347
  0
VERTEX
  8
0
  6
CONTINUOUS
 62
     7
 10
63.81160615132823
 20
182.9502113483086
  0
VERTEX
  8
0
  6
CONTINUOUS
 62
     7
 10
63.77092466609116
 20
182.9626001563361
  0
VERTEX
  8
0
  6
CONTINUOUS
 62
     7
 10
63.72979928443115
 20
182.9732380432736
  0
VERTEX
  8
0
  6
CONTINUOUS
 62
     7
 10
63.70166385458524
 20
182.9794547110955
  0
VERTEX
  8
0
  6
CONTINUOUS
 62
     7
 10
63.67338054496069
 20
182.9848549063843
  0
VERTEX
  8
0
  6
CONTINUOUS
 62
     7
 10
63.64488155339923
 20
182.9894489262422
  0
VERTEX
  8
0
  6
CONTINUOUS
 62
     7
 10
63.61627976734621
 20
182.9932164999163
  0
VERTEX
  8
0
  6
CONTINUOUS
 62
     7
 10
63.58732009855206
 20
182.9961802242055
  0
VERTEX
  8
0
  6
CONTINUOUS
 62
     7
 10
63.55830253717949
 20
182.9982989603112
  0
VERTEX
  8
0
  6
CONTINUOUS
 62
     7
 10
63.52915685564601
 20
182.9995747680448
  0
VERTEX
  8
0
  6
CONTINUOUS
 62
     7
 10
63.5
 20
183.0
  0
SEQEND
  8
0
  6
CONTINUOUS
 62
     7
  0
LINE
  8
0
  6
CONTINUOUS
 62
     7
 10
75.50000000000001
 20
182.0
 11
75.50000000000001
 21
168.0
  0
LINE
  8
0
  6
CONTINUOUS
 62
     7
 10
64.5
 20
168.0
 11
64.5
 21
182.0
  0
CIRCLE
  8
0
  6
CONTINUOUS
 62
     7
 10
69.99999496944564
 20
174.9999907041274
 40
2.599994969462261
  0
POLYLINE
  8
0
  6
CONTINUOUS
 62
     7
 66
     1
  0
VERTEX
  8
0
  6
CONTINUOUS
 62
     7
 10
64.5
 20
180.0366942480683
  0
VERTEX
  8
0
  6
CONTINUOUS
 62
     7
 10
64.49998749980469
 20
180.0331587086379
  0
VERTEX
  8
0
  6
CONTINUOUS
 62
     7
 10
64.49868319443327
 20
180.0004303477207
  0
VERTEX
  8
0
  6
CONTINUOUS
 62
     7
 10
64.4952267789944
 20
179.9677708313776
  0
VERTEX
  8
0
  6
CONTINUOUS
 62
     7
 10
64.49167322136562
 20
179.9458238183042
  0
VERTEX
  8
0
  6
CONTINUOUS
 62
     7
 10
64.48712310208047
 20
179.9239508109558
  0
VERTEX
  8
0
  6
CONTINUOUS
 62
     7
 10
64.48156841957096
 20
179.9021882732124
  0
VERTEX
  8
0
  6
CONTINUOUS
 62
     7
 10
64.47546626403289
 20
179.881995095923
  0
VERTEX
  8
0
  6
CONTINUOUS
 62
     7
 10
64.46846393636764
 20
179.8619328669711
  0
VERTEX
  8
0
  6
CONTINUOUS
 62
     7
 10
64.46050130888027
 20
179.8419160858471
  0
VERTEX
  8
0
  6
CONTINUOUS
 62
     7
 10
64.45159778748733
 20
179.8220796205692
  0
VERTEX
  8
0
  6
CONTINUOUS
 62
     7
 10
64.44153819425296
 20
179.8020796910414
  0
VERTEX
  8
0
  6
CONTINUOUS
 62
     7
 10
64.43046281865823
 20
179.7823288381694
  0
VERTEX
  8
0
  6
CONTINUOUS
 62
     7
 10
64.41825289821288
 20
179.7627153520043
  0
VERTEX
  8
0
  6
CONTINUOUS
 62
     7
 10
64.40496795755156
 20
179.7434350566411
  0
VERTEX
  8
0
  6
CONTINUOUS
 62
     7
 10
64.39514242843995
 20
179.7303244922597
  0
VERTEX
  8
0
  6
CONTINUOUS
 62
     7
 10
64.38478579525575
 20
179.7174139765678
  0
VERTEX
  8
0
  6
CONTINUOUS
 62
     7
 10
64.3738327472285
 20
179.7046565704085
  0
VERTEX
  8
0
  6
CONTINUOUS
 62
     7
 10
64.36233166872172
 20
179.6921427107893
  0
VERTEX
  8
0
  6
CONTINUOUS
 62
     7
 10
64.35004456072659
 20
179.6796666525627
  0
VERTEX
  8
0
  6
CONTINUOUS
 62
     7
 10
64.33718271228084
 20
179.6674953605578
  0
VERTEX
  8
0
  6
CONTINUOUS
 62
     7
 10
64.32363833917454
 20
179.6555668966483
  0
VERTEX
  8
0
  6
CONTINUOUS
 62
     7
 10
64.30951569831592
 20
179.64401112837
  0
VERTEX
  8
0
  6
CONTINUOUS
 62
     7
 10
64.29842189935557
 20
179.6355156238111
  0
VERTEX
  8
0
  6
CONTINUOUS
 62
     7
 10
64.28700662981663
 20
179.6272712462214
  0
VERTEX
  8
0
  6
CONTINUOUS
 62
     7
 10
64.27520154584525
 20
179.6192448552197
  0
VERTEX
  8
0
  6
CONTINUOUS
 62
     7
 10
64.26309060355408
 20
179.6115080131999
  0
VERTEX
  8
0
  6
CONTINUOUS
 62
     7
 10
64.25040311396025
 20
179.6039147241976
  0
VERTEX
  8
0
  6
CONTINUOUS
 62
     7
 10
64.23742923002229
 20
179.5966631574269
  0
VERTEX
  8
0
  6
CONTINUOUS
 62
     7
 10
64.22407014105033
 20
179.5897128668854
  0
VERTEX
  8
0
  6
CONTINUOUS
 62
     7
 10
64.21046984901075
 20
179.5831499363882
  0
SEQEND
  8
0
  6
CONTINUOUS
 62
     7
  0
POLYLINE
  8
0
  6
CONTINUOUS
 62
     7
 66
     1
  0
VERTEX
  8
0
  6
CONTINUOUS
 62
     7
 10
75.78953015098925
 20
179.5831499363882
  0
VERTEX
  8
0
  6
CONTINUOUS
 62
     7
 10
75.77645973927206
 20
179.5894475975795
  0
VERTEX
  8
0
  6
CONTINUOUS
 62
     7
 10
75.76361093469708
 20
179.5961034971381
  0
VERTEX
  8
0
  6
CONTINUOUS
 62
     7
 10
75.75089957218381
 20
179.6031635978624
  0
VERTEX
  8
0
  6
CONTINUOUS
 62
     7
 10
75.73846009862551
 20
179.610552393765
  0
VERTEX
  8
0
  6
CONTINUOUS
 62
     7
 10
75.72601464422178
 20
179.6184456405405
  0
VERTEX
  8
0
  6
CONTINUOUS
 62
     7
 10
75.71388897943393
 20
179.6266448804177
  0
VERTEX
  8
0
  6
CONTINUOUS
 62
     7
 10
75.70201341160146
 20
179.6351921960486
  0
VERTEX
  8
0
  6
CONTINUOUS
 62
     7
 10
75.6904843016841
 20
179.64401112837
  0
VERTEX
  8
0
  6
CONTINUOUS
 62
     7
 10
75.67682882268207
 20
179.6551706667201
  0
VERTEX
  8
0
  6
CONTINUOUS
 62
     7
 10
75.66371308676565
 20
179.6666792321739
  0
VERTEX
  8
0
  6
CONTINUOUS
 62
     7
 10
75.65104603023532
 20
179.6786006418847
  0
VERTEX
  8
0
  6
CONTINUOUS
 62
     7
 10
75.63893266661424
 20
179.6908179974209
  0
VERTEX
  8
0
  6
CONTINUOUS
 62
     7
 10
75.62713371026238
 20
179.7035716492438
  0
VERTEX
  8
0
  6
CONTINUOUS
 62
     7
 10
75.6159066316808
 20
179.7165813235975
  0
VERTEX
  8
0
  6
CONTINUOUS
 62
     7
 10
75.60518612148394
 20
179.7299012195048
  0
VERTEX
  8
0
  6
CONTINUOUS
 62
     7
 10
75.59503204244845
 20
179.7434350566411
  0
VERTEX
  8
0
  6
CONTINUOUS
 62
     7
 10
75.58217441467929
 20
179.762064111993
  0
VERTEX
  8
0
  6
CONTINUOUS
 62
     7
 10
75.57032173330474
 20
179.7810057908987
  0
VERTEX
  8
0
  6
CONTINUOUS
 62
     7
 10
75.55937526786542
 20
179.8003685956081
  0
VERTEX
  8
0
  6
CONTINUOUS
 62
     7
 10
75.54940882688055
 20
179.8199741643038
  0
VERTEX
  8
0
  6
CONTINUOUS
 62
     7
 10
75.5402252923046
 20
179.8402070868858
  0
VERTEX
  8
0
  6
CONTINUOUS
 62
     7
 10
75.53202403394907
 20
179.8606303528521
  0
VERTEX
  8
0
  6
CONTINUOUS
 62
     7
 10
75.52474766856882
 20
179.8813391171088
  0
VERTEX
  8
0
  6
CONTINUOUS
 62
     7
 10
75.51843158042905
 20
179.9021882732124
  0
VERTEX
  8
0
  6
CONTINUOUS
 62
     7
 10
75.51293415197964
 20
179.9237037224957
  0
VERTEX
  8
0
  6
CONTINUOUS
 62
     7
 10
75.50841879962394
 20
179.9453273206523
  0
VERTEX
  8
0
  6
CONTINUOUS
 62
     7
 10
75.50487776387068
 20
179.9670238003138
  0
VERTEX
  8
0
  6
CONTINUOUS
 62
     7
 10
75.50227690640727
 20
179.9890316580143
  0
VERTEX
  8
0
  6
CONTINUOUS
 62
     7
 10
75.50065613406812
 20
180.0110875823957
  0
VERTEX
  8
0
  6
CONTINUOUS
 62
     7
 10
75.50001250019533
 20
180.0331587086379
  0
VERTEX
  8
0
  6
CONTINUOUS
 62
     7
 10
75.50000000000001
 20
180.0366942480683
  0
SEQEND
  8
0
  6
CONTINUOUS
 62
     7
  0
POLYLINE
  8
0
  6
CONTINUOUS
 62
     7
 66
     1
  0
VERTEX
  8
0
  6
CONTINUOUS
 62
     7
 10
64.21046984901075
 20
170.4168500636119
  0
VERTEX
  8
0
  6
CONTINUOUS
 62
     7
 10
64.22354026072794
 20
170.4105524024206
  0
VERTEX
  8
0
  6
CONTINUOUS
 62
     7
 10
64.23638906530293
 20
170.4038965028619
  0
VERTEX
  8
0
  6
CONTINUOUS
 62
     7
 10
64.2491004278162
 20
170.3968364021376
  0
VERTEX
  8
0
  6
CONTINUOUS
 62
     7
 10
64.2615399013745
 20
170.389447606235
  0
VERTEX
  8
0
  6
CONTINUOUS
 62
     7
 10
64.27398535577824
 20
170.3815543594595
  0
VERTEX
  8
0
  6
CONTINUOUS
 62
     7
 10
64.28611102056608
 20
170.3733551195823
  0
VERTEX
  8
0
  6
CONTINUOUS
 62
     7
 10
64.29798658839856
 20
170.3648078039514
  0
VERTEX
  8
0
  6
CONTINUOUS
 62
     7
 10
64.30951569831592
 20
170.3559888716301
  0
VERTEX
  8
0
  6
CONTINUOUS
 62
     7
 10
64.32317117731793
 20
170.3448293332799
  0
VERTEX
  8
0
  6
CONTINUOUS
 62
     7
 10
64.33628691323436
 20
170.3333207678261
  0
VERTEX
  8
0
  6
CONTINUOUS
 62
     7
 10
64.34895396976468
 20
170.3213993581154
  0
VERTEX
  8
0
  6
CONTINUOUS
 62
     7
 10
64.36106733338578
 20
170.3091820025792
  0
VERTEX
  8
0
  6
CONTINUOUS
 62
     7
 10
64.37286628973762
 20
170.2964283507562
  0
VERTEX
  8
0
  6
CONTINUOUS
 62
     7
 10
64.38409336831921
 20
170.2834186764025
  0
VERTEX
  8
0
  6
CONTINUOUS
 62
     7
 10
64.39481387851608
 20
170.2700987804953
  0
VERTEX
  8
0
  6
CONTINUOUS
 62
     7
 10
64.40496795755156
 20
170.2565649433589
  0
VERTEX
  8
0
  6
CONTINUOUS
 62
     7
 10
64.41782558532071
 20
170.237935888007
  0
VERTEX
  8
0
  6
CONTINUOUS
 62
     7
 10
64.42967826669528
 20
170.2189942091013
  0
VERTEX
  8
0
  6
CONTINUOUS
 62
     7
 10
64.4406247321346
 20
170.1996314043919
  0
VERTEX
  8
0
  6
CONTINUOUS
 62
     7
 10
64.45059117311946
 20
170.1800258356963
  0
VERTEX
  8
0
  6
CONTINUOUS
 62
     7
 10
64.45977470769542
 20
170.1597929131142
  0
VERTEX
  8
0
  6
CONTINUOUS
 62
     7
 10
64.46797596605094
 20
170.1393696471479
  0
VERTEX
  8
0
  6
CONTINUOUS
 62
     7
 10
64.47525233143118
 20
170.1186608828912
  0
VERTEX
  8
0
  6
CONTINUOUS
 62
     7
 10
64.48156841957096
 20
170.0978117267876
  0
VERTEX
  8
0
  6
CONTINUOUS
 62
     7
 10
64.48577881942879
 20
170.0817073486007
  0
VERTEX
  8
0
  6
CONTINUOUS
 62
     7
 10
64.48943589710494
 20
170.0655432334397
  0
VERTEX
  8
0
  6
CONTINUOUS
 62
     7
 10
64.49255283616469
 20
170.0492807683386
  0
VERTEX
  8
0
  6
CONTINUOUS
 62
     7
 10
64.49512223612932
 20
170.0329761996862
  0
VERTEX
  8
0
  6
CONTINUOUS
 62
     7
 10
64.49716272666168
 20
170.016496194544
  0
VERTEX
  8
0
  6
CONTINUOUS
 62
     7
 10
64.49865242632266
 20
169.9999903225648
  0
VERTEX
  8
0
  6
CONTINUOUS
 62
     7
 10
64.49959522650572
 20
169.9834206627054
  0
VERTEX
  8
0
  6
CONTINUOUS
 62
     7
 10
64.49998749980469
 20
169.9668412913621
  0
VERTEX
  8
0
  6
CONTINUOUS
 62
     7
 10
64.5
 20
169.9633057519318
  0
SEQEND
  8
0
  6
CONTINUOUS
 62
     7
  0
POLYLINE
  8
0
  6
CONTINUOUS
 62
     7
 66
     1
  0
VERTEX
  8
0
  6
CONTINUOUS
 62
     7
 10
75.50000000000001
 20
169.9633057519318
  0
VERTEX
  8
0
  6
CONTINUOUS
 62
     7
 10
75.50001250019533
 20
169.9668412913621
  0
VERTEX
  8
0
  6
CONTINUOUS
 62
     7
 10
75.50131680556673
 20
169.9995696522794
  0
VERTEX
  8
0
  6
CONTINUOUS
 62
     7
 10
75.5047732210056
 20
170.0322291686224
  0
VERTEX
  8
0
  6
CONTINUOUS
 62
     7
 10
75.5083267786344
 20
170.0541761816958
  0
VERTEX
  8
0
  6
CONTINUOUS
 62
     7
 10
75.51287689791954
 20
170.0760491890443
  0
VERTEX
  8
0
  6
CONTINUOUS
 62
     7
 10
75.51843158042905
 20
170.0978117267876
  0
VERTEX
  8
0
  6
CONTINUOUS
 62
     7
 10
75.52679053673822
 20
170.1247761299822
  0
VERTEX
  8
0
  6
CONTINUOUS
 62
     7
 10
75.53677266527318
 20
170.1515087230163
  0
VERTEX
  8
0
  6
CONTINUOUS
 62
     7
 10
75.54840221251268
 20
170.1779203794308
  0
VERTEX
  8
0
  6
CONTINUOUS
 62
     7
 10
75.5584983590121
 20
170.1979880482197
  0
VERTEX
  8
0
  6
CONTINUOUS
 62
     7
 10
75.56962855393203
 20
170.2178240522439
  0
VERTEX
  8
0
  6
CONTINUOUS
 62
     7
 10
75.58180303562624
 20
170.2373693608435
  0
VERTEX
  8
0
  6
CONTINUOUS
 62
     7
 10
75.59503204244845
 20
170.2565649433589
  0
VERTEX
  8
0
  6
CONTINUOUS
 62
     7
 10
75.60828497968052
 20
170.2740448135391
  0
VERTEX
  8
0
  6
CONTINUOUS
 62
     7
 10
75.62249828074356
 20
170.2911653093033
  0
VERTEX
  8
0
  6
CONTINUOUS
 62
     7
 10
75.63766833127829
 20
170.3078572892108
  0
VERTEX
  8
0
  6
CONTINUOUS
 62
     7
 10
75.65000044244994
 20
170.32037592649
  0
VERTEX
  8
0
  6
CONTINUOUS
 62
     7
 10
75.66292445438499
 20
170.3325996139689
  0
VERTEX
  8
0
  6
CONTINUOUS
 62
     7
 10
75.67642439736817
 20
170.3444850346735
  0
VERTEX
  8
0
  6
CONTINUOUS
 62
     7
 10
75.6904843016841
 20
170.3559888716301
  0
VERTEX
  8
0
  6
CONTINUOUS
 62
     7
 10
75.7016107937917
 20
170.364507707773
  0
VERTEX
  8
0
  6
CONTINUOUS
 62
     7
 10
75.71306997360874
 20
170.3727805498284
  0
VERTEX
  8
0
  6
CONTINUOUS
 62
     7
 10
75.72484259115392
 20
170.3807833315771
  0
VERTEX
  8
0
  6
CONTINUOUS
 62
     7
 10
75.73690939644594
 20
170.3884919868001
  0
VERTEX
  8
0
  6
CONTINUOUS
 62
     7
 10
75.74964921537823
 20
170.3961137674871
  0
VERTEX
  8
0
  6
CONTINUOUS
 62
     7
 10
75.76269256488193
 20
170.4033990891357
  0
VERTEX
  8
0
  6
CONTINUOUS
 62
     7
 10
75.77599951880349
 20
170.4103203788194
  0
VERTEX
  8
0
  6
CONTINUOUS
 62
     7
 10
75.78953015098925
 20
170.4168500636119
  0
SEQEND
  8
0
  6
CONTINUOUS
 62
     7
  0
POLYLINE
  8
0
  6
CONTINUOUS
 62
     7
 66
     1
  0
VERTEX
  8
0
  6
CONTINUOUS
 62
     7
 10
64.21046984901075
 20
175.4535443116801
  0
VERTEX
  8
0
  6
CONTINUOUS
 62
     7
 10
64.23169968981118
 20
175.4430747721789
  0
VERTEX
  8
0
  6
CONTINUOUS
 62
     7
 10
64.25241022914257
 20
175.4316121826643
  0
VERTEX
  8
0
  6
CONTINUOUS
 62
     7
 10
64.27255504910288
 20
175.4191822338894
  0
VERTEX
  8
0
  6
CONTINUOUS
 62
     7
 10
64.29208899971975
 20
175.4058127847206
  0
VERTEX
  8
0
  6
CONTINUOUS
 62
     7
 10
64.31096830014364
 20
175.3915337996978
  0
VERTEX
  8
0
  6
CONTINUOUS
 62
     7
 10
64.32915063677262
 20
175.3763772818758
  0
VERTEX
  8
0
  6
CONTINUOUS
 62
     7
 10
64.3465952580885
 20
175.3603772010971
  0
VERTEX
  8
0
  6
CONTINUOUS
 62
     7
 10
64.363263065992
 20
175.3435694178563
  0
VERTEX
  8
0
  6
CONTINUOUS
 62
     7
 10
64.37911670343213
 20
175.3259916029268
  0
VERTEX
  8
0
  6
CONTINUOUS
 62
     7
 10
64.39412063813336
 20
175.3076831529307
  0
VERTEX
  8
0
  6
CONTINUOUS
 62
     7
 10
64.40824124223313
 20
175.2886851020402
  0
VERTEX
  8
0
  6
CONTINUOUS
 62
     7
 10
64.42144686765081
 20
175.2690400300091
  0
VERTEX
  8
0
  6
CONTINUOUS
 62
     7
 10
64.43370791701979
 20
175.24879196674
  0
VERTEX
  8
0
  6
CONTINUOUS
 62
     7
 10
64.44499691002291
 20
175.2279862936013
  0
VERTEX
  8
0
  6
CONTINUOUS
 62
     7
 10
64.45528854498346
 20
175.2066696417156
  0
VERTEX
  8
0
  6
CONTINUOUS
 62
     7
 10
64.46455975557295
 20
175.1848897874465
  0
VERTEX
  8
0
  6
CONTINUOUS
 62
     7
 10
64.47278976250902
 20
175.1626955453191
  0
VERTEX
  8
0
  6
CONTINUOUS
 62
     7
 10
64.4799601201274
 20
175.1401366586133
  0
VERTEX
  8
0
  6
CONTINUOUS
 62
     7
 10
64.48605475772358
 20
175.117263687876
  0
VERTEX
  8
0
  6
CONTINUOUS
 62
     7
 10
64.49106001557168
 20
175.0941278976009
  0
VERTEX
  8
0
  6
CONTINUOUS
 62
     7
 10
64.49496467553944
 20
175.0707811413312
  0
VERTEX
  8
0
  6
CONTINUOUS
 62
     7
 10
64.49775998623123
 20
175.0472757454419
  0
VERTEX
  8
0
  6
CONTINUOUS
 62
     7
 10
64.49943968260223
 20
175.0236643918619
  0
VERTEX
  8
0
  6
CONTINUOUS
 62
     7
 10
64.5
 20
175.0
  0
SEQEND
  8
0
  6
CONTINUOUS
 62
     7
  0
POLYLINE
  8
0
  6
CONTINUOUS
 62
     7
 66
     1
  0
VERTEX
  8
0
  6
CONTINUOUS
 62
     7
 10
75.78953015098925
 20
175.4535443116801
  0
VERTEX
  8
0
  6
CONTINUOUS
 62
     7
 10
75.76830031018883
 20
175.4430747721789
  0
VERTEX
  8
0
  6
CONTINUOUS
 62
     7
 10
75.74758977085743
 20
175.4316121826643
  0
VERTEX
  8
0
  6
CONTINUOUS
 62
     7
 10
75.72744495089712
 20
175.4191822338894
  0
VERTEX
  8
0
  6
CONTINUOUS
 62
     7
 10
75.70791100028026
 20
175.4058127847206
  0
VERTEX
  8
0
  6
CONTINUOUS
 62
     7
 10
75.68903169985637
 20
175.3915337996978
  0
VERTEX
  8
0
  6
CONTINUOUS
 62
     7
 10
75.67084936322739
 20
175.3763772818758
  0
VERTEX
  8
0
  6
CONTINUOUS
 62
     7
 10
75.65340474191152
 20
175.3603772010971
  0
VERTEX
  8
0
  6
CONTINUOUS
 62
     7
 10
75.636736934008
 20
175.3435694178563
  0
VERTEX
  8
0
  6
CONTINUOUS
 62
     7
 10
75.62088329656788
 20
175.3259916029268
  0
VERTEX
  8
0
  6
CONTINUOUS
 62
     7
 10
75.60587936186664
 20
175.3076831529307
  0
VERTEX
  8
0
  6
CONTINUOUS
 62
     7
 10
75.59175875776688
 20
175.2886851020402
  0
VERTEX
  8
0
  6
CONTINUOUS
 62
     7
 10
75.57855313234919
 20
175.2690400300091
  0
VERTEX
  8
0
  6
CONTINUOUS
 62
     7
 10
75.56629208298023
 20
175.24879196674
  0
VERTEX
  8
0
  6
CONTINUOUS
 62
     7
 10
75.5550030899771
 20
175.2279862936013
  0
VERTEX
  8
0
  6
CONTINUOUS
 62
     7
 10
75.54471145501655
 20
175.2066696417156
  0
VERTEX
  8
0
  6
CONTINUOUS
 62
     7
 10
75.53544024442705
 20
175.1848897874465
  0
VERTEX
  8
0
  6
CONTINUOUS
 62
     7
 10
75.52721023749098
 20
175.1626955453191
  0
VERTEX
  8
0
  6
CONTINUOUS
 62
     7
 10
75.52003987987261
 20
175.1401366586133
  0
VERTEX
  8
0
  6
CONTINUOUS
 62
     7
 10
75.51394524227644
 20
175.117263687876
  0
VERTEX
  8
0
  6
CONTINUOUS
 62
     7
 10
75.50893998442834
 20
175.0941278976009
  0
VERTEX
  8
0
  6
CONTINUOUS
 62
     7
 10
75.50503532446058
 20
175.0707811413312
  0
VERTEX
  8
0
  6
CONTINUOUS
 62
     7
 10
75.50224001376877
 20
175.0472757454419
  0
VERTEX
  8
0
  6
CONTINUOUS
 62
     7
 10
75.50056031739778
 20
175.0236643918619
  0
VERTEX
  8
0
  6
CONTINUOUS
 62
     7
 10
75.50000000000001
 20
175.0
  0
SEQEND
  8
0
  6
CONTINUOUS
 62
     7
  0
POLYLINE
  8
0
  6
CONTINUOUS
 62
     7
 66
     1
  0
VERTEX
  8
0
  6
CONTINUOUS
 62
     7
 10
64.5
 20
175.0
  0
VERTEX
  8
0
  6
CONTINUOUS
 62
     7
 10
64.49943968260223
 20
174.9763356081381
  0
VERTEX
  8
0
  6
CONTINUOUS
 62
     7
 10
64.49775998623123
 20
174.9527242545581
  0
VERTEX
  8
0
  6
CONTINUOUS
 62
     7
 10
64.49496467553944
 20
174.9292188586688
  0
VERTEX
  8
0
  6
CONTINUOUS
 62
     7
 10
64.49106001557168
 20
174.9058721023991
  0
VERTEX
  8
0
  6
CONTINUOUS
 62
     7
 10
64.48605475772358
 20
174.8827363121241
  0
VERTEX
  8
0
  6
CONTINUOUS
 62
     7
 10
64.4799601201274
 20
174.8598633413867
  0
VERTEX
  8
0
  6
CONTINUOUS
 62
     7
 10
64.47278976250902
 20
174.837304454681
  0
VERTEX
  8
0
  6
CONTINUOUS
 62
     7
 10
64.46455975557295
 20
174.8151102125535
  0
VERTEX
  8
0
  6
CONTINUOUS
 62
     7
 10
64.45528854498346
 20
174.7933303582844
  0
VERTEX
  8
0
  6
CONTINUOUS
 62
     7
 10
64.44499691002291
 20
174.7720137063987
  0
VERTEX
  8
0
  6
CONTINUOUS
 62
     7
 10
64.43370791701979
 20
174.75120803326
  0
VERTEX
  8
0
  6
CONTINUOUS
 62
     7
 10
64.42144686765083
 20
174.7309599699909
  0
VERTEX
  8
0
  6
CONTINUOUS
 62
     7
 10
64.40824124223313
 20
174.7113148979598
  0
VERTEX
  8
0
  6
CONTINUOUS
 62
     7
 10
64.39412063813336
 20
174.6923168470693
  0
VERTEX
  8
0
  6
CONTINUOUS
 62
     7
 10
64.37911670343213
 20
174.6740083970732
  0
VERTEX
  8
0
  6
CONTINUOUS
 62
     7
 10
64.363263065992
 20
174.6564305821437
  0
VERTEX
  8
0
  6
CONTINUOUS
 62
     7
 10
64.3465952580885
 20
174.6396227989029
  0
VERTEX
  8
0
  6
CONTINUOUS
 62
     7
 10
64.32915063677262
 20
174.6236227181243
  0
VERTEX
  8
0
  6
CONTINUOUS
 62
     7
 10
64.31096830014364
 20
174.6084662003022
  0
VERTEX
  8
0
  6
CONTINUOUS
 62
     7
 10
64.29208899971975
 20
174.5941872152794
  0
VERTEX
  8
0
  6
CONTINUOUS
 62
     7
 10
64.27255504910289
 20
174.5808177661106
  0
VERTEX
  8
0
  6
CONTINUOUS
 62
     7
 10
64.25241022914257
 20
174.5683878173358
  0
VERTEX
  8
0
  6
CONTINUOUS
 62
     7
 10
64.23169968981118
 20
174.5569252278211
  0
VERTEX
  8
0
  6
CONTINUOUS
 62
     7
 10
64.21046984901075
 20
174.5464556883199
  0
SEQEND
  8
0
  6
CONTINUOUS
 62
     7
  0
POLYLINE
  8
0
  6
CONTINUOUS
 62
     7
 66
     1
  0
VERTEX
  8
0
  6
CONTINUOUS
 62
     7
 10
75.50000000000001
 20
175.0
  0
VERTEX
  8
0
  6
CONTINUOUS
 62
     7
 10
75.50056031739778
 20
174.9763356081381
  0
VERTEX
  8
0
  6
CONTINUOUS
 62
     7
 10
75.50224001376877
 20
174.9527242545581
  0
VERTEX
  8
0
  6
CONTINUOUS
 62
     7
 10
75.50503532446058
 20
174.9292188586688
  0
VERTEX
  8
0
  6
CONTINUOUS
 62
     7
 10
75.50893998442834
 20
174.9058721023991
  0
VERTEX
  8
0
  6
CONTINUOUS
 62
     7
 10
75.51394524227644
 20
174.8827363121241
  0
VERTEX
  8
0
  6
CONTINUOUS
 62
     7
 10
75.52003987987261
 20
174.8598633413867
  0
VERTEX
  8
0
  6
CONTINUOUS
 62
     7
 10
75.52721023749098
 20
174.837304454681
  0
VERTEX
  8
0
  6
CONTINUOUS
 62
     7
 10
75.53544024442705
 20
174.8151102125535
  0
VERTEX
  8
0
  6
CONTINUOUS
 62
     7
 10
75.54471145501655
 20
174.7933303582844
  0
VERTEX
  8
0
  6
CONTINUOUS
 62
     7
 10
75.5550030899771
 20
174.7720137063987
  0
VERTEX
  8
0
  6
CONTINUOUS
 62
     7
 10
75.56629208298023
 20
174.75120803326
  0
VERTEX
  8
0
  6
CONTINUOUS
 62
     7
 10
75.57855313234919
 20
174.7309599699909
  0
VERTEX
  8
0
  6
CONTINUOUS
 62
     7
 10
75.59175875776688
 20
174.7113148979598
  0
VERTEX
  8
0
  6
CONTINUOUS
 62
     7
 10
75.60587936186664
 20
174.6923168470693
  0
VERTEX
  8
0
  6
CONTINUOUS
 62
     7
 10
75.62088329656788
 20
174.6740083970732
  0
VERTEX
  8
0
  6
CONTINUOUS
 62
     7
 10
75.636736934008
 20
174.6564305821437
  0
VERTEX
  8
0
  6
CONTINUOUS
 62
     7
 10
75.65340474191152
 20
174.6396227989029
  0
VERTEX
  8
0
  6
CONTINUOUS
 62
     7
 10
75.67084936322739
 20
174.6236227181243
  0
VERTEX
  8
0
  6
CONTINUOUS
 62
     7
 10
75.68903169985637
 20
174.6084662003022
  0
VERTEX
  8
0
  6
CONTINUOUS
 62
     7
 10
75.70791100028026
 20
174.5941872152794
  0
VERTEX
  8
0
  6
CONTINUOUS
 62
     7
 10
75.72744495089711
 20
174.5808177661106
  0
VERTEX
  8
0
  6
CONTINUOUS
 62
     7
 10
75.74758977085743
 20
174.5683878173358
  0
VERTEX
  8
0
  6
CONTINUOUS
 62
     7
 10
75.76830031018883
 20
174.5569252278211
  0
VERTEX
  8
0
  6
CONTINUOUS
 62
     7
 10
75.78953015098925
 20
174.5464556883199
  0
SEQEND
  8
0
  6
CONTINUOUS
 62
     7
  0
LINE
  8
0
  6
CONTINUOUS
 62
     7
 10
75.95642212862619
 20
174.5019026509541
 11
78.62245282494922
 21
174.2686551884138
  0
LINE
  8
0
  6
CONTINUOUS
 62
     7
 10
75.91317591116655
 20
170.4557096284378
 11
78.62245282494922
 21
170.9334282465483
  0
LINE
  8
0
  6
CONTINUOUS
 62
     7
 10
75.78953015098925
 20
174.5464556883199
 11
75.95642212862619
 21
174.5019026509541
  0
LINE
  8
0
  6
CONTINUOUS
 62
     7
 10
75.78953015098925
 20
170.4168500636119
 11
75.91317591116655
 21
170.4557096284378
  0
LINE
  8
0
  6
CONTINUOUS
 62
     7
 10
64.04357787137383
 20
174.5019026509541
 11
61.37754717505079
 21
174.2686551884138
  0
LINE
  8
0
  6
CONTINUOUS
 62
     7
 10
64.08682408883347
 20
170.4557096284378
 11
61.37754717505079
 21
170.9334282465483
  0
LINE
  8
0
  6
CONTINUOUS
 62
     7
 10
64.21046984901075
 20
174.5464556883199
 11
64.04357787137383
 21
174.5019026509541
  0
LINE
  8
0
  6
CONTINUOUS
 62
     7
 10
64.08682408883347
 20
170.4557096284378
 11
64.21046984901075
 21
170.4168500636119
  0
LINE
  8
0
  6
CONTINUOUS
 62
     7
 10
61.37754717505079
 20
175.7313448115863
 11
64.04357787137387
 21
175.4980973490459
  0
LINE
  8
0
  6
CONTINUOUS
 62
     7
 10
64.08682408883347
 20
179.5442903715622
 11
61.37754717505079
 21
179.0665717534517
  0
LINE
  8
0
  6
CONTINUOUS
 62
     7
 10
64.04357787137387
 20
175.4980973490459
 11
64.21046984901075
 21
175.4535443116801
  0
LINE
  8
0
  6
CONTINUOUS
 62
     7
 10
64.21046984901075
 20
179.5831499363882
 11
64.08682408883347
 21
179.5442903715622
  0
LINE
  8
0
  6
CONTINUOUS
 62
     7
 10
78.62245282494922
 20
175.7313448115863
 11
75.95642212862614
 21
175.4980973490459
  0
LINE
  8
0
  6
CONTINUOUS
 62
     7
 10
75.91317591116655
 20
179.5442903715622
 11
78.62245282494922
 21
179.0665717534517
  0
LINE
  8
0
  6
CONTINUOUS
 62
     7
 10
75.95642212862614
 20
175.4980973490459
 11
75.78953015098925
 21
175.4535443116801
  0
LINE
  8
0
  6
CONTINUOUS
 62
     7
 10
75.91317591116655
 20
179.5442903715622
 11
75.78953015098925
 21
179.5831499363882
  0
LINE
  8
0
  6
CONTINUOUS
 62
     7
 10
61.37754717505079
 20
174.2686551884138
 11
61.00000000000001
 21
174.2356240906506
  0
LINE
  8
0
  6
CONTINUOUS
 62
     7
 10
61.37754717505079
 20
170.9334282465483
 11
61.00000000000001
 21
171.0
  0
LINE
  8
0
  6
CONTINUOUS
 62
     7
 10
78.62245282494922
 20
174.2686551884138
 11
79.0
 21
174.2356240906506
  0
LINE
  8
0
  6
CONTINUOUS
 62
     7
 10
78.62245282494922
 20
170.9334282465483
 11
79.0
 21
171.0
  0
LINE
  8
0
  6
CONTINUOUS
 62
     7
 10
61.00000000000001
 20
175.7643759093494
 11
61.37754717505079
 21
175.7313448115863
  0
LINE
  8
0
  6
CONTINUOUS
 62
     7
 10
61.37754717505079
 20
179.0665717534517
 11
61.00000000000001
 21
179.0
  0
LINE
  8
0
  6
CONTINUOUS
 62
     7
 10
79.0
 20
175.7643759093494
 11
78.62245282494922
 21
175.7313448115863
  0
LINE
  8
0
  6
CONTINUOUS
 62
     7
 10
78.62245282494922
 20
179.0665717534517
 11
79.0
 21
179.0
  0
LINE
  8
0
  6
CONTINUOUS
 62
     7
 10
86.0
 20
162.5
 11
86.0
 21
166.5857864376269
  0
ARC
  8
0
  6
CONTINUOUS
 62
     7
 10
85.5
 20
162.5
 40
0.5000000000000004
 50
269.9999999999998
 51
0.0
  0
ARC
  8
0
  6
CONTINUOUS
 62
     7
 10
54.50000000000001
 20
162.5
 40
0.5000000000000004
 50
180.0
 51
270.0000000000002
  0
LINE
  8
0
  6
CONTINUOUS
 62
     7
 10
54.00000000000001
 20
166.5857864376269
 11
54.00000000000001
 21
162.5
  0
LINE
  8
0
  6
CONTINUOUS
 62
     7
 10
86.0
 20
183.4142135623731
 11
86.0
 21
187.5
  0
ARC
  8
0
  6
CONTINUOUS
 62
     7
 10
54.50000000000001
 20
166.5857864376269
 40
0.4999999999999992
 50
109.471220634491
 51
180.0
  0
ARC
  8
0
  6
CONTINUOUS
 62
     7
 10
85.5
 20
166.5857864376269
 40
0.5000000000000004
 50
0.0
 51
70.52877936550898
  0
LINE
  8
0
  6
CONTINUOUS
 62
     7
 10
54.00000000000001
 20
187.5
 11
54.00000000000001
 21
183.4142135623731
  0
ARC
  8
0
  6
CONTINUOUS
 62
     7
 10
85.5
 20
187.5
 40
0.5000000000000004
 50
0.0
 51
90.0000000000002
  0
ARC
  8
0
  6
CONTINUOUS
 62
     7
 10
54.50000000000001
 20
187.5
 40
0.5000000000000004
 50
89.99999999999982
 51
180.0
  0
ARC
  8
0
  6
CONTINUOUS
 62
     7
 10
85.5
 20
183.4142135623731
 40
0.4999999999999968
 50
289.4712206344906
 51
0.0
  0
ARC
  8
0
  6
CONTINUOUS
 62
     7
 10
54.50000000000001
 20
183.4142135623731
 40
0.5000000000000004
 50
180.0
 51
250.5287793655089
  0
ARC
  8
0
  6
CONTINUOUS
 62
     7
 10
60.50000000000001
 20
182.0
 40
0.9999999999999939
 50
90.00000000000011
 51
180.0
  0
ARC
  8
0
  6
CONTINUOUS
 62
     7
 10
54.00000000000001
 20
182.0
 40
0.9999999999999984
 50
359.9999999999999
 51
70.52877936550902
  0
ARC
  8
0
  6
CONTINUOUS
 62
     7
 10
86.00000000000001
 20
182.0
 40
1.000000000000001
 50
109.471220634491
 51
180.0
  0
ARC
  8
0
  6
CONTINUOUS
 62
     7
 10
79.5
 20
182.0
 40
1.000000000000001
 50
359.9999999999999
 51
89.9999999999999
  0
ARC
  8
0
  6
CONTINUOUS
 62
     7
 10
54.00000000000001
 20
168.0
 40
1.000000000000001
 50
289.471220634491
 51
0.0
  0
ARC
  8
0
  6
CONTINUOUS
 62
     7
 10
60.50000000000001
 20
168.0
 40
1.000000000000001
 50
180.0
 51
269.9999999999999
  0
ARC
  8
0
  6
CONTINUOUS
 62
     7
 10
79.5
 20
168.0
 40
1.000000000000001
 50
270.0000000000001
 51
0.0
  0
ARC
  8
0
  6
CONTINUOUS
 62
     7
 10
86.00000000000001
 20
168.0
 40
1.000000000000003
 50
180.0
 51
250.5287793655091
  0
LINE
  8
0
  6
CONTINUOUS
 62
     7
 10
85.0
 20
168.0
 11
85.0
 21
182.0
  0
LINE
  8
0
  6
CONTINUOUS
 62
     7
 10
80.5
 20
182.0
 11
80.5
 21
168.0
  0
LINE
  8
0
  6
CONTINUOUS
 62
     7
 10
59.5
 20
168.0
 11
59.5
 21
182.0
  0
LINE
  8
0
  6
CONTINUOUS
 62
     7
 10
55.00000000000001
 20
182.0
 11
55.00000000000001
 21
168.0
  0
LINE
  8
0
  6
CONTINUOUS
 62
     7
 10
61.00000000000001
 20
174.2356240906506
 11
61.00000000000001
 21
171.0
  0
LINE
  8
0
  6
CONTINUOUS
 62
     7
 10
79.0
 20
171.0
 11
79.0
 21
174.2356240906506
  0
LINE
  8
0
  6
CONTINUOUS
 62
     7
 10
61.00000000000001
 20
179.0
 11
61.00000000000001
 21
175.7643759093494
  0
LINE
  8
0
  6
CONTINUOUS
 62
     7
 10
79.0
 20
175.7643759093494
 11
79.0
 21
179.0
  0
ENDBLK
  8
0
  0
BLOCK
  8
0
  2
D_FRAME_VIEW_1288
 70
     0
 10
0.0
 20
0.0
  0
ARC
  8
0
  6
CONTINUOUS
 62
     7
 10
70.0
 20
174.6406250000001
 40
38.39062500000003
 50
252.1701460857043
 51
287.8298539142958
  0
ARC
  8
0
  6
CONTINUOUS
 62
     7
 10
57.25000000000001
 20
135.0
 40
3.25
 50
72.17014608570412
 51
287.8298539142957
  0
ARC
  8
0
  6
CONTINUOUS
 62
     7
 10
82.75
 20
135.0
 40
3.249999999999998
 50
252.1701460857045
 51
0.0
  0
ARC
  8
0
  6
CONTINUOUS
 62
     7
 10
82.75
 20
135.0
 40
3.249999999999999
 50
0.0
 51
107.8298539142958
  0
ARC
  8
0
  6
CONTINUOUS
 62
     7
 10
70.0
 20
95.35937499999999
 40
38.39062500000002
 50
72.17014608570425
 51
107.8298539142957
  0
ENDBLK
  8
0
  0
BLOCK
  8
0
  2
D_FRAME_VIEW_1398
 70
     0
 10
0.0
 20
0.0
  0
LINE
  8
0
  6
CONTINUOUS
 62
     7
 10
133.0
 20
137.75
 11
133.0
 21
132.25
  0
LINE
  8
0
  6
CONTINUOUS
 62
     7
 10
107.0
 20
132.25
 11
107.0
 21
137.75
  0
ARC
  8
0
  6
CONTINUOUS
 62
     7
 10
132.5
 20
132.25
 40
0.5000000000000004
 50
270.0
 51
0.0000000000001137
  0
ARC
  8
0
  6
CONTINUOUS
 62
     7
 10
132.5
 20
137.75
 40
0.5000000000000004
 50
359.9999999999998
 51
90.0
  0
ARC
  8
0
  6
CONTINUOUS
 62
     7
 10
128.4142135623731
 20
137.75
 40
0.5000000000000004
 50
90.0
 51
160.5287793655093
  0
ARC
  8
0
  6
CONTINUOUS
 62
     7
 10
128.4142135623731
 20
132.25
 40
0.4999999999999923
 50
199.4712206344907
 51
270.0
  0
ARC
  8
0
  6
CONTINUOUS
 62
     7
 10
111.5857864376269
 20
137.75
 40
0.5000000000000016
 50
19.47122063449113
 51
90.00000000000001
  0
ARC
  8
0
  6
CONTINUOUS
 62
     7
 10
111.5857864376269
 20
132.25
 40
0.5000000000000004
 50
270.0
 51
340.5287793655089
  0
ARC
  8
0
  6
CONTINUOUS
 62
     7
 10
107.5
 20
137.75
 40
0.5000000000000004
 50
90.0
 51
180.0000000000001
  0
ARC
  8
0
  6
CONTINUOUS
 62
     7
 10
107.5
 20
132.25
 40
0.5000000000000004
 50
179.9999999999999
 51
270.0
  0
LINE
  8
0
  6
CONTINUOUS
 62
     7
 10
132.5
 20
138.25
 11
128.4142135623731
 21
138.25
  0
LINE
  8
0
  6
CONTINUOUS
 62
     7
 10
128.4142135623731
 20
131.75
 11
132.5
 21
131.75
  0
LINE
  8
0
  6
CONTINUOUS
 62
     7
 10
107.5
 20
131.75
 11
111.5857864376269
 21
131.75
  0
LINE
  8
0
  6
CONTINUOUS
 62
     7
 10
111.5857864376269
 20
138.25
 11
107.5
 21
138.25
  0
ARC
  8
0
  6
CONTINUOUS
 62
     7
 10
127.0
 20
131.75
 40
1.000000000000001
 50
19.47122063449092
 51
90.00000000000006
  0
ARC
  8
0
  6
CONTINUOUS
 62
     7
 10
127.0
 20
138.25
 40
0.9999999999999937
 50
270.0
 51
340.5287793655091
  0
ARC
  8
0
  6
CONTINUOUS
 62
     7
 10
113.0
 20
138.25
 40
1.000000000000001
 50
199.4712206344907
 51
270.0
  0
ARC
  8
0
  6
CONTINUOUS
 62
     7
 10
113.0
 20
131.75
 40
1.000000000000007
 50
90.0
 51
160.5287793655092
  0
LINE
  8
0
  6
CONTINUOUS
 62
     7
 10
113.0
 20
132.75
 11
127.0
 21
132.75
  0
LINE
  8
0
  6
CONTINUOUS
 62
     7
 10
127.0
 20
137.25
 11
113.0
 21
137.25
  0
ENDBLK
  8
0
  0
ENDSEC
  0
SECTION
  2
ENTITIES
  0
LINE
  8
0
  6
CENTER
 62
     1
 10
120.0
 20
128.75
 11
120.0
 21
141.25
  0
INSERT
  8
0
  6
CONTINUOUS
 62
     7
  2
D_FRAME_VIEW_1376
 10
0.0
 20
0.0
 30
0.0
  0
INSERT
  8
0
  6
CONTINUOUS
 62
     7
  2
D_FRAME_VIEW_1288
 10
0.0
 20
0.0
 30
0.0
  0
POINT
  8
0
 62
     1
 10
120.0
 20
135.0
 30
0.0
  0
POINT
  8
0
 62
     1
 10
70.0
 20
175.0
 30
0.0
  0
POINT
  8
0
 62
     1
 10
70.0
 20
135.0
 30
0.0
  0
POINT
  8
0
 62
     1
 10
70.0
 20
135.0
 30
0.0
  0
POINT
  8
0
 62
     1
 10
120.0
 20
135.0
 30
0.0
  0
POINT
  8
0
 62
     1
 10
70.0
 20
175.0
 30
0.0
  0
INSERT
  8
0
  6
CONTINUOUS
 62
     7
  2
D_FRAME_VIEW_1398
 10
0.0
 20
0.0
 30
0.0
  0
TEXT
  8
0
  6
CONTINUOUS
 62
     1
 10
63.06966987620358
 20
118.3284200325122
 40
3.0
  1
MPBSP-10
  0
LINE
  8
0
  6
CENTER
 62
     1
 10
70.0
 20
128.75
 11
70.0
 21
141.25
  0
LINE
  8
0
  6
CENTER
 62
     1
 10
104.0
 20
135.0
 11
136.0
 21
135.0
  0
LINE
  8
0
  6
CENTER
 62
     1
 10
70.0
 20
159.0
 11
70.0
 21
191.0
  0
LINE
  8
0
  6
CENTER
 62
     1
 10
51.0
 20
175.0
 11
89.00000000000001
 21
175.0
  0
LINE
  8
0
  6
CENTER
 62
     1
 10
51.0
 20
135.0
 11
89.00000000000001
 21
135.0
  0
ENDSEC
  0
EOF
