  0
SECTION
  2
HEADER
  9
$ACADVER
  1
AC1027
  9
$ACADMAINTVER
 70
   105
  9
$DWGCODEPAGE
  3
ANSI_932
  9
$REQUIREDVERSIONS
160
                 0
  9
$INSBASE
 10
0.0
 20
0.0
 30
0.0
  9
$EXTMIN
 10
70.99999999999999
 20
160.8556927597849
 30
0.0
  9
$EXTMAX
 10
130.4644301426277
 20
222.9644696862094
 30
0.0
  9
$LIMMIN
 10
0.0
 20
0.0
  9
$LIMMAX
 10
12.0
 20
9.0
  9
$ORTHOMODE
 70
     0
  9
$REGENMODE
 70
     1
  9
$FILLMODE
 70
     1
  9
$QTEXTMODE
 70
     0
  9
$MIRRTEXT
 70
     1
  9
$LTSCALE
 40
1.0
  9
$ATTMODE
 70
     1
  9
$TEXTSIZE
 40
0.2
  9
$TRACEWID
 40
0.05
  9
$TEXTSTYLE
  7
Standard
  9
$CLAYER
  8
0
  9
$CELTYPE
  6
ByLayer
  9
$CECOLOR
 62
   256
  9
$CELTSCALE
 40
1.0
  9
$DISPSILH
 70
     0
  9
$DIMSCALE
 40
1.0
  9
$DIMASZ
 40
3.0
  9
$DIMEXO
 40
0.0625
  9
$DIMDLI
 40
0.38
  9
$DIMRND
 40
0.0
  9
$DIMDLE
 40
0.0
  9
$DIMEXE
 40
1.5
  9
$DIMTP
 40
0.0
  9
$DIMTM
 40
0.0
  9
$DIMTXT
 40
3.0
  9
$DIMCEN
 40
0.09
  9
$DIMTSZ
 40
0.0
  9
$DIMTOL
 70
     0
  9
$DIMLIM
 70
     0
  9
$DIMTIH
 70
     1
  9
$DIMTOH
 70
     1
  9
$DIMSE1
 70
     0
  9
$DIMSE2
 70
     0
  9
$DIMTAD
 70
     1
  9
$DIMZIN
 70
     0
  9
$DIMBLK
  1

  9
$DIMASO
 70
     1
  9
$DIMSHO
 70
     1
  9
$DIMPOST
  1

  9
$DIMAPOST
  1

  9
$DIMALT
 70
     0
  9
$DIMALTD
 70
     2
  9
$DIMALTF
 40
25.4
  9
$DIMLFAC
 40
1.0
  9
$DIMTOFL
 70
     0
  9
$DIMTVP
 40
0.0
  9
$DIMTIX
 70
     0
  9
$DIMSOXD
 70
     0
  9
$DIMSAH
 70
     0
  9
$DIMBLK1
  1

  9
$DIMBLK2
  1

  9
$DIMSTYLE
  2
Standard
  9
$DIMCLRD
 70
     0
  9
$DIMCLRE
 70
     0
  9
$DIMCLRT
 70
     0
  9
$DIMTFAC
 40
1.0
  9
$DIMGAP
 40
1.5
  9
$DIMJUST
 70
     0
  9
$DIMSD1
 70
     0
  9
$DIMSD2
 70
     0
  9
$DIMTOLJ
 70
     1
  9
$DIMTZIN
 70
     0
  9
$DIMALTZ
 70
     0
  9
$DIMALTTZ
 70
     0
  9
$DIMUPT
 70
     0
  9
$DIMDEC
 70
     2
  9
$DIMTDEC
 70
     4
  9
$DIMALTU
 70
     2
  9
$DIMALTTD
 70
     2
  9
$DIMTXSTY
  7
ＭＳ ゴシック
  9
$DIMAUNIT
 70
     0
  9
$DIMADEC
 70
     2
  9
$DIMALTRND
 40
0.0
  9
$DIMAZIN
 70
     0
  9
$DIMDSEP
 70
    46
  9
$DIMATFIT
 70
     3
  9
$DIMFRAC
 70
     0
  9
$DIMLDRBLK
  1

  9
$DIMLUNIT
 70
     2
  9
$DIMLWD
 70
    -2
  9
$DIMLWE
 70
    -2
  9
$DIMTMOVE
 70
     0
  9
$DIMFXL
 40
1.0
  9
$DIMFXLON
 70
     0
  9
$DIMJOGANG
 40
0.7853981633974483
  9
$DIMTFILL
 70
     0
  9
$DIMTFILLCLR
 70
     0
  9
$DIMARCSYM
 70
     0
  9
$DIMLTYPE
  6

  9
$DIMLTEX1
  6

  9
$DIMLTEX2
  6

  9
$DIMTXTDIRECTION
 70
     0
  9
$LUNITS
 70
     2
  9
$LUPREC
 70
     4
  9
$SKETCHINC
 40
0.1
  9
$FILLETRAD
 40
0.5
  9
$AUNITS
 70
     0
  9
$AUPREC
 70
     0
  9
$MENU
  1
.
  9
$ELEVATION
 40
0.0
  9
$PELEVATION
 40
0.0
  9
$THICKNESS
 40
0.0
  9
$LIMCHECK
 70
     0
  9
$CHAMFERA
 40
0.0
  9
$CHAMFERB
 40
0.0
  9
$CHAMFERC
 40
0.0
  9
$CHAMFERD
 40
0.0
  9
$SKPOLY
 70
     0
  9
$TDCREATE
 40
2458841.778791423
  9
$TDUCREATE
 40
2458841.403791423
  9
$TDUPDATE
 40
2458841.778791609
  9
$TDUUPDATE
 40
2458841.403791609
  9
$TDINDWG
 40
0.0000000116
  9
$TDUSRTIMER
 40
0.0000000116
  9
$USRTIMER
 70
     1
  9
$ANGBASE
 50
0.0
  9
$ANGDIR
 70
     0
  9
$PDMODE
 70
     0
  9
$PDSIZE
 40
0.0
  9
$PLINEWID
 40
0.0
  9
$SPLFRAME
 70
     0
  9
$SPLINETYPE
 70
     6
  9
$SPLINESEGS
 70
     8
  9
$HANDSEED
  5
22F
  9
$SURFTAB1
 70
     6
  9
$SURFTAB2
 70
     6
  9
$SURFTYPE
 70
     6
  9
$SURFU
 70
     6
  9
$SURFV
 70
     6
  9
$UCSBASE
  2

  9
$UCSNAME
  2

  9
$UCSORG
 10
0.0
 20
0.0
 30
0.0
  9
$UCSXDIR
 10
1.0
 20
0.0
 30
0.0
  9
$UCSYDIR
 10
0.0
 20
1.0
 30
0.0
  9
$UCSORTHOREF
  2

  9
$UCSORTHOVIEW
 70
     0
  9
$UCSORGTOP
 10
0.0
 20
0.0
 30
0.0
  9
$UCSORGBOTTOM
 10
0.0
 20
0.0
 30
0.0
  9
$UCSORGLEFT
 10
0.0
 20
0.0
 30
0.0
  9
$UCSORGRIGHT
 10
0.0
 20
0.0
 30
0.0
  9
$UCSORGFRONT
 10
0.0
 20
0.0
 30
0.0
  9
$UCSORGBACK
 10
0.0
 20
0.0
 30
0.0
  9
$PUCSBASE
  2

  9
$PUCSNAME
  2

  9
$PUCSORG
 10
0.0
 20
0.0
 30
0.0
  9
$PUCSXDIR
 10
1.0
 20
0.0
 30
0.0
  9
$PUCSYDIR
 10
0.0
 20
1.0
 30
0.0
  9
$PUCSORTHOREF
  2

  9
$PUCSORTHOVIEW
 70
     0
  9
$PUCSORGTOP
 10
0.0
 20
0.0
 30
0.0
  9
$PUCSORGBOTTOM
 10
0.0
 20
0.0
 30
0.0
  9
$PUCSORGLEFT
 10
0.0
 20
0.0
 30
0.0
  9
$PUCSORGRIGHT
 10
0.0
 20
0.0
 30
0.0
  9
$PUCSORGFRONT
 10
0.0
 20
0.0
 30
0.0
  9
$PUCSORGBACK
 10
0.0
 20
0.0
 30
0.0
  9
$USERI1
 70
     0
  9
$USERI2
 70
     0
  9
$USERI3
 70
     0
  9
$USERI4
 70
     0
  9
$USERI5
 70
     0
  9
$USERR1
 40
0.0
  9
$USERR2
 40
0.0
  9
$USERR3
 40
0.0
  9
$USERR4
 40
0.0
  9
$USERR5
 40
0.0
  9
$WORLDVIEW
 70
     1
  9
$SHADEDGE
 70
     3
  9
$SHADEDIF
 70
    70
  9
$TILEMODE
 70
     1
  9
$MAXACTVP
 70
    64
  9
$PINSBASE
 10
0.0
 20
0.0
 30
0.0
  9
$PLIMCHECK
 70
     0
  9
$PEXTMIN
 10
1.000000000000000E+20
 20
1.000000000000000E+20
 30
1.000000000000000E+20
  9
$PEXTMAX
 10
-1.000000000000000E+20
 20
-1.000000000000000E+20
 30
-1.000000000000000E+20
  9
$PLIMMIN
 10
0.0
 20
0.0
  9
$PLIMMAX
 10
12.0
 20
9.0
  9
$UNITMODE
 70
     0
  9
$VISRETAIN
 70
     1
  9
$PLINEGEN
 70
     0
  9
$PSLTSCALE
 70
     1
  9
$TREEDEPTH
 70
  3020
  9
$CMLSTYLE
  2
Standard
  9
$CMLJUST
 70
     0
  9
$CMLSCALE
 40
1.0
  9
$PROXYGRAPHICS
 70
     1
  9
$MEASUREMENT
 70
     1
  9
$CELWEIGHT
370
    -1
  9
$ENDCAPS
280
     0
  9
$JOINSTYLE
280
     0
  9
$LWDISPLAY
290
     1
  9
$INSUNITS
 70
     4
  9
$HYPERLINKBASE
  1

  9
$STYLESHEET
  1

  9
$XEDIT
290
     1
  9
$CEPSNTYPE
380
     0
  9
$PSTYLEMODE
290
     1
  9
$FINGERPRINTGUID
  2
{7069E5CF-5BD2-4650-9A6F-C9FE242CFB52}
  9
$VERSIONGUID
  2
{FAEB1C32-E019-11D5-929B-00C0DF256EC4}
  9
$EXTNAMES
290
     1
  9
$PSVPSCALE
 40
0.0
  9
$OLESTARTUP
290
     0
  9
$SORTENTS
280
   127
  9
$INDEXCTL
280
     0
  9
$HIDETEXT
280
     1
  9
$XCLIPFRAME
280
     2
  9
$HALOGAP
280
     0
  9
$OBSCOLOR
 70
   257
  9
$OBSLTYPE
280
     0
  9
$INTERSECTIONDISPLAY
280
     0
  9
$INTERSECTIONCOLOR
 70
   257
  9
$DIMASSOC
280
     2
  9
$PROJECTNAME
  1

  9
$CAMERADISPLAY
290
     0
  9
$LENSLENGTH
 40
50.0
  9
$CAMERAHEIGHT
 40
0.0
  9
$STEPSPERSEC
 40
2.0
  9
$STEPSIZE
 40
6.0
  9
$3DDWFPREC
 40
2.0
  9
$PSOLWIDTH
 40
0.25
  9
$PSOLHEIGHT
 40
4.0
  9
$LOFTANG1
 40
1.570796326794897
  9
$LOFTANG2
 40
1.570796326794897
  9
$LOFTMAG1
 40
0.0
  9
$LOFTMAG2
 40
0.0
  9
$LOFTPARAM
 70
     7
  9
$LOFTNORMALS
280
     1
  9
$LATITUDE
 40
37.795
  9
$LONGITUDE
 40
-122.394
  9
$NORTHDIRECTION
 40
0.0
  9
$TIMEZONE
 70
 -8000
  9
$LIGHTGLYPHDISPLAY
280
     1
  9
$TILEMODELIGHTSYNCH
280
     1
  9
$CMATERIAL
347
44
  9
$SOLIDHIST
280
     0
  9
$SHOWHIST
280
     1
  9
$DWFFRAME
280
     2
  9
$DGNFRAME
280
     2
  9
$REALWORLDSCALE
290
     1
  9
$INTERFERECOLOR
 62
   256
  9
$CSHADOW
280
     0
  9
$SHADOWPLANELOCATION
 40
0.0
  0
ENDSEC
  0
SECTION
  2
CLASSES
  0
CLASS
  1
ACDBDICTIONARYWDFLT
  2
AcDbDictionaryWithDefault
  3
ObjectDBX Classes
 90
        0
 91
        3
280
     0
281
     0
  0
CLASS
  1
VISUALSTYLE
  2
AcDbVisualStyle
  3
ObjectDBX Classes
 90
     4095
 91
        3
280
     0
281
     0
  0
CLASS
  1
MATERIAL
  2
AcDbMaterial
  3
ObjectDBX Classes
 90
     1153
 91
        3
280
     0
281
     0
  0
CLASS
  1
SCALE
  2
AcDbScale
  3
ObjectDBX Classes
 90
     1153
 91
        3
280
     0
281
     0
  0
CLASS
  1
TABLESTYLE
  2
AcDbTableStyle
  3
ObjectDBX Classes
 90
     4095
 91
        3
280
     0
281
     0
  0
CLASS
  1
MLEADERSTYLE
  2
AcDbMLeaderStyle
  3
ACDB_MLEADERSTYLE_CLASS
 90
     4095
 91
        3
280
     0
281
     0
  0
CLASS
  1
SUN
  2
AcDbSun
  3
SCENEOE
 90
     1153
 91
        3
280
     0
281
     0
  0
CLASS
  1
DICTIONARYVAR
  2
AcDbDictionaryVar
  3
ObjectDBX Classes
 90
        0
 91
        3
280
     0
281
     0
  0
CLASS
  1
CELLSTYLEMAP
  2
AcDbCellStyleMap
  3
ObjectDBX Classes
 90
     1152
 91
        3
280
     0
281
     0
  0
ENDSEC
  0
SECTION
  2
TABLES
  0
TABLE
  2
VPORT
  5
8
330
0
100
AcDbSymbolTable
 70
     1
  0
VPORT
  5
29
330
8
100
AcDbSymbolTableRecord
100
AcDbViewportTableRecord
  2
*Active
 70
     0
 10
0.0
 20
0.0
 11
1.0
 21
1.0
 12
100.7322150713138
 22
191.9100812229972
 13
0.0
 23
0.0
 14
0.5
 24
0.5
 15
0.5
 25
0.5
 16
0.0
 26
0.0
 36
1.0
 17
0.0
 27
0.0
 37
0.0
 40
62.10877692642447
 41
1.6
 42
50.0
 43
0.0
 44
0.0
 50
0.0
 51
0.0
 71
     0
 72
   100
 73
     1
 74
     3
 75
     0
 76
     0
 77
     0
 78
     0
281
     0
 65
     1
110
0.0
120
0.0
130
0.0
111
1.0
121
0.0
131
0.0
112
0.0
122
1.0
132
0.0
 79
     0
146
0.0
348
2F
 60
     3
 61
     5
292
     1
282
     1
141
0.0
142
0.0
 63
   250
361
6D
  0
ENDTAB
  0
TABLE
  2
LTYPE
  5
5
330
0
100
AcDbSymbolTable
 70
     1
  0
LTYPE
  5
14
330
5
100
AcDbSymbolTableRecord
100
AcDbLinetypeTableRecord
  2
ByBlock
 70
     0
  3

 72
    65
 73
     0
 40
0.0
  0
LTYPE
  5
15
330
5
100
AcDbSymbolTableRecord
100
AcDbLinetypeTableRecord
  2
ByLayer
 70
     0
  3

 72
    65
 73
     0
 40
0.0
  0
LTYPE
  5
16
330
5
100
AcDbSymbolTableRecord
100
AcDbLinetypeTableRecord
  2
Continuous
 70
     0
  3
Solid line
 72
    65
 73
     0
 40
0.0
  0
ENDTAB
  0
TABLE
  2
LAYER
  5
2
330
0
100
AcDbSymbolTable
 70
     1
  0
LAYER
  5
10
330
2
100
AcDbSymbolTableRecord
100
AcDbLayerTableRecord
  2
0
 70
     0
 62
     7
  6
Continuous
370
    -3
390
F
347
46
348
0
  0
ENDTAB
  0
TABLE
  2
STYLE
  5
3
330
0
100
AcDbSymbolTable
 70
     2
  0
STYLE
  5
11
330
3
100
AcDbSymbolTableRecord
100
AcDbTextStyleTableRecord
  2
Standard
 70
     0
 40
0.0
 41
1.0
 50
0.0
 71
     0
 42
0.2
  3
txt
  4

  0
STYLE
  5
6E
330
3
100
AcDbSymbolTableRecord
100
AcDbTextStyleTableRecord
  2
ＭＳ ゴシック
 70
     0
 40
0.0
 41
1.0
 50
0.0
 71
     0
 42
0.2
  3
ＭＳ ゴシック.shx
  4

  0
ENDTAB
  0
TABLE
  2
VIEW
  5
6
330
0
100
AcDbSymbolTable
 70
     0
  0
ENDTAB
  0
TABLE
  2
UCS
  5
7
330
0
100
AcDbSymbolTable
 70
     0
  0
ENDTAB
  0
TABLE
  2
APPID
  5
9
330
0
100
AcDbSymbolTable
 70
     1
  0
APPID
  5
12
330
9
100
AcDbSymbolTableRecord
100
AcDbRegAppTableRecord
  2
ACAD
 70
     0
  0
ENDTAB
  0
TABLE
  2
DIMSTYLE
  5
A
330
0
100
AcDbSymbolTable
 70
     1
100
AcDbDimStyleTable
  0
DIMSTYLE
105
27
330
A
100
AcDbSymbolTableRecord
100
AcDbDimStyleTableRecord
  2
Standard
 70
     0
178
     0
340
11
  0
ENDTAB
  0
TABLE
  2
BLOCK_RECORD
  5
1
330
0
100
AcDbSymbolTable
 70
     1
  0
BLOCK_RECORD
  5
1F
330
1
100
AcDbSymbolTableRecord
100
AcDbBlockTableRecord
  2
*Model_Space
340
22
 70
     0
280
     1
281
     0
  0
BLOCK_RECORD
  5
1B
330
1
100
AcDbSymbolTableRecord
100
AcDbBlockTableRecord
  2
*Paper_Space
340
1E
 70
     0
280
     1
281
     0
  0
BLOCK_RECORD
  5
23
330
1
100
AcDbSymbolTableRecord
100
AcDbBlockTableRecord
  2
*Paper_Space0
340
26
 70
     0
280
     1
281
     0
  0
ENDTAB
  0
ENDSEC
  0
SECTION
  2
BLOCKS
  0
BLOCK
  5
20
330
1F
100
AcDbEntity
  8
0
100
AcDbBlockBegin
  2
*Model_Space
 70
     0
 10
0.0
 20
0.0
 30
0.0
  3
*Model_Space
  1

  0
ENDBLK
  5
21
330
1F
100
AcDbEntity
  8
0
100
AcDbBlockEnd
  0
BLOCK
  5
1C
330
1B
100
AcDbEntity
 67
     1
  8
0
100
AcDbBlockBegin
  2
*Paper_Space
 70
     0
 10
0.0
 20
0.0
 30
0.0
  3
*Paper_Space
  1

  0
ENDBLK
  5
1D
330
1B
100
AcDbEntity
 67
     1
  8
0
100
AcDbBlockEnd
  0
BLOCK
  5
24
330
23
100
AcDbEntity
  8
0
100
AcDbBlockBegin
  2
*Paper_Space0
 70
     0
 10
0.0
 20
0.0
 30
0.0
  3
*Paper_Space0
  1

  0
ENDBLK
  5
25
330
23
100
AcDbEntity
  8
0
100
AcDbBlockEnd
  0
ENDSEC
  0
SECTION
  2
ENTITIES
  0
ARC
  5
6F
330
1F
100
AcDbEntity
  8
0
  6
Continuous
 62
     7
370
     9
100
AcDbCircle
 10
86.99999999999999
 20
175.998897460578
 30
0.0
 40
1.999999999999998
100
AcDbArc
 50
270.0000000000007
 51
2.0
  0
LINE
  5
70
330
1F
100
AcDbEntity
  8
0
  6
Continuous
 62
     7
370
     9
100
AcDbLine
 10
87.00000000000001
 20
173.998897460578
 30
0.0
 11
85.60000000000001
 21
173.998897460578
 31
0.0
  0
LINE
  5
71
330
1F
100
AcDbEntity
  8
0
  6
Continuous
 62
     7
370
     9
100
AcDbLine
 10
74.4
 20
173.998897460578
 30
0.0
 11
73.00000000000001
 21
173.998897460578
 31
0.0
  0
ARC
  5
72
330
1F
100
AcDbEntity
  8
0
  6
Continuous
 62
     7
370
     9
100
AcDbCircle
 10
73.00000000000001
 20
175.998897460578
 30
0.0
 40
2.0
100
AcDbArc
 50
177.9999999999999
 51
269.9999999999998
  0
ARC
  5
73
330
1F
100
AcDbEntity
  8
0
  6
Continuous
 62
     7
370
     9
100
AcDbCircle
 10
80.00000000000001
 20
154.798897460578
 30
0.0
 40
19.99999999999999
100
AcDbArc
 50
73.73979529168803
 51
106.260204708312
  0
ARC
  5
74
330
1F
100
AcDbEntity
  8
0
  6
Continuous
 62
     7
370
     9
100
AcDbCircle
 10
78.17819926235458
 20
178.998897460578
 30
0.0
 40
2.0
100
AcDbArc
 50
189.9999999999999
 51
270.0000000000002
  0
LINE
  5
75
330
1F
100
AcDbEntity
  8
0
  6
Continuous
 62
     7
370
     9
100
AcDbLine
 10
78.1781992623546
 20
176.998897460578
 30
0.0
 11
81.8218007376454
 21
176.998897460578
 31
0.0
  0
ARC
  5
76
330
1F
100
AcDbEntity
  8
0
  6
Continuous
 62
     7
370
     9
100
AcDbCircle
 10
81.82180073764542
 20
178.998897460578
 30
0.0
 40
2.0
100
AcDbArc
 50
269.9999999999996
 51
349.9999999999999
  0
LINE
  5
77
330
1F
100
AcDbEntity
  8
0
  6
Continuous
 62
     7
370
     9
100
AcDbLine
 10
83.79141624366983
 20
178.6516011052442
 30
0.0
 11
84.86957219468545
 21
184.7661273489517
 31
0.0
  0
LINE
  5
78
330
1F
100
AcDbEntity
  8
0
  6
Continuous
 62
     7
370
     9
100
AcDbLine
 10
75.13042780531454
 20
184.7661273489517
 30
0.0
 11
76.20858375633016
 21
178.6516011052442
 31
0.0
  0
LINE
  5
79
330
1F
100
AcDbEntity
  8
0
  6
Continuous
 62
     7
370
     9
100
AcDbLine
 10
71.00121834596182
 20
176.0686964539831
 30
0.0
 11
71.16262731915373
 21
180.6908446924418
 31
0.0
  0
LINE
  5
7A
330
1F
100
AcDbEntity
  8
0
  6
Continuous
 62
     7
370
     9
100
AcDbLine
 10
88.83737268084627
 20
180.6908446924418
 30
0.0
 11
88.99878165403818
 21
176.0686964539831
 31
0.0
  0
ARC
  5
7B
330
1F
100
AcDbEntity
  8
0
  6
Continuous
 62
     7
370
     9
100
AcDbCircle
 10
76.65927686775875
 20
180.498897460578
 30
0.0
 40
5.5
100
AcDbArc
 50
90.0
 51
178.0
  0
LINE
  5
7C
330
1F
100
AcDbEntity
  8
0
  6
Continuous
 62
     7
370
     9
100
AcDbLine
 10
76.65927686775875
 20
185.8816798659972
 30
0.0
 11
75.2688225297822
 21
185.6984131600811
 31
0.0
  0
LWPOLYLINE
  5
7D
330
1F
100
AcDbEntity
  8
0
  6
Continuous
 62
     7
370
     9
100
AcDbPolyline
 90
       34
 70
     0
 43
0.0
 10
-75.02573831769209
 20
185.35985093681
 10
-75.0220849575914
 20
185.3841847718653
 10
-75.01986239879007
 20
185.4081702319645
 10
-75.01922278891566
 20
185.4317497976862
 10
-75.01991101850317
 20
185.4496755935847
 10
-75.02170665528182
 20
185.467355327284
 10
-75.02467536699959
 20
185.4847463593088
 10
-75.02888282140445
 20
185.5018060501838
 10
-75.03341500393812
 20
185.5158408713567
 10
-75.03890173531751
 20
185.529631855813
 10
-75.04536782180628
 20
185.5431441365332
 10
-75.05102503478544
 20
185.5533312161328
 10
-75.05729499473354
 20
185.5633462627167
 10
-75.06417823704665
 20
185.5731696380469
 10
-75.07167529712086
 20
185.5827817038851
 10
-75.08066921666227
 20
185.5931339699794
 10
-75.09042469507479
 20
185.6032167962258
 10
-75.10092211032384
 20
185.6129992559555
 10
-75.10951694024116
 20
185.6203245275709
 10
-75.11855092922815
 20
185.6274630620206
 10
-75.12800421681992
 20
185.6343990011457
 10
-75.13785694255162
 20
185.6411164867875
 10
-75.14784217066352
 20
185.6474503611354
 10
-75.15819755277907
 20
185.6535712690236
 10
-75.16889368209617
 20
185.6594632947912
 10
-75.1799011518128
 20
185.665110522777
 10
-75.1916443504445
 20
185.6707069117073
 10
-75.20370152429936
 20
185.6760309443786
 10
-75.21602816320252
 20
185.6810641206795
 10
-75.22857975697912
 20
185.6857879404984
 10
-75.23848657714154
 20
185.6892431936703
 10
-75.24851252466978
 20
185.6925048211115
 10
-75.25863278155339
 20
185.6955643131414
 10
-75.2688225297822
 20
185.6984131600811
210
0.0
220
0.0
230
-1.0
  0
LINE
  5
7E
330
1F
100
AcDbEntity
  8
0
  6
Continuous
 62
     7
370
     9
100
AcDbLine
 10
75.02573831769209
 20
185.35985093681
 30
0.0
 11
75.13042780531455
 21
184.7661273489517
 31
0.0
  0
ARC
  5
7F
330
1F
100
AcDbEntity
  8
0
  6
Continuous
 62
     7
370
     9
100
AcDbCircle
 10
83.34072313224125
 20
180.498897460578
 30
0.0
 40
5.5
100
AcDbArc
 50
2.0
 51
90.0
  0
LWPOLYLINE
  5
80
330
1F
100
AcDbEntity
  8
0
  6
Continuous
 62
     7
370
     9
100
AcDbPolyline
 90
       35
 70
     0
 43
0.0
 10
-84.73117747021783
 20
185.6984131600798
 10
-84.74207616610569
 20
185.6953574250162
 10
-84.75289462871457
 20
185.6920608374438
 10
-84.7636025905267
 20
185.6885338351911
 10
-84.77416978402434
 20
185.6847868560867
 10
-84.78491146941919
 20
185.6806949908857
 10
-84.795484163377
 20
185.6763767268253
 10
-84.80585962483568
 20
185.6718437553666
 10
-84.81600961273314
 20
185.6671077679706
 10
-84.82561991037723
 20
185.6623284333867
 10
-84.83500539599383
 20
185.6573639186449
 10
-84.84414608673417
 20
185.6522245346379
 10
-84.85302199974937
 20
185.6469205922583
 10
-84.86472408230092
 20
185.6394031034921
 10
-84.8759079817637
 20
185.6315911502214
 10
-84.88653822441313
 20
185.6235095062105
 10
-84.8970888233867
 20
185.6147383142689
 10
-84.90702087271164
 20
185.6056725346584
 10
-84.9163193783457
 20
185.5963369651138
 10
-84.92496934624664
 20
185.5867564033698
 10
-84.93295578237222
 20
185.5769556471611
 10
-84.94026369268022
 20
185.5669594942225
 10
-84.94721617558359
 20
185.5562607350464
 10
-84.95346914106737
 20
185.5453385909825
 10
-84.95903016698877
 20
185.5342153622726
 10
-84.96390683120504
 20
185.5229133491587
 10
-84.96951820216735
 20
185.5071219574587
 10
-84.97393692246926
 20
185.4910090767115
 10
-84.97721071601443
 20
185.4746190461434
 10
-84.97955945051966
 20
185.456219129505
 10
-84.98066418821111
 20
185.4374800604176
 10
-84.98060585466222
 20
185.4184377727427
 10
-84.97946537544642
 20
185.3991282003421
 10
-84.97732367613717
 20
185.3795872770773
 10
-84.9742616823079
 20
185.35985093681
210
0.0
220
0.0
230
-1.0
  0
LINE
  5
81
330
1F
100
AcDbEntity
  8
0
  6
Continuous
 62
     7
370
     9
100
AcDbLine
 10
84.73117747021783
 20
185.6984131600798
 30
0.0
 11
83.34072313224125
 21
185.8816798659972
 31
0.0
  0
LINE
  5
82
330
1F
100
AcDbEntity
  8
0
  6
Continuous
 62
     7
370
     9
100
AcDbLine
 10
84.86957219468545
 20
184.7661273489517
 30
0.0
 11
84.9742616823079
 21
185.35985093681
 31
0.0
  0
LINE
  5
83
330
1F
100
AcDbEntity
  8
0
  6
Continuous
 62
     7
370
     9
100
AcDbLine
 10
83.34072313224125
 20
185.8816798659972
 30
0.0
 11
76.65927686775875
 21
185.8816798659972
 31
0.0
  0
LINE
  5
84
330
1F
100
AcDbEntity
  8
0
  6
Continuous
 62
     7
370
     9
100
AcDbLine
 10
76.65927686775875
 20
185.998897460578
 30
0.0
 11
83.34072313224125
 21
185.998897460578
 31
0.0
  0
LINE
  5
85
330
1F
100
AcDbEntity
  8
0
  6
Continuous
 62
     7
370
     9
100
AcDbLine
 10
121.0
 20
180.3690464014645
 30
0.0
 11
121.0
 21
180.5493605745649
 31
0.0
  0
LINE
  5
86
330
1F
100
AcDbEntity
  8
0
  6
Continuous
 62
     7
370
     9
100
AcDbLine
 10
119.0
 20
180.3690464014645
 30
0.0
 11
119.0
 21
180.5493605745649
 31
0.0
  0
LWPOLYLINE
  5
87
330
1F
100
AcDbEntity
  8
0
  6
Continuous
 62
     7
370
     9
100
AcDbPolyline
 90
        9
 70
     0
 43
0.0
 10
121.0
 20
181.3866671915991
 10
120.994235584121
 20
181.4242876841276
 10
120.9771638597534
 20
181.460462442226
 10
120.9494408836908
 20
181.4938012902278
 10
120.912132034356
 20
181.5230230349007
 10
120.8666710699059
 20
181.5470047009848
 10
120.8148050297095
 20
181.5648246865015
 10
120.7585270966049
 20
181.5757981794009
 10
120.7
 20
181.579503474505
  0
LINE
  5
88
330
1F
100
AcDbEntity
  8
0
  6
Continuous
 62
     7
370
     9
100
AcDbLine
 10
120.7
 20
181.579503474505
 30
0.0
 11
119.3
 21
181.579503474505
 31
0.0
  0
LWPOLYLINE
  5
89
330
1F
100
AcDbEntity
  8
0
  6
Continuous
 62
     7
370
     9
100
AcDbPolyline
 90
        9
 70
     0
 43
0.0
 10
119.3
 20
181.579503474505
 10
119.2414729033952
 20
181.5757981794009
 10
119.1851949702905
 20
181.5648246865014
 10
119.1333289300941
 20
181.5470047009847
 10
119.087867965644
 20
181.5230230349007
 10
119.0505591163092
 20
181.4938012902277
 10
119.0228361402466
 20
181.460462442226
 10
119.005764415879
 20
181.4242876841276
 10
119.0
 20
181.3866671915991
  0
LINE
  5
8A
330
1F
100
AcDbEntity
  8
0
  6
Continuous
 62
     7
370
     9
100
AcDbLine
 10
117.25
 20
182.5736369442262
 30
0.0
 11
117.25
 21
181.998897460578
 31
0.0
  0
LINE
  5
8B
330
1F
100
AcDbEntity
  8
0
  6
Continuous
 62
     7
370
     9
100
AcDbLine
 10
119.5707946743643
 20
182.5736369442262
 30
0.0
 11
117.25
 21
182.5736369442262
 31
0.0
  0
LWPOLYLINE
  5
8C
330
1F
100
AcDbEntity
  8
0
  6
Continuous
 62
     7
370
     9
100
AcDbPolyline
 90
        3
 70
     0
 43
0.0
 10
119.5707946743643
 20
182.5736369442262
 10
120.0
 20
182.5436848890349
 10
120.4292053256357
 20
182.5736369442262
  0
LINE
  5
8D
330
1F
100
AcDbEntity
  8
0
  6
Continuous
 62
     7
370
     9
100
AcDbLine
 10
122.75
 20
182.5736369442262
 30
0.0
 11
120.4292053256357
 21
182.5736369442262
 31
0.0
  0
LINE
  5
8E
330
1F
100
AcDbEntity
  8
0
  6
Continuous
 62
     7
370
     9
100
AcDbLine
 10
122.75
 20
182.5736369442262
 30
0.0
 11
122.75
 21
181.998897460578
 31
0.0
  0
LINE
  5
8F
330
1F
100
AcDbEntity
  8
0
  6
Continuous
 62
     7
370
     9
100
AcDbLine
 10
119.0
 20
180.5493605745649
 30
0.0
 11
119.0
 21
181.3866671915991
 31
0.0
  0
LINE
  5
90
330
1F
100
AcDbEntity
  8
0
  6
Continuous
 62
     7
370
     9
100
AcDbLine
 10
121.0
 20
180.5493605745649
 30
0.0
 11
121.0
 21
181.3866671915991
 31
0.0
  0
LWPOLYLINE
  5
91
330
1F
100
AcDbEntity
  8
0
  6
Continuous
 62
     7
370
     9
100
AcDbPolyline
 90
        9
 70
     0
 43
0.0
 10
119.3
 20
180.9666679200099
 10
119.2414729033952
 20
180.9629626249057
 10
119.1851949702905
 20
180.9519891320063
 10
119.1333289300941
 20
180.9341691464896
 10
119.0878679656441
 20
180.9101874804055
 10
119.0505591163092
 20
180.8809657357326
 10
119.0228361402466
 20
180.8476268877309
 10
119.005764415879
 20
180.8114521296324
 10
119.0
 20
180.7738316371039
  0
LWPOLYLINE
  5
92
330
1F
100
AcDbEntity
  8
0
  6
Continuous
 62
     7
370
     9
100
AcDbPolyline
 90
        9
 70
     0
 43
0.0
 10
121.0
 20
180.7738316371039
 10
120.994235584121
 20
180.8114521296324
 10
120.9771638597534
 20
180.8476268877309
 10
120.9494408836908
 20
180.8809657357326
 10
120.912132034356
 20
180.9101874804055
 10
120.8666710699059
 20
180.9341691464896
 10
120.8148050297095
 20
180.9519891320062
 10
120.7585270966049
 20
180.9629626249057
 10
120.7
 20
180.9666679200098
  0
LINE
  5
93
330
1F
100
AcDbEntity
  8
0
  6
Continuous
 62
     7
370
     9
100
AcDbLine
 10
120.7
 20
180.9666679200099
 30
0.0
 11
119.3
 21
180.9666679200099
 31
0.0
  0
LINE
  5
94
330
1F
100
AcDbEntity
  8
0
  6
Continuous
 62
     7
370
     9
100
AcDbLine
 10
122.0715657662057
 20
173.998897460578
 30
0.0
 11
125.0
 21
173.998897460578
 31
0.0
  0
LINE
  5
95
330
1F
100
AcDbEntity
  8
0
  6
Continuous
 62
     7
370
     9
100
AcDbLine
 10
122.0712712868574
 20
174.0215254672487
 30
0.0
 11
122.0715657831588
 21
173.998897460578
 31
0.0
  0
LINE
  5
96
330
1F
100
AcDbEntity
  8
0
  6
Continuous
 62
     7
370
     9
100
AcDbLine
 10
117.9287287131425
 20
174.0215254672495
 30
0.0
 11
122.0712712868574
 21
174.0215254672495
 31
0.0
  0
LINE
  5
97
330
1F
100
AcDbEntity
  8
0
  6
Continuous
 62
     7
370
     9
100
AcDbLine
 10
117.9284342168411
 20
173.998897460578
 30
0.0
 11
117.9287287131426
 21
174.0215254672487
 31
0.0
  0
LINE
  5
98
330
1F
100
AcDbEntity
  8
0
  6
Continuous
 62
     7
370
     9
100
AcDbLine
 10
115.0
 20
173.998897460578
 30
0.0
 11
117.9284342337943
 21
173.998897460578
 31
0.0
  0
LINE
  5
99
330
1F
100
AcDbEntity
  8
0
  6
Continuous
 62
     7
370
     9
100
AcDbLine
 10
114.498972578273
 20
174.0621211812229
 30
0.0
 11
114.9999999999747
 21
173.9988974620279
 31
0.0
  0
LINE
  5
9A
330
1F
100
AcDbEntity
  8
0
  6
Continuous
 62
     7
370
     9
100
AcDbLine
 10
114.498972578273
 20
174.0621211812229
 30
0.0
 11
112.0010274217271
 21
174.0621211812229
 31
0.0
  0
LINE
  5
9B
330
1F
100
AcDbEntity
  8
0
  6
Continuous
 62
     7
370
     9
100
AcDbLine
 10
111.5000000000253
 20
173.9988974620279
 30
0.0
 11
112.0010274217271
 21
174.0621211812229
 31
0.0
  0
LINE
  5
9C
330
1F
100
AcDbEntity
  8
0
  6
Continuous
 62
     7
370
     9
100
AcDbLine
 10
110.5355303137906
 20
173.998897460578
 30
0.0
 11
111.5
 21
173.998897460578
 31
0.0
  0
LINE
  5
9D
330
1F
100
AcDbEntity
  8
0
  6
Continuous
 62
     7
370
     9
100
AcDbLine
 10
129.4644696862094
 20
173.998897460578
 30
0.0
 11
129.4644470050218
 21
174.0001964690446
 31
0.0
  0
LINE
  5
9E
330
1F
100
AcDbEntity
  8
0
  6
Continuous
 62
     7
370
     9
100
AcDbLine
 10
128.5
 20
173.998897460578
 30
0.0
 11
129.4644696862094
 21
173.998897460578
 31
0.0
  0
LINE
  5
9F
330
1F
100
AcDbEntity
  8
0
  6
Continuous
 62
     7
370
     9
100
AcDbLine
 10
127.998972578273
 20
174.0621211812229
 30
0.0
 11
128.4999999999747
 21
173.9988974620279
 31
0.0
  0
LINE
  5
A0
330
1F
100
AcDbEntity
  8
0
  6
Continuous
 62
     7
370
     9
100
AcDbLine
 10
127.998972578273
 20
174.0621211812229
 30
0.0
 11
125.5010274217271
 21
174.0621211812229
 31
0.0
  0
LINE
  5
A1
330
1F
100
AcDbEntity
  8
0
  6
Continuous
 62
     7
370
     9
100
AcDbLine
 10
125.0000000000253
 20
173.9988974620279
 30
0.0
 11
125.5010274217271
 21
174.0621211812229
 31
0.0
  0
LINE
  5
A2
330
1F
100
AcDbEntity
  8
0
  6
Continuous
 62
     7
370
     9
100
AcDbLine
 10
130.427721026457
 20
176.0686964539831
 30
0.0
 11
130.4083101790181
 21
176.0748219978495
 31
0.0
  0
LINE
  5
A3
330
1F
100
AcDbEntity
  8
0
  6
Continuous
 62
     7
370
     9
100
AcDbLine
 10
109.5361394867715
 20
175.0337969572805
 30
0.0
 11
109.572278973543
 21
176.0686964539831
 31
0.0
  0
ARC
  5
A4
330
1F
100
AcDbEntity
  8
0
  6
Continuous
 62
     7
370
     9
100
AcDbCircle
 10
110.5355303137906
 20
174.998897460578
 30
0.0
 40
0.9999999999999848
100
AcDbArc
 50
178.0
 51
269.9999999999998
  0
LINE
  5
A5
330
1F
100
AcDbEntity
  8
0
  6
Continuous
 62
     7
370
     9
100
AcDbLine
 10
118.983148973894
 20
180.4814477122268
 30
0.0
 11
118.9758366702156
 21
180.6908446924418
 31
0.0
  0
LWPOLYLINE
  5
A6
330
1F
100
AcDbEntity
  8
0
  6
Continuous
 62
     7
370
     9
100
AcDbPolyline
 90
       33
 70
     0
 43
0.0
 10
-119.4828443874035
 20
179.998897460578
 10
-119.4588553231429
 20
179.9994732673356
 10
-119.4349215111434
 20
180.0011993613944
 10
-119.411098076408
 20
180.0040717671682
 10
-119.3874398897153
 20
180.0080838688542
 10
-119.3640014412405
 20
180.0132264256714
 10
-119.3408367150516
 20
180.0194875931439
 10
-119.3179990647722
 20
180.0268529503817
 10
-119.2955410906956
 20
180.0353055332946
 10
-119.2735145186348
 20
180.0448258736655
 10
-119.251970080786
 20
180.0553920439889
 10
-119.2309573988808
 20
180.0669797079758
 10
-119.210524869896
 20
180.0795621766053
 10
-119.1907195545848
 20
180.0931104695955
 10
-119.1715870690847
 20
180.1075933821518
 10
-119.1531714798535
 20
180.1229775568385
 10
-119.135515202174
 20
180.1392275604087
 10
-119.1186589024623
 20
180.1563059654148
 10
-119.1026414046035
 20
180.174173436413
 10
-119.0874996005316
 20
180.1927888205608
 10
-119.0732683652591
 20
180.2121092424025
 10
-119.0599804765516
 20
180.2320902026202
 10
-119.0476665394336
 20
180.2526856805263
 10
-119.036354915698
 20
180.2738482400593
 10
-119.0260716585822
 20
180.2955291390401
 10
-119.0168404527621
 20
180.3176784414362
 10
-119.0086825598004
 20
180.3402451323755
 10
-119.0016167691767
 20
180.3631772356455
 10
-118.9956593550109
 20
180.3864219334061
 10
-118.9908240385804
 20
180.4099256878411
 10
-118.9871219567166
 20
180.433634364468
 10
-118.9845616361547
 20
180.4574933568219
 10
-118.983148973894
 20
180.4814477122268
210
0.0
220
0.0
230
-1.0
  0
LINE
  5
A7
330
1F
100
AcDbEntity
  8
0
  6
Continuous
 62
     7
370
     9
100
AcDbLine
 10
120.5171556125965
 20
179.998897460578
 30
0.0
 11
119.4828443874035
 21
179.998897460578
 31
0.0
  0
LWPOLYLINE
  5
A8
330
1F
100
AcDbEntity
  8
0
  6
Continuous
 62
     7
370
     9
100
AcDbPolyline
 90
       33
 70
     0
 43
0.0
 10
-121.016851026106
 20
180.4814477122268
 10
-121.0154383638454
 20
180.4574933568219
 10
-121.0128780432834
 20
180.433634364468
 10
-121.0091759614196
 20
180.4099256878411
 10
-121.0043406449891
 20
180.3864219334061
 10
-120.9983832308233
 20
180.3631772356455
 10
-120.9913174401996
 20
180.3402451323755
 10
-120.9831595472379
 20
180.3176784414362
 10
-120.9739283414178
 20
180.2955291390401
 10
-120.963645084302
 20
180.2738482400593
 10
-120.9523334605664
 20
180.2526856805263
 10
-120.9400195234485
 20
180.2320902026202
 10
-120.9267316347409
 20
180.2121092424025
 10
-120.9125003994684
 20
180.1927888205608
 10
-120.8973585953965
 20
180.174173436413
 10
-120.8813410975377
 20
180.1563059654148
 10
-120.864484797826
 20
180.1392275604087
 10
-120.8468285201465
 20
180.1229775568385
 10
-120.8284129309153
 20
180.1075933821518
 10
-120.8092804454152
 20
180.0931104695955
 10
-120.789475130104
 20
180.0795621766053
 10
-120.7690426011192
 20
180.0669797079758
 10
-120.748029919214
 20
180.0553920439889
 10
-120.7264854813652
 20
180.0448258736655
 10
-120.7044589093044
 20
180.0353055332946
 10
-120.6820009352279
 20
180.0268529503817
 10
-120.6591632849484
 20
180.0194875931439
 10
-120.6359985587596
 20
180.0132264256714
 10
-120.6125601102847
 20
180.0080838688542
 10
-120.5889019235921
 20
180.0040717671682
 10
-120.5650784888566
 20
180.0011993613944
 10
-120.5411446768571
 20
179.9994732673356
 10
-120.5171556125965
 20
179.998897460578
210
0.0
220
0.0
230
-1.0
  0
LINE
  5
A9
330
1F
100
AcDbEntity
  8
0
  6
Continuous
 62
     7
370
     9
100
AcDbLine
 10
121.0241633297844
 20
180.6908446924418
 30
0.0
 11
121.016851026106
 21
180.4814477122268
 31
0.0
  0
LINE
  5
AA
330
1F
100
AcDbEntity
  8
0
  6
Continuous
 62
     7
370
     9
100
AcDbLine
 10
109.572278973543
 20
176.0686964539831
 30
0.0
 11
109.7336879467349
 21
180.6908446924418
 31
0.0
  0
LINE
  5
AB
330
1F
100
AcDbEntity
  8
0
  6
Continuous
 62
     7
370
     9
100
AcDbLine
 10
130.2663120532652
 20
180.6908446924418
 30
0.0
 11
130.427721026457
 21
176.0686964539831
 31
0.0
  0
LINE
  5
AC
330
1F
100
AcDbEntity
  8
0
  6
Continuous
 62
     7
370
     9
100
AcDbLine
 10
129.9016304473442
 20
185.35985093681
 30
0.0
 11
129.5920153295286
 21
185.6940446142035
 31
0.0
  0
LINE
  5
AD
330
1F
100
AcDbEntity
  8
0
  6
Continuous
 62
     7
370
     9
100
AcDbLine
 10
129.5920153295286
 20
185.6940446142035
 30
0.0
 11
129.5914439090926
 21
185.6984131600799
 31
0.0
  0
LWPOLYLINE
  5
AE
330
1F
100
AcDbEntity
  8
0
  6
Continuous
 62
     7
370
     9
100
AcDbPolyline
 90
       19
 70
     0
 43
0.0
 10
-129.9016304473442
 20
185.35985093681
 10
-129.9205871472348
 20
185.3357578025219
 10
-129.9388328229645
 20
185.3110395461237
 10
-129.9563167355406
 20
185.2857581664051
 10
-129.9730952335213
 20
185.2598179131381
 10
-129.989069829214
 20
185.2333560510216
 10
-130.0042909175703
 20
185.2062731808316
 10
-130.0186680574778
 20
185.1787133571074
 10
-130.0322078515391
 20
185.150654923538
 10
-130.048824924524
 20
185.1127533208453
 10
-130.0638956855491
 20
185.0740793131654
 10
-130.0773589679919
 20
185.0347600596464
 10
-130.0893021775379
 20
184.994434653278
 10
-130.09954697612
 20
184.9535833445571
 10
-130.1081360408268
 20
184.9119096434574
 10
-130.1149703640832
 20
184.869691298018
 10
-130.1199961787758
 20
184.827150294697
 10
-130.1224643719694
 20
184.796682430248
 10
-130.1240000470034
 20
184.7661273489517
210
0.0
220
0.0
230
-1.0
  0
LINE
  5
AF
330
1F
100
AcDbEntity
  8
0
  6
Continuous
 62
     7
370
     9
100
AcDbLine
 10
130.1240000470034
 20
184.7661273489517
 30
0.0
 11
130.2663120532651
 21
180.6908446924418
 31
0.0
  0
ARC
  5
B0
330
1F
100
AcDbEntity
  8
0
  6
Continuous
 62
     7
370
     9
100
AcDbCircle
 10
129.115261991292
 20
184.998897460578
 30
0.0
 40
0.9999999999999857
100
AcDbArc
 50
61.97984667323202
 51
90.00000000000011
  0
LINE
  5
B1
330
1F
100
AcDbEntity
  8
0
  6
Continuous
 62
     7
370
     9
100
AcDbLine
 10
129.5850440946998
 20
185.8816798659972
 30
0.0
 11
129.5914439090926
 21
185.6984131600811
 31
0.0
  0
ARC
  5
B2
330
1F
100
AcDbEntity
  8
0
  6
Continuous
 62
     7
370
     9
100
AcDbCircle
 10
110.8847380087081
 20
184.998897460578
 30
0.0
 40
0.9999999999999857
100
AcDbArc
 50
89.9999999999999
 51
118.020153326768
  0
LINE
  5
B3
330
1F
100
AcDbEntity
  8
0
  6
Continuous
 62
     7
370
     9
100
AcDbLine
 10
109.7336879467349
 20
180.6908446924418
 30
0.0
 11
109.8759999529966
 21
184.7661273489517
 31
0.0
  0
LWPOLYLINE
  5
B4
330
1F
100
AcDbEntity
  8
0
  6
Continuous
 62
     7
370
     9
100
AcDbPolyline
 90
       17
 70
     0
 43
0.0
 10
-109.8759999529966
 20
184.7661273489517
 10
-109.8783258636547
 20
184.8077784148411
 10
-109.8824064331814
 20
184.8494416935208
 10
-109.8882427577325
 20
184.8909741662849
 10
-109.8958501834214
 20
184.932374423
 10
-109.9054030498863
 20
184.9742359916861
 10
-109.9167755217459
 20
185.0157346313378
 10
-109.9300109654805
 20
185.0569423364693
 10
-109.945059219839
 20
185.0976271794821
 10
-109.9594870213748
 20
185.1322468193932
 10
-109.9752373447706
 20
185.1663600361987
 10
-109.9923851101521
 20
185.2000847815492
 10
-110.0108371087778
 20
185.2331963131836
 10
-110.0307524887803
 20
185.2659245016945
 10
-110.0519543751946
 20
185.2979259371524
 10
-110.0745371036584
 20
185.3293069531057
 10
-110.0983695526558
 20
185.35985093681
210
0.0
220
0.0
230
-1.0
  0
LINE
  5
B5
330
1F
100
AcDbEntity
  8
0
  6
Continuous
 62
     7
370
     9
100
AcDbLine
 10
110.4085560909074
 20
185.6984131600798
 30
0.0
 11
110.0983695526558
 21
185.35985093681
 31
0.0
  0
LINE
  5
B6
330
1F
100
AcDbEntity
  8
0
  6
Continuous
 62
     7
370
     9
100
AcDbLine
 10
110.4085560909074
 20
185.6984131600798
 30
0.0
 11
110.4149559053002
 21
185.8816798659972
 31
0.0
  0
LINE
  5
B7
330
1F
100
AcDbEntity
  8
0
  6
Continuous
 62
     7
370
     9
100
AcDbLine
 10
121.0698415389835
 20
181.998897460578
 30
0.0
 11
128.0086513684421
 21
181.998897460578
 31
0.0
  0
LWPOLYLINE
  5
B8
330
1F
100
AcDbEntity
  8
0
  6
Continuous
 62
     7
370
     9
100
AcDbPolyline
 90
       37
 70
     0
 43
0.0
 10
-128.5085752160203
 20
182.4901712573594
 10
-128.5077440171694
 20
182.468814020524
 10
-128.5059951450336
 20
182.4474534933935
 10
-128.5033283287918
 20
182.4261430857633
 10
-128.4997432976232
 20
182.4049362074283
 10
-128.4950939244284
 20
182.3832613518472
 10
-128.4894672172935
 20
182.3617380719056
 10
-128.4828723898395
 20
182.3404282029571
 10
-128.4753186556875
 20
182.319393580355
 10
-128.4670437339722
 20
182.2992115465241
 10
-128.4578603555506
 20
182.2793347494986
 10
-128.4477880875222
 20
182.2598222019023
 10
-128.4368464969866
 20
182.2407329163594
 10
-128.4246455045602
 20
182.2215054008519
 10
-128.4115277991182
 20
182.202779063798
 10
-128.3975290446512
 20
182.1846178983003
 10
-128.3826849051497
 20
182.1670858974612
 10
-128.3682189310107
 20
182.1514652513887
 10
-128.3530481741715
 20
182.1364236808637
 10
-128.3372122440289
 20
182.1220079121015
 10
-128.3207507499798
 20
182.108264671318
 10
-128.3031147487484
 20
182.0948073147568
 10
-128.2848402632862
 20
182.08210577942
 10
-128.2659823716231
 20
182.0702037569972
 10
-128.246596151789
 20
182.0591449391776
 10
-128.2282836080305
 20
182.0497206446688
 10
-128.2095534726522
 20
182.0410382824881
 10
-128.1904560942543
 20
182.0331237189398
 10
-128.1710418214369
 20
182.0260028203283
 10
-128.1507143164202
 20
182.0195062326551
 10
-128.1300874583261
 20
182.0138722857974
 10
-128.1092218676292
 20
182.009118522488
 10
-128.0881781648042
 20
182.0052624854594
 10
-128.0684249082156
 20
182.002484863123
 10
-128.0485518380485
 20
182.0004950066198
 10
-128.0286102321688
 20
181.999297633316
 10
-128.0086513684421
 20
181.998897460578
210
0.0
220
0.0
230
-1.0
  0
LINE
  5
B9
330
1F
100
AcDbEntity
  8
0
  6
Continuous
 62
     7
370
     9
100
AcDbLine
 10
128.5085752160203
 20
182.4901712573594
 30
0.0
 11
128.5601192135857
 21
185.4431249001769
 31
0.0
  0
LWPOLYLINE
  5
BA
330
1F
100
AcDbEntity
  8
0
  6
Continuous
 62
     7
370
     9
100
AcDbPolyline
 90
       37
 70
     0
 43
0.0
 10
-128.0637739522216
 20
185.6568681702895
 10
-128.0834280797905
 20
185.6567246284223
 10
-128.1030648627147
 20
185.6562945836762
 10
-128.1226326819689
 20
185.6555789073342
 10
-128.1420799185278
 20
185.6545784706793
 10
-128.1619564440995
 20
185.6532501868856
 10
-128.1816687680376
 20
185.6516200070861
 10
-128.2011631587974
 20
185.649691322059
 10
-128.2203858848341
 20
185.647467522583
 10
-128.2387781700334
 20
185.6450247366225
 10
-128.2568834075205
 20
185.6423041667423
 10
-128.2746573323296
 20
185.6393111342283
 10
-128.2920556794948
 20
185.6360509603664
 10
-128.309536444556
 20
185.6324205770107
 10
-128.3265936042727
 20
185.6285093843645
 10
-128.3431866224692
 20
185.6243254333678
 10
-128.3592749629696
 20
185.6198767749605
 10
-128.3747024231324
 20
185.6152096250529
 10
-128.3896158779306
 20
185.610285540296
 10
-128.4039845814109
 20
185.6051142957627
 10
-128.4177777876197
 20
185.599705666526
 10
-128.4313248570134
 20
185.5939103628041
 10
-128.4442544587225
 20
185.5878695239121
 10
-128.4565430307977
 20
185.5815954015309
 10
-128.4681670112891
 20
185.5751002473411
 10
-128.4831715730768
 20
185.5657278987189
 10
-128.4968981916118
 20
185.5559292227178
 10
-128.5093189787436
 20
185.5457414212368
 10
-128.5204060463217
 20
185.535201696175
 10
-128.5301315061953
 20
185.5243472494313
 10
-128.5384674702143
 20
185.513215282905
 10
-128.5452720965344
 20
185.502083369017
 10
-128.5507944889648
 20
185.490682392063
 10
-128.5550375221952
 20
185.4790492043724
 10
-128.5580040709156
 20
185.4672206582749
 10
-128.5596970098158
 20
185.4552336060998
 10
-128.5601192135857
 20
185.4431249001769
210
0.0
220
0.0
230
-1.0
  0
LINE
  5
BB
330
1F
100
AcDbEntity
  8
0
  6
Continuous
 62
     7
370
     9
100
AcDbLine
 10
128.0637739522216
 20
185.6568681702895
 30
0.0
 11
123.5720662186036
 21
185.6568681702895
 31
0.0
  0
LINE
  5
BC
330
1F
100
AcDbEntity
  8
0
  6
Continuous
 62
     7
370
     9
100
AcDbLine
 10
123.5720662186036
 20
185.6568681702895
 30
0.0
 11
123.5748440876252
 21
185.975180431706
 31
0.0
  0
LINE
  5
BD
330
1F
100
AcDbEntity
  8
0
  6
Continuous
 62
     7
370
     9
100
AcDbLine
 10
127.1478132517462
 20
185.975180431706
 30
0.0
 11
123.5748440876252
 21
185.975180431706
 31
0.0
  0
LINE
  5
BE
330
1F
100
AcDbEntity
  8
0
  6
Continuous
 62
     7
370
     9
100
AcDbLine
 10
127.9952575470785
 20
185.998897460578
 30
0.0
 11
127.1478132517462
 21
185.975180431706
 31
0.0
  0
LINE
  5
BF
330
1F
100
AcDbEntity
  8
0
  6
Continuous
 62
     7
370
     9
100
AcDbLine
 10
127.9946810117199
 20
185.998897460578
 30
0.0
 11
129.1152619912919
 21
185.998897460578
 31
0.0
  0
LINE
  5
C0
330
1F
100
AcDbEntity
  8
0
  6
Continuous
 62
     7
370
     9
100
AcDbLine
 10
121.0241633297844
 20
180.6908446924418
 30
0.0
 11
121.0698415389835
 21
181.998897460578
 31
0.0
  0
LINE
  5
C1
330
1F
100
AcDbEntity
  8
0
  6
Continuous
 62
     7
370
     9
100
AcDbLine
 10
116.4279337813964
 20
185.6568681702895
 30
0.0
 11
111.9362260477784
 21
185.6568681702895
 31
0.0
  0
LWPOLYLINE
  5
C2
330
1F
100
AcDbEntity
  8
0
  6
Continuous
 62
     7
370
     9
100
AcDbPolyline
 90
       37
 70
     0
 43
0.0
 10
-111.4398807864142
 20
185.4431249001769
 10
-111.4401732322316
 20
185.453686307018
 10
-111.4414237724838
 20
185.4641469398373
 10
-111.4436369511561
 20
185.4744822534879
 10
-111.4468173122339
 20
185.4846677028229
 10
-111.4511044442415
 20
185.4949719480731
 10
-111.4564288925343
 20
185.5051021189517
 10
-111.462786724995
 20
185.5150322245392
 10
-111.4701740095065
 20
185.5247362739163
 10
-111.4783643303953
 20
185.5339595808673
 10
-111.4875405749072
 20
185.5429554932447
 10
-111.4976869273154
 20
185.5517010241149
 10
-111.5087875718931
 20
185.5601731865444
 10
-111.5212716317929
 20
185.5686371863903
 10
-111.5347759118964
 20
185.5767972557258
 10
-111.5492649849845
 20
185.5846300862258
 10
-111.5647034238385
 20
185.5921123695654
 10
-111.5793203248515
 20
185.5985053464632
 10
-111.5946850234843
 20
185.6046108184116
 10
-111.6107577385014
 20
185.6104143955492
 10
-111.6274986886672
 20
185.6159016880149
 10
-111.6455078215901
 20
185.6212406687712
 10
-111.6642057728208
 20
185.6262365693287
 10
-111.683533074486
 20
185.6308767731242
 10
-111.703430258712
 20
185.6351486635946
 10
-111.7216109824355
 20
185.6386399096472
 10
-111.7402133422304
 20
185.641837365382
 10
-111.7591863269094
 20
185.6447347633519
 10
-111.778478925285
 20
185.64732583611
 10
-111.7987059705922
 20
185.6496771363552
 10
-111.8192353929586
 20
185.6517014863069
 10
-111.8400044548503
 20
185.6533949629765
 10
-111.8609504187336
 20
185.6547536433754
 10
-111.8796545837932
 20
185.6556776460874
 10
-111.8984657971741
 20
185.656338558283
 10
-111.917338228596
 20
185.6567356447534
 10
-111.9362260477784
 20
185.6568681702895
210
0.0
220
0.0
230
-1.0
  0
LINE
  5
C3
330
1F
100
AcDbEntity
  8
0
  6
Continuous
 62
     7
370
     9
100
AcDbLine
 10
111.4398807864142
 20
185.4431249001769
 30
0.0
 11
111.4914247839797
 21
182.4901712573594
 31
0.0
  0
LWPOLYLINE
  5
C4
330
1F
100
AcDbEntity
  8
0
  6
Continuous
 62
     7
370
     9
100
AcDbPolyline
 90
       38
 70
     0
 43
0.0
 10
-111.9913486315579
 20
181.998897460578
 10
-111.9712216154073
 20
181.9993044358496
 10
-111.9511122983472
 20
182.0005221095309
 10
-111.9310732607382
 20
182.0025456034221
 10
-111.9111570829411
 20
182.0053700393231
 10
-111.8908034358204
 20
182.0091130526263
 10
-111.8706170248927
 20
182.0136959534965
 10
-111.8506527558351
 20
182.0191029516833
 10
-111.8309655343244
 20
182.0253182569365
 10
-111.8121245072222
 20
182.0321244209058
 10
-111.7935769350582
 20
182.03967699993
 10
-111.7753687989123
 20
182.0479528234571
 10
-111.7575460798645
 20
182.0569287209349
 10
-111.7396359935686
 20
182.0668801099363
 10
-111.7221625579921
 20
182.0775475717065
 10
-111.7051691115296
 20
182.0888980455071
 10
-111.6886989925755
 20
182.1008984705996
 10
-111.6729981897848
 20
182.1133440348628
 10
-111.6578274317265
 20
182.1263912949128
 10
-111.6432204092487
 20
182.1400030712338
 10
-111.6292108131993
 20
182.15414218431
 10
-111.6154539131678
 20
182.1691982449436
 10
-111.602343386714
 20
182.1847763237819
 10
-111.5899066094832
 20
182.2008325223803
 10
-111.5781709571209
 20
182.2173229422941
 10
-111.5670476882576
 20
182.2343842732544
 10
-111.556647099936
 20
182.2518510417433
 10
-111.5469879308286
 20
182.2696768765771
 10
-111.5380889196082
 20
182.287815406572
 10
-111.5297502546984
 20
182.306737428863
 10
-111.5222144593503
 20
182.3259508718235
 10
-111.5154925098843
 20
182.345406477821
 10
-111.5095953826206
 20
182.365054989223
 10
-111.5034120279956
 20
182.3897528125736
 10
-111.4985006304462
 20
182.4147022907577
 10
-111.4948638503452
 20
182.4398144840801
 10
-111.4925043480654
 20
182.4650004528457
 10
-111.4914247839797
 20
182.4901712573594
210
0.0
220
0.0
230
-1.0
  0
LINE
  5
C5
330
1F
100
AcDbEntity
  8
0
  6
Continuous
 62
     7
370
     9
100
AcDbLine
 10
111.9913486315579
 20
181.998897460578
 30
0.0
 11
118.9301584610165
 21
181.998897460578
 31
0.0
  0
LINE
  5
C6
330
1F
100
AcDbEntity
  8
0
  6
Continuous
 62
     7
370
     9
100
AcDbLine
 10
110.8847380087081
 20
185.998897460578
 30
0.0
 11
112.005318988088
 21
185.998897460578
 31
0.0
  0
LINE
  5
C7
330
1F
100
AcDbEntity
  8
0
  6
Continuous
 62
     7
370
     9
100
AcDbLine
 10
112.8521867482545
 20
185.975180431706
 30
0.0
 11
112.0047424525374
 21
185.998897460578
 31
0.0
  0
LINE
  5
C8
330
1F
100
AcDbEntity
  8
0
  6
Continuous
 62
     7
370
     9
100
AcDbLine
 10
116.4251559123748
 20
185.975180431706
 30
0.0
 11
112.8521867482538
 21
185.975180431706
 31
0.0
  0
LINE
  5
C9
330
1F
100
AcDbEntity
  8
0
  6
Continuous
 62
     7
370
     9
100
AcDbLine
 10
116.4251559123748
 20
185.975180431706
 30
0.0
 11
116.4279337813964
 21
185.6568681702895
 31
0.0
  0
LINE
  5
CA
330
1F
100
AcDbEntity
  8
0
  6
Continuous
 62
     7
370
     9
100
AcDbLine
 10
118.9301584610165
 20
181.998897460578
 30
0.0
 11
118.9758366702156
 21
180.6908446924418
 31
0.0
  0
LINE
  5
CB
330
1F
100
AcDbEntity
  8
0
  6
Continuous
 62
     7
370
     9
100
AcDbLine
 10
116.4511295403718
 20
182.998897460578
 30
0.0
 11
116.4598564081625
 21
181.998897460578
 31
0.0
  0
LINE
  5
CC
330
1F
100
AcDbEntity
  8
0
  6
Continuous
 62
     7
370
     9
100
AcDbLine
 10
123.5401435918375
 20
181.998897460578
 30
0.0
 11
123.5488704596283
 21
182.998897460578
 31
0.0
  0
LWPOLYLINE
  5
CD
330
1F
100
AcDbEntity
  8
0
  6
Continuous
 62
     7
370
     9
100
AcDbPolyline
 90
       45
 70
     0
 43
0.0
 10
129.4658664812199
 20
173.998897460578
 10
129.5159298431288
 20
174.0002224122015
 10
129.5659914107399
 20
174.0040641381323
 10
129.6139431471545
 20
174.0101317226638
 10
129.6616537355798
 20
174.018530972639
 10
129.7066336359694
 20
174.0286621172532
 10
129.7511862970347
 20
174.0408820196394
 10
129.7942003436395
 20
174.0548224140109
 10
129.8259184574005
 20
174.0665056709149
 10
129.8572171235177
 20
174.0792510880588
 10
129.8882031379476
 20
174.0931107190474
 10
129.9186935990204
 20
174.1080099048053
 10
129.9479689651706
 20
174.1235528776721
 10
129.9767056442844
 20
174.140052699719
 10
130.0049965668173
 20
174.1575709011802
 10
130.0326811530736
 20
174.1760148875921
 10
130.0593615525568
 20
174.1950917207666
 10
130.0854220371179
 20
174.2150491475089
 10
130.1115975511379
 20
174.2365161938254
 10
130.1370235186655
 20
174.2588492577908
 10
130.1617833558259
 20
174.282131590725
 10
130.185730126671
 20
174.3062334893588
 10
130.2083126036208
 20
174.3305432038568
 10
130.23006948369
 20
174.3555803147645
 10
130.2510678232746
 20
174.3814324283251
 10
130.2711876077345
 20
174.4079607506925
 10
130.2901483058622
 20
174.4347566828919
 10
130.3082329000746
 20
174.4621818571829
 10
130.3298374378552
 20
174.4977600997562
 10
130.349999140665
 20
174.5343142222972
 10
130.3686424270372
 20
174.5717304502132
 10
130.3857896425931
 20
174.6100921905916
 10
130.4013314347725
 20
174.6491974976392
 10
130.415282415689
 20
174.6891311721288
 10
130.4275493880162
 20
174.7296810272614
 10
130.4381178391874
 20
174.7708420414301
 10
130.4448072025176
 20
174.8015700212657
 10
130.450526643306
 20
174.8324892956298
 10
130.4552871089624
 20
174.8636917069142
 10
130.4590604208986
 20
174.8950260474248
 10
130.4618517819694
 20
174.9265876228118
 10
130.4636420235344
 20
174.9582201902096
 10
130.4644301426277
 20
174.9900183016359
 10
130.4642068152077
 20
175.0218250182851
 10
130.4638605132285
 20
175.0337969572805
  0
LINE
  5
CE
330
1F
100
AcDbEntity
  8
0
  6
Continuous
 62
     7
370
     9
100
AcDbLine
 10
130.4638605132285
 20
175.0337969572805
 30
0.0
 11
130.4359238976351
 21
175.8337969572806
 31
0.0
  0
LINE
  5
CF
330
1F
100
AcDbEntity
  8
0
  6
Continuous
 62
     7
370
     9
100
AcDbLine
 10
129.4644696862094
 20
173.998897460578
 30
0.0
 11
129.4658664812199
 21
173.998897460578
 31
0.0
  0
LINE
  5
D0
330
1F
100
AcDbEntity
  8
0
  6
Continuous
 62
     7
370
     9
100
AcDbLine
 10
110.5341334830109
 20
173.998897460578
 30
0.0
 11
110.5355303137906
 21
173.998897460578
 31
0.0
  0
LINE
  5
D1
330
1F
100
AcDbEntity
  8
0
  6
Continuous
 62
     7
370
     9
100
AcDbLine
 10
116.4279337813964
 20
185.6568681702895
 30
0.0
 11
116.4511295403718
 21
182.998897460578
 31
0.0
  0
LINE
  5
D2
330
1F
100
AcDbEntity
  8
0
  6
Continuous
 62
     7
370
     9
100
AcDbLine
 10
123.5488704596283
 20
182.998897460578
 30
0.0
 11
123.5720662186036
 21
185.6568681702895
 31
0.0
  0
LINE
  5
D3
330
1F
100
AcDbEntity
  8
0
  6
Continuous
 62
     7
370
     9
100
AcDbLine
 10
127.1480011775255
 20
185.998897460578
 30
0.0
 11
127.9921534662819
 21
185.998897460578
 31
0.0
  0
LINE
  5
D4
330
1F
100
AcDbEntity
  8
0
  6
Continuous
 62
     7
370
     9
100
AcDbLine
 10
112.0045354458761
 20
185.998897460578
 30
0.0
 11
112.8519988224745
 21
185.998897460578
 31
0.0
  0
LINE
  5
D5
330
1F
100
AcDbEntity
  8
0
  6
Continuous
 62
     7
370
     9
100
AcDbLine
 10
123.557597327419
 20
183.998897460578
 30
0.0
 11
116.442402672581
 21
183.998897460578
 31
0.0
  0
LINE
  5
D6
330
1F
100
AcDbEntity
  8
0
  6
Continuous
 62
     7
370
     9
100
AcDbLine
 10
113.2610594321917
 20
185.975180431706
 30
0.0
 11
113.25
 21
185.998897460578
 31
0.0
  0
LINE
  5
D7
330
1F
100
AcDbEntity
  8
0
  6
Continuous
 62
     7
370
     9
100
AcDbLine
 10
112.8519988224745
 20
185.998897460578
 30
0.0
 11
113.25
 21
185.998897460578
 31
0.0
  0
LINE
  5
D8
330
1F
100
AcDbEntity
  8
0
  6
Continuous
 62
     7
370
     9
100
AcDbLine
 10
126.75
 20
185.998897460578
 30
0.0
 11
126.7389405678083
 21
185.975180431706
 31
0.0
  0
LINE
  5
D9
330
1F
100
AcDbEntity
  8
0
  6
Continuous
 62
     7
370
     9
100
AcDbLine
 10
126.75
 20
185.998897460578
 30
0.0
 11
127.1480011775255
 21
185.998897460578
 31
0.0
  0
LWPOLYLINE
  5
DA
330
1F
100
AcDbEntity
  8
0
  6
Continuous
 62
     7
370
     9
100
AcDbPolyline
 90
       13
 70
     0
 43
0.0
 10
129.4644470062402
 20
174.0001963992665
 10
129.594152225562
 20
174.0086762134857
 10
129.7156285159217
 20
174.0323766753529
 10
129.8485668792224
 20
174.0772200140625
 10
129.9637505491204
 20
174.1343565346082
 10
130.059612074562
 20
174.1975536494657
 10
130.1463944363511
 20
174.2702844209387
 10
130.2260098854325
 20
174.3543731666993
 10
130.3041281750196
 20
174.4607302858421
 10
130.3616004733609
 20
174.5640050758606
 10
130.4093222419341
 20
174.6818854633359
 10
130.4372054121866
 20
174.7839050085013
 10
130.4487201070317
 20
174.8933621252384
  0
ARC
  5
DB
330
1F
100
AcDbEntity
  8
0
  6
Continuous
 62
     7
370
     9
100
AcDbCircle
 10
-112448.6405605529
 20
-3675.080717501884
 30
0.0
 40
112644.9006554518
100
AcDbArc
 50
1.958634906737935
 51
1.959236196686288
  0
LWPOLYLINE
  5
DC
330
1F
100
AcDbEntity
  8
0
  6
Continuous
 62
     7
370
     9
100
AcDbPolyline
 90
        5
 70
     0
 43
0.0
 10
76.90542093851165
 20
212.0707946743643
 10
77.07579288863495
 20
211.677156982283
 10
77.34847882373273
 20
211.3188982777075
 10
77.71175432969062
 20
211.0114222645767
 10
78.14999999999999
 20
210.7679491924311
  0
LINE
  5
DD
330
1F
100
AcDbEntity
  8
0
  6
Continuous
 62
     7
370
     9
100
AcDbLine
 10
78.14999999999999
 20
210.7679491924311
 30
0.0
 11
78.14999999999998
 21
209.75
 31
0.0
  0
LINE
  5
DE
330
1F
100
AcDbEntity
  8
0
  6
Continuous
 62
     7
370
     9
100
AcDbLine
 10
78.14999999999998
 20
209.75
 30
0.0
 11
76.9054209385117
 21
209.75
 31
0.0
  0
LINE
  5
DF
330
1F
100
AcDbEntity
  8
0
  6
Continuous
 62
     7
370
     9
100
AcDbLine
 10
76.90542093851165
 20
212.0707946743643
 30
0.0
 11
76.9054209385117
 21
209.75
 31
0.0
  0
LWPOLYLINE
  5
E0
330
1F
100
AcDbEntity
  8
0
  6
Continuous
 62
     7
370
     9
100
AcDbPolyline
 90
       12
 70
     0
 43
0.0
 10
78.15
 20
214.2320508075689
 10
77.91273959060777
 20
214.0114991487085
 10
77.7117412326706
 20
213.7363179724412
 10
77.55426953054044
 20
213.4164530434548
 10
77.4460159218208
 20
213.0634651136829
 10
77.39089297398282
 20
212.6901120866084
 10
77.39089297398282
 20
212.3098879133916
 10
77.4460159218208
 20
211.9365348863171
 10
77.55426953054044
 20
211.5835469565452
 10
77.7117412326706
 20
211.2636820275588
 10
77.91273959060777
 20
210.9885008512915
 10
78.15
 20
210.7679491924311
  0
LWPOLYLINE
  5
E1
330
1F
100
AcDbEntity
  8
0
  6
Continuous
 62
     7
370
     9
100
AcDbPolyline
 90
        3
 70
     0
 43
0.0
 10
76.90542093851167
 20
212.9292053256357
 10
76.86972546913181
 20
212.5
 10
76.90542093851167
 20
212.0707946743643
  0
LWPOLYLINE
  5
E2
330
1F
100
AcDbEntity
  8
0
  6
Continuous
 62
     7
370
     9
100
AcDbPolyline
 90
        5
 70
     0
 43
0.0
 10
78.14999999999999
 20
214.2320508075689
 10
77.71175432969062
 20
213.9885777354233
 10
77.34847882373273
 20
213.6811017222925
 10
77.07579288863495
 20
213.322843017717
 10
76.90542093851165
 20
212.9292053256357
  0
LINE
  5
E3
330
1F
100
AcDbEntity
  8
0
  6
Continuous
 62
     7
370
     9
100
AcDbLine
 10
76.9054209385117
 20
215.25
 30
0.0
 11
76.90542093851165
 21
212.9292053256356
 31
0.0
  0
LINE
  5
E4
330
1F
100
AcDbEntity
  8
0
  6
Continuous
 62
     7
370
     9
100
AcDbLine
 10
78.14999999999998
 20
215.25
 30
0.0
 11
76.9054209385117
 21
215.25
 31
0.0
  0
LINE
  5
E5
330
1F
100
AcDbEntity
  8
0
  6
Continuous
 62
     7
370
     9
100
AcDbLine
 10
78.14999999999998
 20
215.25
 30
0.0
 11
78.14999999999999
 21
214.2320508075689
 31
0.0
  0
LWPOLYLINE
  5
E6
330
1F
100
AcDbEntity
  8
0
  6
Continuous
 62
     7
370
     9
100
AcDbPolyline
 90
        9
 70
     0
 43
0.0
 10
75.72065880445332
 20
215.45
 10
75.72360267028796
 20
215.4109819355968
 10
75.73232113667879
 20
215.373463313527
 10
75.74647915785178
 20
215.3388859533961
 10
75.76553264899317
 20
215.3085786437627
 10
75.78874939512372
 20
215.2837060775395
 10
75.81523718970973
 20
215.2652240934977
 10
75.84397812165977
 20
215.2538429439193
 10
75.87386769307713
 20
215.25
  0
LWPOLYLINE
  5
E7
330
1F
100
AcDbEntity
  8
0
  6
Continuous
 62
     7
370
     9
100
AcDbPolyline
 90
        9
 70
     0
 43
0.0
 10
75.87386769307712
 20
209.75
 10
75.84397812165976
 20
209.7461570560806
 10
75.81523718970972
 20
209.7347759065023
 10
75.78874939512372
 20
209.7162939224605
 10
75.76553264899317
 20
209.6914213562373
 10
75.74647915785178
 20
209.6611140466039
 10
75.73232113667878
 20
209.626536686473
 10
75.72360267028795
 20
209.5890180644032
 10
75.72065880445331
 20
209.55
  0
LINE
  5
E8
330
1F
100
AcDbEntity
  8
0
  6
Continuous
 62
     7
370
     9
100
AcDbLine
 10
75.72065880445332
 20
209.25
 30
0.0
 11
75.72065880445335
 21
209.55
 31
0.0
  0
LINE
  5
E9
330
1F
100
AcDbEntity
  8
0
  6
Continuous
 62
     7
370
     9
100
AcDbLine
 10
74.49298230256423
 20
209.25
 30
0.0
 11
75.72065880445332
 21
209.25
 31
0.0
  0
LINE
  5
EA
330
1F
100
AcDbEntity
  8
0
  6
Continuous
 62
     7
370
     9
100
AcDbLine
 10
74.49298230256423
 20
211.5
 30
0.0
 11
75.49084547151763
 21
211.5
 31
0.0
  0
LWPOLYLINE
  5
EB
330
1F
100
AcDbEntity
  8
0
  6
Continuous
 62
     7
370
     9
100
AcDbPolyline
 90
        9
 70
     0
 43
0.0
 10
75.49084547151763
 20
211.5
 10
75.53567982864365
 20
211.505764415879
 10
75.57879122656873
 20
211.5228361402466
 10
75.61852291844772
 20
211.5505591163092
 10
75.65334803764354
 20
211.587867965644
 10
75.68192827435563
 20
211.6333289300941
 10
75.70316530611512
 20
211.6851949702905
 10
75.71624300570137
 20
211.7414729033951
 10
75.72065880445334
 20
211.8
  0
LINE
  5
EC
330
1F
100
AcDbEntity
  8
0
  6
Continuous
 62
     7
370
     9
100
AcDbLine
 10
75.72065880445334
 20
213.2
 30
0.0
 11
75.72065880445334
 21
211.8
 31
0.0
  0
LWPOLYLINE
  5
ED
330
1F
100
AcDbEntity
  8
0
  6
Continuous
 62
     7
370
     9
100
AcDbPolyline
 90
        9
 70
     0
 43
0.0
 10
75.72065880445332
 20
213.2
 10
75.71624300570136
 20
213.2585270966048
 10
75.70316530611511
 20
213.3148050297095
 10
75.68192827435563
 20
213.3666710699059
 10
75.65334803764354
 20
213.4121320343559
 10
75.61852291844772
 20
213.4494408836908
 10
75.57879122656873
 20
213.4771638597534
 10
75.53567982864365
 20
213.494235584121
 10
75.49084547151763
 20
213.5
  0
LINE
  5
EE
330
1F
100
AcDbEntity
  8
0
  6
Continuous
 62
     7
370
     9
100
AcDbLine
 10
74.49298230256423
 20
213.5
 30
0.0
 11
75.49084547151763
 21
213.5
 31
0.0
  0
LINE
  5
EF
330
1F
100
AcDbEntity
  8
0
  6
Continuous
 62
     7
370
     9
100
AcDbLine
 10
74.49298230256423
 20
215.75
 30
0.0
 11
75.72065880445335
 21
215.75
 31
0.0
  0
LINE
  5
F0
330
1F
100
AcDbEntity
  8
0
  6
Continuous
 62
     7
370
     9
100
AcDbLine
 10
75.72065880445335
 20
215.75
 30
0.0
 11
75.72065880445335
 21
215.45
 31
0.0
  0
LINE
  5
F1
330
1F
100
AcDbEntity
  8
0
  6
Continuous
 62
     7
370
     9
100
AcDbLine
 10
76.9054209385117
 20
209.75
 30
0.0
 11
75.87386769307712
 21
209.75
 31
0.0
  0
LINE
  5
F2
330
1F
100
AcDbEntity
  8
0
  6
Continuous
 62
     7
370
     9
100
AcDbLine
 10
76.9054209385117
 20
215.25
 30
0.0
 11
75.87386769307712
 21
215.25
 31
0.0
  0
LWPOLYLINE
  5
F3
330
1F
100
AcDbEntity
  8
0
  6
Continuous
 62
     7
370
     9
100
AcDbPolyline
 90
        9
 70
     0
 43
0.0
 10
76.38809778082633
 20
209.75
 10
76.35820820940899
 20
209.7461570560806
 10
76.32946727745895
 20
209.7347759065022
 10
76.30297948287294
 20
209.7162939224605
 10
76.2797627367424
 20
209.6914213562373
 10
76.26070924560102
 20
209.6611140466039
 10
76.24655122442802
 20
209.626536686473
 10
76.23783275803719
 20
209.5890180644032
 10
76.23488889220255
 20
209.55
  0
LWPOLYLINE
  5
F4
330
1F
100
AcDbEntity
  8
0
  6
Continuous
 62
     7
370
     9
100
AcDbPolyline
 90
        9
 70
     0
 43
0.0
 10
76.23488889220252
 20
215.45
 10
76.23783275803716
 20
215.4109819355968
 10
76.24655122442799
 20
215.373463313527
 10
76.26070924560099
 20
215.3388859533961
 10
76.27976273674238
 20
215.3085786437627
 10
76.30297948287293
 20
215.2837060775395
 10
76.32946727745893
 20
215.2652240934977
 10
76.35820820940897
 20
215.2538429439193
 10
76.38809778082633
 20
215.25
  0
LINE
  5
F5
330
1F
100
AcDbEntity
  8
0
  6
Continuous
 62
     7
370
     9
100
AcDbLine
 10
75.72065880445335
 20
215.75
 30
0.0
 11
76.23488889220253
 21
215.75
 31
0.0
  0
LINE
  5
F6
330
1F
100
AcDbEntity
  8
0
  6
Continuous
 62
     7
370
     9
100
AcDbLine
 10
76.23488889220253
 20
215.75
 30
0.0
 11
76.23488889220253
 21
215.45
 31
0.0
  0
LINE
  5
F7
330
1F
100
AcDbEntity
  8
0
  6
Continuous
 62
     7
370
     9
100
AcDbLine
 10
75.72065880445332
 20
209.25
 30
0.0
 11
76.23488889220253
 21
209.25
 31
0.0
  0
LINE
  5
F8
330
1F
100
AcDbEntity
  8
0
  6
Continuous
 62
     7
370
     9
100
AcDbLine
 10
76.23488889220253
 20
209.25
 30
0.0
 11
76.23488889220253
 21
209.55
 31
0.0
  0
LINE
  5
F9
330
1F
100
AcDbEntity
  8
0
  6
Continuous
 62
     7
370
     9
100
AcDbLine
 10
74.02126657397444
 20
211.5
 30
0.0
 11
73.91144969358207
 21
211.8
 31
0.0
  0
LINE
  5
FA
330
1F
100
AcDbEntity
  8
0
  6
Continuous
 62
     7
370
     9
100
AcDbLine
 10
73.85
 20
215.75
 30
0.0
 11
73.85
 21
209.25
 31
0.0
  0
LINE
  5
FB
330
1F
100
AcDbEntity
  8
0
  6
Continuous
 62
     7
370
     9
100
AcDbLine
 10
73.91144969358207
 20
213.2
 30
0.0
 11
74.02126657397444
 21
213.5
 31
0.0
  0
LINE
  5
FC
330
1F
100
AcDbEntity
  8
0
  6
Continuous
 62
     7
370
     9
100
AcDbLine
 10
73.91144969358207
 20
213.2
 30
0.0
 11
73.91144969358207
 21
211.8
 31
0.0
  0
LINE
  5
FD
330
1F
100
AcDbEntity
  8
0
  6
Continuous
 62
     7
370
     9
100
AcDbLine
 10
74.02126657397444
 20
213.5
 30
0.0
 11
74.49298230256424
 21
213.5
 31
0.0
  0
LINE
  5
FE
330
1F
100
AcDbEntity
  8
0
  6
Continuous
 62
     7
370
     9
100
AcDbLine
 10
74.02126657397444
 20
211.5
 30
0.0
 11
74.49298230256424
 21
211.5
 31
0.0
  0
LINE
  5
FF
330
1F
100
AcDbEntity
  8
0
  6
Continuous
 62
     7
370
     9
100
AcDbLine
 10
73.85000000000001
 20
209.25
 30
0.0
 11
74.49298230256424
 21
209.25
 31
0.0
  0
LINE
  5
100
330
1F
100
AcDbEntity
  8
0
  6
Continuous
 62
     7
370
     9
100
AcDbLine
 10
73.85000000000001
 20
215.75
 30
0.0
 11
74.49298230256424
 21
215.75
 31
0.0
  0
LINE
  5
101
330
1F
100
AcDbEntity
  8
0
  6
Continuous
 62
     7
370
     9
100
AcDbLine
 10
81.85000000000002
 20
215.25
 30
0.0
 11
83.0945790614883
 21
215.25
 31
0.0
  0
LINE
  5
102
330
1F
100
AcDbEntity
  8
0
  6
Continuous
 62
     7
370
     9
100
AcDbLine
 10
83.0945790614883
 20
215.25
 30
0.0
 11
83.09457906148835
 21
212.9292053256356
 31
0.0
  0
LWPOLYLINE
  5
103
330
1F
100
AcDbEntity
  8
0
  6
Continuous
 62
     7
370
     9
100
AcDbPolyline
 90
        5
 70
     0
 43
0.0
 10
83.09457906148835
 20
212.9292053256357
 10
82.92420711136505
 20
213.322843017717
 10
82.65152117626727
 20
213.6811017222925
 10
82.28824567030938
 20
213.9885777354233
 10
81.85000000000001
 20
214.2320508075689
  0
LINE
  5
104
330
1F
100
AcDbEntity
  8
0
  6
Continuous
 62
     7
370
     9
100
AcDbLine
 10
81.85000000000002
 20
215.25
 30
0.0
 11
81.85000000000001
 21
214.2320508075689
 31
0.0
  0
LINE
  5
105
330
1F
100
AcDbEntity
  8
0
  6
Continuous
 62
     7
370
     9
100
AcDbLine
 10
81.85000000000002
 20
209.75
 30
0.0
 11
83.0945790614883
 21
209.75
 31
0.0
  0
LWPOLYLINE
  5
106
330
1F
100
AcDbEntity
  8
0
  6
Continuous
 62
     7
370
     9
100
AcDbPolyline
 90
        5
 70
     0
 43
0.0
 10
81.85000000000001
 20
210.7679491924311
 10
82.28824567030938
 20
211.0114222645767
 10
82.65152117626727
 20
211.3188982777075
 10
82.92420711136505
 20
211.677156982283
 10
83.09457906148835
 20
212.0707946743643
  0
LINE
  5
107
330
1F
100
AcDbEntity
  8
0
  6
Continuous
 62
     7
370
     9
100
AcDbLine
 10
83.09457906148835
 20
212.0707946743643
 30
0.0
 11
83.0945790614883
 21
209.75
 31
0.0
  0
LINE
  5
108
330
1F
100
AcDbEntity
  8
0
  6
Continuous
 62
     7
370
     9
100
AcDbLine
 10
81.85000000000001
 20
210.7679491924311
 30
0.0
 11
81.85000000000002
 21
209.75
 31
0.0
  0
LWPOLYLINE
  5
109
330
1F
100
AcDbEntity
  8
0
  6
Continuous
 62
     7
370
     9
100
AcDbPolyline
 90
        3
 70
     0
 43
0.0
 10
83.09457906148833
 20
212.0707946743643
 10
83.13027453086819
 20
212.5
 10
83.09457906148833
 20
212.9292053256357
  0
LWPOLYLINE
  5
10A
330
1F
100
AcDbEntity
  8
0
  6
Continuous
 62
     7
370
     9
100
AcDbPolyline
 90
       12
 70
     0
 43
0.0
 10
81.85
 20
210.7679491924311
 10
82.08726040939223
 20
210.9885008512915
 10
82.2882587673294
 20
211.2636820275588
 10
82.44573046945956
 20
211.5835469565452
 10
82.5539840781792
 20
211.9365348863171
 10
82.60910702601718
 20
212.3098879133916
 10
82.60910702601718
 20
212.6901120866084
 10
82.55398407817921
 20
213.0634651136829
 10
82.44573046945956
 20
213.4164530434548
 10
82.2882587673294
 20
213.7363179724412
 10
82.08726040939223
 20
214.0114991487085
 10
81.85
 20
214.2320508075689
  0
LINE
  5
10B
330
1F
100
AcDbEntity
  8
0
  6
Continuous
 62
     7
370
     9
100
AcDbLine
 10
85.50701769743577
 20
215.75
 30
0.0
 11
84.27934119554665
 21
215.75
 31
0.0
  0
LINE
  5
10C
330
1F
100
AcDbEntity
  8
0
  6
Continuous
 62
     7
370
     9
100
AcDbLine
 10
85.50701769743577
 20
213.5
 30
0.0
 11
84.50915452848237
 21
213.5
 31
0.0
  0
LWPOLYLINE
  5
10D
330
1F
100
AcDbEntity
  8
0
  6
Continuous
 62
     7
370
     9
100
AcDbPolyline
 90
        9
 70
     0
 43
0.0
 10
84.50915452848237
 20
213.5
 10
84.46432017135635
 20
213.494235584121
 10
84.42120877343127
 20
213.4771638597534
 10
84.38147708155228
 20
213.4494408836908
 10
84.34665196235646
 20
213.4121320343559
 10
84.31807172564437
 20
213.3666710699059
 10
84.29683469388489
 20
213.3148050297095
 10
84.28375699429864
 20
213.2585270966048
 10
84.27934119554668
 20
213.2
  0
LINE
  5
10E
330
1F
100
AcDbEntity
  8
0
  6
Continuous
 62
     7
370
     9
100
AcDbLine
 10
84.27934119554666
 20
213.2
 30
0.0
 11
84.27934119554666
 21
211.8
 31
0.0
  0
LWPOLYLINE
  5
10F
330
1F
100
AcDbEntity
  8
0
  6
Continuous
 62
     7
370
     9
100
AcDbPolyline
 90
        9
 70
     0
 43
0.0
 10
84.27934119554666
 20
211.8
 10
84.28375699429863
 20
211.7414729033951
 10
84.29683469388488
 20
211.6851949702905
 10
84.31807172564437
 20
211.6333289300941
 10
84.34665196235646
 20
211.587867965644
 10
84.38147708155228
 20
211.5505591163092
 10
84.42120877343127
 20
211.5228361402466
 10
84.46432017135635
 20
211.505764415879
 10
84.50915452848237
 20
211.5
  0
LINE
  5
110
330
1F
100
AcDbEntity
  8
0
  6
Continuous
 62
     7
370
     9
100
AcDbLine
 10
85.50701769743577
 20
211.5
 30
0.0
 11
84.50915452848237
 21
211.5
 31
0.0
  0
LINE
  5
111
330
1F
100
AcDbEntity
  8
0
  6
Continuous
 62
     7
370
     9
100
AcDbLine
 10
85.50701769743577
 20
209.25
 30
0.0
 11
84.27934119554668
 21
209.25
 31
0.0
  0
LINE
  5
112
330
1F
100
AcDbEntity
  8
0
  6
Continuous
 62
     7
370
     9
100
AcDbLine
 10
84.27934119554668
 20
209.25
 30
0.0
 11
84.27934119554665
 21
209.55
 31
0.0
  0
LWPOLYLINE
  5
113
330
1F
100
AcDbEntity
  8
0
  6
Continuous
 62
     7
370
     9
100
AcDbPolyline
 90
        9
 70
     0
 43
0.0
 10
84.27934119554669
 20
209.55
 10
84.27639732971205
 20
209.5890180644032
 10
84.26767886332122
 20
209.626536686473
 10
84.25352084214822
 20
209.6611140466039
 10
84.23446735100683
 20
209.6914213562373
 10
84.21125060487628
 20
209.7162939224605
 10
84.18476281029028
 20
209.7347759065023
 10
84.15602187834024
 20
209.7461570560806
 10
84.12613230692288
 20
209.75
  0
LINE
  5
114
330
1F
100
AcDbEntity
  8
0
  6
Continuous
 62
     7
370
     9
100
AcDbLine
 10
83.0945790614883
 20
209.75
 30
0.0
 11
84.12613230692288
 21
209.75
 31
0.0
  0
LWPOLYLINE
  5
115
330
1F
100
AcDbEntity
  8
0
  6
Continuous
 62
     7
370
     9
100
AcDbPolyline
 90
        9
 70
     0
 43
0.0
 10
84.12613230692287
 20
215.25
 10
84.15602187834023
 20
215.2538429439193
 10
84.18476281029027
 20
215.2652240934977
 10
84.21125060487628
 20
215.2837060775395
 10
84.23446735100683
 20
215.3085786437627
 10
84.25352084214822
 20
215.3388859533961
 10
84.26767886332121
 20
215.373463313527
 10
84.27639732971204
 20
215.4109819355968
 10
84.27934119554668
 20
215.45
  0
LINE
  5
116
330
1F
100
AcDbEntity
  8
0
  6
Continuous
 62
     7
370
     9
100
AcDbLine
 10
84.27934119554665
 20
215.75
 30
0.0
 11
84.27934119554665
 21
215.45
 31
0.0
  0
LINE
  5
117
330
1F
100
AcDbEntity
  8
0
  6
Continuous
 62
     7
370
     9
100
AcDbLine
 10
83.0945790614883
 20
215.25
 30
0.0
 11
84.12613230692288
 21
215.25
 31
0.0
  0
LWPOLYLINE
  5
118
330
1F
100
AcDbEntity
  8
0
  6
Continuous
 62
     7
370
     9
100
AcDbPolyline
 90
        9
 70
     0
 43
0.0
 10
83.76511110779745
 20
209.55
 10
83.76216724196281
 20
209.5890180644032
 10
83.75344877557198
 20
209.626536686473
 10
83.73929075439898
 20
209.6611140466039
 10
83.7202372632576
 20
209.6914213562373
 10
83.69702051712706
 20
209.7162939224605
 10
83.67053272254105
 20
209.7347759065022
 10
83.64179179059101
 20
209.7461570560806
 10
83.61190221917367
 20
209.75
  0
LWPOLYLINE
  5
119
330
1F
100
AcDbEntity
  8
0
  6
Continuous
 62
     7
370
     9
100
AcDbPolyline
 90
        9
 70
     0
 43
0.0
 10
83.61190221917367
 20
215.25
 10
83.64179179059103
 20
215.2538429439193
 10
83.67053272254107
 20
215.2652240934977
 10
83.69702051712707
 20
215.2837060775395
 10
83.72023726325762
 20
215.3085786437627
 10
83.73929075439901
 20
215.3388859533961
 10
83.75344877557201
 20
215.373463313527
 10
83.76216724196284
 20
215.4109819355968
 10
83.76511110779748
 20
215.45
  0
LINE
  5
11A
330
1F
100
AcDbEntity
  8
0
  6
Continuous
 62
     7
370
     9
100
AcDbLine
 10
84.27934119554665
 20
215.75
 30
0.0
 11
83.76511110779747
 21
215.75
 31
0.0
  0
LINE
  5
11B
330
1F
100
AcDbEntity
  8
0
  6
Continuous
 62
     7
370
     9
100
AcDbLine
 10
83.76511110779747
 20
215.75
 30
0.0
 11
83.76511110779747
 21
215.45
 31
0.0
  0
LINE
  5
11C
330
1F
100
AcDbEntity
  8
0
  6
Continuous
 62
     7
370
     9
100
AcDbLine
 10
84.27934119554668
 20
209.25
 30
0.0
 11
83.76511110779747
 21
209.25
 31
0.0
  0
LINE
  5
11D
330
1F
100
AcDbEntity
  8
0
  6
Continuous
 62
     7
370
     9
100
AcDbLine
 10
83.76511110779747
 20
209.25
 30
0.0
 11
83.76511110779747
 21
209.55
 31
0.0
  0
LINE
  5
11E
330
1F
100
AcDbEntity
  8
0
  6
Continuous
 62
     7
370
     9
100
AcDbLine
 10
86.08855030641793
 20
213.2
 30
0.0
 11
85.97873342602556
 21
213.5
 31
0.0
  0
LINE
  5
11F
330
1F
100
AcDbEntity
  8
0
  6
Continuous
 62
     7
370
     9
100
AcDbLine
 10
86.15
 20
215.75
 30
0.0
 11
86.15
 21
209.25
 31
0.0
  0
LINE
  5
120
330
1F
100
AcDbEntity
  8
0
  6
Continuous
 62
     7
370
     9
100
AcDbLine
 10
85.97873342602556
 20
211.5
 30
0.0
 11
86.08855030641793
 21
211.8
 31
0.0
  0
LINE
  5
121
330
1F
100
AcDbEntity
  8
0
  6
Continuous
 62
     7
370
     9
100
AcDbLine
 10
86.08855030641793
 20
213.2
 30
0.0
 11
86.08855030641793
 21
211.8
 31
0.0
  0
LINE
  5
122
330
1F
100
AcDbEntity
  8
0
  6
Continuous
 62
     7
370
     9
100
AcDbLine
 10
85.97873342602556
 20
213.5
 30
0.0
 11
85.50701769743576
 21
213.5
 31
0.0
  0
LINE
  5
123
330
1F
100
AcDbEntity
  8
0
  6
Continuous
 62
     7
370
     9
100
AcDbLine
 10
85.97873342602556
 20
211.5
 30
0.0
 11
85.50701769743576
 21
211.5
 31
0.0
  0
LINE
  5
124
330
1F
100
AcDbEntity
  8
0
  6
Continuous
 62
     7
370
     9
100
AcDbLine
 10
86.14999999999999
 20
209.25
 30
0.0
 11
85.50701769743576
 21
209.25
 31
0.0
  0
LINE
  5
125
330
1F
100
AcDbEntity
  8
0
  6
Continuous
 62
     7
370
     9
100
AcDbLine
 10
86.14999999999999
 20
215.75
 30
0.0
 11
85.50701769743576
 21
215.75
 31
0.0
  0
LWPOLYLINE
  5
126
330
1F
100
AcDbEntity
  8
0
  6
Continuous
 62
     7
370
     9
100
AcDbPolyline
 90
        4
 70
     0
 43
0.0
 10
-83.85094349652887
 20
205.3521867482544
 10
-83.8418885335473
 20
205.2230769748427
 10
-83.81557501052856
 20
205.0984559325233
 10
-83.77198177631342
 20
204.9783236212963
210
0.0
220
0.0
230
-1.0
  0
ARC
  5
127
330
1F
100
AcDbEntity
  8
0
  6
Continuous
 62
     7
370
     9
100
AcDbCircle
 10
82.83188018123678
 20
205.4012614017506
 30
0.0
 40
1.030857592105365
100
AcDbArc
 50
299.5782191880404
 51
335.77772551039
  0
LINE
  5
128
330
1F
100
AcDbEntity
  8
0
  6
Continuous
 62
     7
370
     9
100
AcDbLine
 10
85.25
 20
208.9279337813964
 30
0.0
 11
85.25
 21
204.4362260477784
 31
0.0
  0
LWPOLYLINE
  5
129
330
1F
100
AcDbEntity
  8
0
  6
Continuous
 62
     7
370
     9
100
AcDbPolyline
 90
       37
 70
     0
 43
0.0
 10
-85.75
 20
203.9398807864142
 10
-85.72820365475162
 20
203.9401732322316
 10
-85.7063710512755
 20
203.9414237724838
 10
-85.68455583505127
 20
203.9436369511561
 10
-85.66281165155854
 20
203.9468173122339
 10
-85.6405567736808
 20
203.9511044442415
 10
-85.61842069447404
 20
203.9564288925343
 10
-85.59646849556971
 20
203.962786724995
 10
-85.57476525859924
 20
203.9701740095065
 10
-85.55389849724232
 20
203.9783643303953
 10
-85.53331773336203
 20
203.9875405749071
 10
-85.51308866002563
 20
203.9976869273154
 10
-85.49327697030049
 20
204.0087875718931
 10
-85.47326507506591
 20
204.0212716317929
 10
-85.45376045785166
 20
204.0347759118964
 10
-85.43483865932383
 20
204.0492649849845
 10
-85.41657522014849
 20
204.0647034238385
 10
-85.40081970011806
 20
204.0793203248515
 10
-85.38564084831357
 20
204.0946850234843
 10
-85.3710908806575
 20
204.1107577385014
 10
-85.35722201307239
 20
204.1274986886672
 10
-85.34362097178358
 20
204.1455078215901
 10
-85.33079681164017
 20
204.1642057728208
 10
-85.3188000196603
 20
204.183533074486
 10
-85.3076810828621
 20
204.203430258712
 10
-85.2985403583292
 20
204.2216109824354
 10
-85.2901257327784
 20
204.2402133422304
 10
-85.28246442656348
 20
204.2591863269094
 10
-85.27558366003827
 20
204.278478925285
 10
-85.26931597835744
 20
204.2987059705922
 10
-85.26390113330494
 20
204.3192353929586
 10
-85.25935732971524
 20
204.3400044548503
 10
-85.25570277242288
 20
204.3609504187336
 10
-85.25321349522093
 20
204.3796545837932
 10
-85.25143074709064
 20
204.3984657971741
 10
-85.25035831852072
 20
204.4173382285959
 10
-85.25
 20
204.4362260477784
210
0.0
220
0.0
230
-1.0
  0
LINE
  5
12A
330
1F
100
AcDbEntity
  8
0
  6
Continuous
 62
     7
370
     9
100
AcDbLine
 10
85.75
 20
203.9398807864142
 30
0.0
 11
88.46759631833156
 21
203.9914247839796
 31
0.0
  0
LWPOLYLINE
  5
12B
330
1F
100
AcDbEntity
  8
0
  6
Continuous
 62
     7
370
     9
100
AcDbPolyline
 90
       38
 70
     0
 43
0.0
 10
-88.63222575437042
 20
204.4913486315579
 10
-88.63211051833407
 20
204.4712216154073
 10
-88.6317652014537
 20
204.4511122983472
 10
-88.63119039057239
 20
204.4310732607381
 10
-88.63038667253322
 20
204.4111570829411
 10
-88.62931938268872
 20
204.3908034358203
 10
-88.62800863998015
 20
204.3706170248927
 10
-88.6264564455134
 20
204.3506527558351
 10
-88.62466480039434
 20
204.3309655343243
 10
-88.62269396070214
 20
204.3121245072222
 10
-88.62049582507255
 20
204.2935769350582
 10
-88.61807362040119
 20
204.2753687989122
 10
-88.61543057358368
 20
204.2575460798645
 10
-88.61248094855783
 20
204.2396359935686
 10
-88.60929636168265
 20
204.2221625579921
 10
-88.60588202169316
 20
204.2051691115296
 10
-88.60224313732436
 20
204.1886989925755
 10
-88.59843761124193
 20
204.1729981897847
 10
-88.59441350052052
 20
204.1578274317265
 10
-88.59017754116238
 20
204.1432204092487
 10
-88.58573646916977
 20
204.1292108131993
 10
-88.58096107664831
 20
204.1154539131678
 10
-88.57596998366482
 20
204.102343386714
 10
-88.57077240552624
 20
204.0899066094832
 10
-88.56537755753953
 20
204.0781709571208
 10
-88.55973484591459
 20
204.0670476882576
 10
-88.55389392182097
 20
204.056647099936
 10
-88.54786610588897
 20
204.0469879308286
 10
-88.54166271874874
 20
204.0380889196082
 10
-88.53511546684527
 20
204.0297502546983
 10
-88.52838836781227
 20
204.0222144593503
 10
-88.5214954186106
 20
204.0154925098843
 10
-88.51445061620113
 20
204.0095953826206
 10
-88.50547413309029
 20
204.0034120279956
 10
-88.49626987144376
 20
203.9985006304461
 10
-88.48686842156569
 20
203.9948638503452
 10
-88.47730037376026
 20
203.9925043480654
 10
-88.46759631833156
 20
203.9914247839796
210
0.0
220
0.0
230
-1.0
  0
LINE
  5
12C
330
1F
100
AcDbEntity
  8
0
  6
Continuous
 62
     7
370
     9
100
AcDbLine
 10
88.63222575437042
 20
204.4913486315579
 30
0.0
 11
88.63222575437042
 21
211.4301584610165
 31
0.0
  0
LINE
  5
12D
330
1F
100
AcDbEntity
  8
0
  6
Continuous
 62
     7
370
     9
100
AcDbLine
 10
88.63222575437042
 20
211.4301584610165
 30
0.0
 11
88.83737268084626
 21
211.4758366702156
 31
0.0
  0
LINE
  5
12E
330
1F
100
AcDbEntity
  8
0
  6
Continuous
 62
     7
370
     9
100
AcDbLine
 10
83.85094349652887
 20
208.9251559123748
 30
0.0
 11
83.85094349652887
 21
205.3521867482538
 31
0.0
  0
LINE
  5
12F
330
1F
100
AcDbEntity
  8
0
  6
Continuous
 62
     7
370
     9
100
AcDbLine
 10
83.85094349652887
 20
208.9251559123748
 30
0.0
 11
85.25
 21
208.9279337813964
 31
0.0
  0
LINE
  5
130
330
1F
100
AcDbEntity
  8
0
  6
Continuous
 62
     7
370
     9
100
AcDbLine
 10
80.44582823077224
 20
205.3519988224745
 30
0.0
 11
80.44582823077224
 21
205.75
 31
0.0
  0
LWPOLYLINE
  5
131
330
1F
100
AcDbEntity
  8
0
  6
Continuous
 62
     7
370
     9
100
AcDbPolyline
 90
       39
 70
     0
 43
0.0
 10
-81.45199882247451
 20
204.3458282307722
 10
-81.41189727076171
 20
204.3456283015451
 10
-81.37228054356005
 20
204.3470086607342
 10
-81.33314864086951
 20
204.3499693083398
 10
-81.29450156269012
 20
204.3545102443616
 10
-81.25633930902184
 20
204.3606314687998
 10
-81.2186618798647
 20
204.3683329816543
 10
-81.18146927521866
 20
204.3776147829252
 10
-81.14476149508376
 20
204.3884768726124
 10
-81.10853853946
 20
204.4009192507159
 10
-81.07280040834735
 20
204.4149419172358
 10
-81.0333492851608
 20
204.4325234221459
 10
-80.994506325841
 20
204.4520872408455
 10
-80.95627153038797
 20
204.4736333733345
 10
-80.91864489880169
 20
204.497161819613
 10
-80.88162643108217
 20
204.5226725796809
 10
-80.84586097815715
 20
204.5496573226182
 10
-80.8106821628906
 20
204.5785542145393
 10
-80.77608998528251
 20
204.6093632554442
 10
-80.74208444533289
 20
204.6420844453329
 10
-80.7087844151443
 20
204.6766481415434
 10
-80.67746688962032
 20
204.7118277794889
 10
-80.64813186876097
 20
204.7476233591695
 10
-80.62077935256623
 20
204.7840348805851
 10
-80.5954093410361
 20
204.8210623437357
 10
-80.57242208337537
 20
204.8580281436878
 10
-80.55134715881748
 20
204.8955880838659
 10
-80.5321845673624
 20
204.9337421642698
 10
-80.51493430901016
 20
204.9724903848997
 10
-80.50091171857254
 20
205.0082316162468
 10
-80.48846956871579
 20
205.044463872574
 10
-80.47760785943987
 20
205.0811871538813
 10
-80.46832659074481
 20
205.1184014601686
 10
-80.46062576263058
 20
205.1561067914361
 10
-80.45450537509723
 20
205.1943031476836
 10
-80.44996542814471
 20
205.2329905289112
 10
-80.44700592177303
 20
205.2721689351189
 10
-80.44562685598221
 20
205.3118383663066
 10
-80.44582823077224
 20
205.3519988224745
210
0.0
220
0.0
230
-1.0
  0
LINE
  5
132
330
1F
100
AcDbEntity
  8
0
  6
Continuous
 62
     7
370
     9
100
AcDbLine
 10
82.7980011775255
 20
204.3458282307722
 30
0.0
 11
81.45199882247451
 21
204.3458282307722
 31
0.0
  0
LINE
  5
133
330
1F
100
AcDbEntity
  8
0
  6
Continuous
 62
     7
370
     9
100
AcDbLine
 10
83.34072313872409
 20
204.5058955236386
 30
0.0
 11
82.7980011775255
 21
204.3458282307722
 31
0.0
  0
LINE
  5
134
330
1F
100
AcDbEntity
  8
0
  6
Continuous
 62
     7
370
     9
100
AcDbLine
 10
77.2019988224745
 20
204.3458282307722
 30
0.0
 11
76.65927686127588
 21
204.5058955236386
 31
0.0
  0
LINE
  5
135
330
1F
100
AcDbEntity
  8
0
  6
Continuous
 62
     7
370
     9
100
AcDbLine
 10
78.54800117752549
 20
204.3458282307722
 30
0.0
 11
77.2019988224745
 21
204.3458282307722
 31
0.0
  0
LWPOLYLINE
  5
136
330
1F
100
AcDbEntity
  8
0
  6
Continuous
 62
     7
370
     9
100
AcDbPolyline
 90
       39
 70
     0
 43
0.0
 10
-79.55417176922776
 20
205.3519988224745
 10
-79.55437169845491
 20
205.3118972707618
 10
-79.55299133926574
 20
205.2722805435602
 10
-79.55003069166023
 20
205.2331486408697
 10
-79.54548975563839
 20
205.1945015626903
 10
-79.5393685312002
 20
205.1563393090221
 10
-79.53166701834567
 20
205.118661879865
 10
-79.52238521707481
 20
205.081469275219
 10
-79.51152312738762
 20
205.0447614950841
 10
-79.49908074928409
 20
205.0085385394603
 10
-79.48505808276423
 20
204.9728004083477
 10
-79.4674765778541
 20
204.9333492851611
 10
-79.44791275915452
 20
204.8945063258413
 10
-79.42636662666551
 20
204.8562715303883
 10
-79.40283818038702
 20
204.8186448988019
 10
-79.37732742031909
 20
204.7816264310824
 10
-79.35034267738175
 20
204.7458609781573
 10
-79.32144578546064
 20
204.7106821628907
 10
-79.29063674455575
 20
204.6760899852826
 10
-79.25791555466711
 20
204.6420844453329
 10
-79.22335185845665
 20
204.6087844151443
 10
-79.18817222051116
 20
204.5774668896203
 10
-79.15237664083067
 20
204.548131868761
 10
-79.11596511941512
 20
204.5207793525662
 10
-79.07893765626459
 20
204.4954093410361
 10
-79.04197185631246
 20
204.4724220833754
 10
-79.00441191613444
 20
204.4513471588175
 10
-78.9662578357305
 20
204.4321845673624
 10
-78.92750961510067
 20
204.4149343090101
 10
-78.89176838375354
 20
204.4009117185726
 10
-78.85553612742633
 20
204.3884695687158
 10
-78.81881284611903
 20
204.3776078594399
 10
-78.78159853983165
 20
204.3683265907448
 10
-78.74389320856417
 20
204.3606257626306
 10
-78.7056968523166
 20
204.3545053750972
 10
-78.66700947108897
 20
204.3499654281447
 10
-78.62783106488124
 20
204.347005921773
 10
-78.5881616336934
 20
204.3456268559822
 10
-78.54800117752549
 20
204.3458282307722
210
0.0
220
0.0
230
-1.0
  0
LINE
  5
137
330
1F
100
AcDbEntity
  8
0
  6
Continuous
 62
     7
370
     9
100
AcDbLine
 10
79.55417176922776
 20
205.75
 30
0.0
 11
79.55417176922776
 21
205.3519988224745
 31
0.0
  0
LINE
  5
138
330
1F
100
AcDbEntity
  8
0
  6
Continuous
 62
     7
370
     9
100
AcDbLine
 10
79.55417176922775
 20
205.75
 30
0.0
 11
80.44582823077225
 21
205.75
 31
0.0
  0
LWPOLYLINE
  5
139
330
1F
100
AcDbEntity
  8
0
  6
Continuous
 62
     7
370
     9
100
AcDbPolyline
 90
       25
 70
     0
 43
0.0
 10
-76.65927686744323
 20
204.5047424526546
 10
-76.61496287909094
 20
204.5318181738462
 10
-76.57253214350494
 20
204.5603910691818
 10
-76.53198667519804
 20
204.5904611386613
 10
-76.49332787614439
 20
204.6220283822847
 10
-76.45655660690801
 20
204.6550928000521
 10
-76.42167325451649
 20
204.6896543919634
 10
-76.39674968609937
 20
204.7165581064289
 10
-76.37288792542385
 20
204.7443039813504
 10
-76.35008773615786
 20
204.7728920167277
 10
-76.32834879919372
 20
204.8023222125611
 10
-76.30767072533382
 20
204.8325945688504
 10
-76.28805306738643
 20
204.8637090855957
 10
-76.26949533167046
 20
204.895665762797
 10
-76.25199698893003
 20
204.9284646004542
 10
-76.23252635222138
 20
204.9688078457717
 10
-76.21509808980441
 20
205.0096019731921
 10
-76.19971083832463
 20
205.0508469827152
 10
-76.18636330818867
 20
205.092542874341
 10
-76.17505431546986
 20
205.1346896480696
 10
-76.16578280957779
 20
205.1772873039009
 10
-76.15854789669666
 20
205.220335841835
 10
-76.15334885899702
 20
205.2638352618719
 10
-76.15018516962479
 20
205.3077855640115
 10
-76.14905650347114
 20
205.3521867482538
210
0.0
220
0.0
230
-1.0
  0
LINE
  5
13A
330
1F
100
AcDbEntity
  8
0
  6
Continuous
 62
     7
370
     9
100
AcDbLine
 10
71.16262731915371
 20
211.4758366702156
 30
0.0
 11
71.36777424562956
 21
211.4301584610165
 31
0.0
  0
LINE
  5
13B
330
1F
100
AcDbEntity
  8
0
  6
Continuous
 62
     7
370
     9
100
AcDbLine
 10
71.36777424562956
 20
211.4301584610165
 30
0.0
 11
71.36777424562956
 21
204.4913486315579
 31
0.0
  0
LWPOLYLINE
  5
13C
330
1F
100
AcDbEntity
  8
0
  6
Continuous
 62
     7
370
     9
100
AcDbPolyline
 90
       37
 70
     0
 43
0.0
 10
-71.53240368166841
 20
203.9914247839796
 10
-71.52416003341558
 20
203.9922559828307
 10
-71.51601695170314
 20
203.9940048549664
 10
-71.50799348683559
 20
203.9966716712081
 10
-71.50010868911741
 20
204.0002567023768
 10
-71.49215305738505
 20
204.0049060755716
 10
-71.48435490340903
 20
204.0105327827065
 10
-71.47673305985195
 20
204.0171276101605
 10
-71.46930635937653
 20
204.0246813443125
 10
-71.46227140678252
 20
204.0329562660278
 10
-71.4554285777316
 20
204.0421396444493
 10
-71.44879313792622
 20
204.0522119124778
 10
-71.4423803530688
 20
204.0631535030134
 10
-71.43600022332991
 20
204.0753544954398
 10
-71.42986176769682
 20
204.0884722008818
 10
-71.42397900180814
 20
204.1024709553488
 10
-71.41836594130241
 20
204.1173150948503
 10
-71.413419599364
 20
204.1317810689893
 10
-71.40870491815868
 20
204.1469518258285
 10
-71.40423059396173
 20
204.1627877559711
 10
-71.40000532304843
 20
204.1792492500202
 10
-71.39590612270541
 20
204.1968852512515
 10
-71.39207160575052
 20
204.2151597367138
 10
-71.38850875524743
 20
204.2340176283769
 10
-71.38522455425979
 20
204.253403848211
 10
-71.38244560212279
 20
204.2717163919695
 10
-71.37990161292508
 20
204.2904465273478
 10
-71.37759620677252
 20
204.3095439057457
 10
-71.37553300377097
 20
204.3289581785631
 10
-71.37365953877745
 20
204.3492856835798
 10
-71.37204184921394
 20
204.3699125416739
 10
-71.37068216043342
 20
204.3907781323708
 10
-71.36958269778877
 20
204.4118218351958
 10
-71.36879235105458
 20
204.4315750917844
 10
-71.36822711518957
 20
204.4514481619514
 10
-71.36788755758423
 20
204.4713897678312
 10
-71.36777424562956
 20
204.4913486315579
210
0.0
220
0.0
230
-1.0
  0
LINE
  5
13D
330
1F
100
AcDbEntity
  8
0
  6
Continuous
 62
     7
370
     9
100
AcDbLine
 10
71.53240368166841
 20
203.9914247839796
 30
0.0
 11
74.24999999999999
 21
203.9398807864142
 31
0.0
  0
LWPOLYLINE
  5
13E
330
1F
100
AcDbEntity
  8
0
  6
Continuous
 62
     7
370
     9
100
AcDbPolyline
 90
       37
 70
     0
 43
0.0
 10
-74.75
 20
204.4362260477784
 10
-74.74961187004857
 20
204.4165719202095
 10
-74.74845045861984
 20
204.3969351372853
 10
-74.74652023335213
 20
204.3773673180311
 10
-74.74382566188376
 20
204.3579200814721
 10
-74.74025385084678
 20
204.3380435559005
 10
-74.73588071706384
 20
204.3183312319624
 10
-74.73072198830762
 20
204.2988368412026
 10
-74.72479339235083
 20
204.2796141151659
 10
-74.7183042403042
 20
204.2612218299666
 10
-74.71110628474038
 20
204.2431165924795
 10
-74.70322270350235
 20
204.2253426676704
 10
-74.69467667443311
 20
204.2079443205052
 10
-74.68520989249352
 20
204.190463555444
 10
-74.67506884776485
 20
204.1734063957273
 10
-74.66428613189161
 20
204.1568133775307
 10
-74.65289433651834
 20
204.1407250370304
 10
-74.64102289286768
 20
204.1252975768676
 10
-74.62858473330408
 20
204.1103841220693
 10
-74.61561622115183
 20
204.0960154185891
 10
-74.60215371973521
 20
204.0822222123803
 10
-74.58784209197275
 20
204.0686751429866
 10
-74.57304566727336
 20
204.0557455412774
 10
-74.55780593494363
 20
204.0434569692023
 10
-74.54216438429006
 20
204.0318329887109
 10
-74.51983585706557
 20
204.0168284269232
 10
-74.49678432540681
 20
204.0031018083882
 10
-74.47311710186773
 20
203.9906810212564
 10
-74.44894149900232
 20
203.9795939536784
 10
-74.42436482936454
 20
203.9698684938046
 10
-74.39949440550838
 20
203.9615325297857
 10
-74.3749585754965
 20
203.9547279034655
 10
-74.35015799165761
 20
203.9492055110352
 10
-74.3251772480901
 20
203.9449624778048
 10
-74.30010093889238
 20
203.9419959290845
 10
-74.27501365816289
 20
203.9403029901842
 10
-74.25
 20
203.9398807864142
210
0.0
220
0.0
230
-1.0
  0
LINE
  5
13F
330
1F
100
AcDbEntity
  8
0
  6
Continuous
 62
     7
370
     9
100
AcDbLine
 10
74.75
 20
204.4362260477784
 30
0.0
 11
74.75
 21
208.9279337813964
 31
0.0
  0
LINE
  5
140
330
1F
100
AcDbEntity
  8
0
  6
Continuous
 62
     7
370
     9
100
AcDbLine
 10
74.75
 20
208.9279337813964
 30
0.0
 11
76.14905650347116
 21
208.9251559123748
 31
0.0
  0
LINE
  5
141
330
1F
100
AcDbEntity
  8
0
  6
Continuous
 62
     7
370
     9
100
AcDbLine
 10
76.14905650347114
 20
205.3521867482538
 30
0.0
 11
76.14905650347114
 21
208.9251559123748
 31
0.0
  0
LINE
  5
142
330
1F
100
AcDbEntity
  8
0
  6
Continuous
 62
     7
370
     9
100
AcDbLine
 10
74.75
 20
216.0720662186036
 30
0.0
 11
74.75
 21
220.5637739522216
 31
0.0
  0
LWPOLYLINE
  5
143
330
1F
100
AcDbEntity
  8
0
  6
Continuous
 62
     7
370
     9
100
AcDbPolyline
 90
       37
 70
     0
 43
0.0
 10
-74.25
 20
221.0601192135857
 10
-74.27179634524838
 20
221.0598267677684
 10
-74.2936289487245
 20
221.0585762275162
 10
-74.31544416494873
 20
221.0563630488439
 10
-74.33718834844146
 20
221.0531826877661
 10
-74.3594432263192
 20
221.0488955557585
 10
-74.38157930552596
 20
221.0435711074657
 10
-74.40353150443029
 20
221.037213275005
 10
-74.42523474140076
 20
221.0298259904935
 10
-74.44610150275768
 20
221.0216356696047
 10
-74.46668226663797
 20
221.0124594250928
 10
-74.48691133997437
 20
221.0023130726846
 10
-74.50672302969951
 20
220.9912124281069
 10
-74.52673492493409
 20
220.978728368207
 10
-74.54623954214833
 20
220.9652240881036
 10
-74.56516134067617
 20
220.9507350150154
 10
-74.58342477985151
 20
220.9352965761615
 10
-74.59918029988194
 20
220.9206796751485
 10
-74.61435915168643
 20
220.9053149765157
 10
-74.62890911934248
 20
220.8892422614986
 10
-74.64277798692761
 20
220.8725013113328
 10
-74.65637902821642
 20
220.8544921784099
 10
-74.66920318835983
 20
220.8357942271792
 10
-74.6811999803397
 20
220.8164669255141
 10
-74.6923189171379
 20
220.796569741288
 10
-74.7014596416708
 20
220.7783890175645
 10
-74.7098742672216
 20
220.7597866577696
 10
-74.71753557343652
 20
220.7408136730906
 10
-74.72441633996172
 20
220.721521074715
 10
-74.73068402164256
 20
220.7012940294078
 10
-74.73609886669506
 20
220.6807646070414
 10
-74.74064267028476
 20
220.6599955451497
 10
-74.74429722757712
 20
220.6390495812664
 10
-74.74678650477907
 20
220.6203454162068
 10
-74.74856925290936
 20
220.6015342028259
 10
-74.74964168147928
 20
220.582661771404
 10
-74.75
 20
220.5637739522216
210
0.0
220
0.0
230
-1.0
  0
LINE
  5
144
330
1F
100
AcDbEntity
  8
0
  6
Continuous
 62
     7
370
     9
100
AcDbLine
 10
74.25000000000001
 20
221.0601192135857
 30
0.0
 11
71.53240368166843
 21
221.0085752160203
 31
0.0
  0
LWPOLYLINE
  5
145
330
1F
100
AcDbEntity
  8
0
  6
Continuous
 62
     7
370
     9
100
AcDbPolyline
 90
       38
 70
     0
 43
0.0
 10
-71.36777424562956
 20
220.5086513684421
 10
-71.36788948166591
 20
220.5287783845927
 10
-71.36823479854628
 20
220.5488877016528
 10
-71.36880960942759
 20
220.5689267392618
 10
-71.36961332746677
 20
220.5888429170589
 10
-71.37068061731127
 20
220.6091965641797
 10
-71.37199136001983
 20
220.6293829751073
 10
-71.37354355448657
 20
220.6493472441649
 10
-71.37533519960564
 20
220.6690344656757
 10
-71.37730603929785
 20
220.6878754927778
 10
-71.37950417492743
 20
220.7064230649418
 10
-71.38192637959878
 20
220.7246312010877
 10
-71.3845694264163
 20
220.7424539201355
 10
-71.38751905144215
 20
220.7603640064314
 10
-71.39070363831733
 20
220.7778374420078
 10
-71.39411797830681
 20
220.7948308884704
 10
-71.39775686267562
 20
220.8113010074245
 10
-71.40156238875804
 20
220.8270018102153
 10
-71.40558649947947
 20
220.8421725682735
 10
-71.40982245883761
 20
220.8567795907512
 10
-71.4142635308302
 20
220.8707891868007
 10
-71.41903892335166
 20
220.8845460868322
 10
-71.42403001633517
 20
220.897656613286
 10
-71.42922759447374
 20
220.9100933905168
 10
-71.43462244246047
 20
220.9218290428791
 10
-71.4402651540854
 20
220.9329523117424
 10
-71.446106078179
 20
220.943352900064
 10
-71.45213389411101
 20
220.9530120691714
 10
-71.45833728125123
 20
220.9619110803918
 10
-71.4648845331547
 20
220.9702497453017
 10
-71.4716116321877
 20
220.9777855406497
 10
-71.47850458138937
 20
220.9845074901157
 10
-71.48554938379885
 20
220.9904046173794
 10
-71.49452586690968
 20
220.9965879720044
 10
-71.50373012855621
 20
221.0014993695538
 10
-71.51313157843428
 20
221.0051361496548
 10
-71.52269962623973
 20
221.0074956519346
 10
-71.53240368166841
 20
221.0085752160203
210
0.0
220
0.0
230
-1.0
  0
LINE
  5
146
330
1F
100
AcDbEntity
  8
0
  6
Continuous
 62
     7
370
     9
100
AcDbLine
 10
71.36777424562956
 20
220.5086513684421
 30
0.0
 11
71.36777424562956
 21
213.5698415389835
 31
0.0
  0
LINE
  5
147
330
1F
100
AcDbEntity
  8
0
  6
Continuous
 62
     7
370
     9
100
AcDbLine
 10
71.36777424562958
 20
213.5698415389835
 30
0.0
 11
71.16262731915371
 21
213.5241633297844
 31
0.0
  0
LWPOLYLINE
  5
148
330
1F
100
AcDbEntity
  8
0
  6
Continuous
 62
     7
370
     9
100
AcDbPolyline
 90
        4
 70
     0
 43
0.0
 10
-76.14905650347113
 20
219.6478132517455
 10
-76.15811146645022
 20
219.7769230251433
 10
-76.18442498946166
 20
219.9015440674474
 10
-76.22801822366468
 20
220.0216763786578
210
0.0
220
0.0
230
-1.0
  0
ARC
  5
149
330
1F
100
AcDbEntity
  8
0
  6
Continuous
 62
     7
370
     9
100
AcDbCircle
 10
77.1681198187884
 20
219.5987385982204
 30
0.0
 40
1.030857592141384
100
AcDbArc
 50
119.5782191971263
 51
155.7777255123192
  0
LINE
  5
14A
330
1F
100
AcDbEntity
  8
0
  6
Continuous
 62
     7
370
     9
100
AcDbLine
 10
76.14905650347114
 20
216.0748440876251
 30
0.0
 11
76.14905650347113
 21
219.6478132517462
 31
0.0
  0
LINE
  5
14B
330
1F
100
AcDbEntity
  8
0
  6
Continuous
 62
     7
370
     9
100
AcDbLine
 10
76.14905650347114
 20
216.0748440876251
 30
0.0
 11
74.75
 21
216.0720662186036
 31
0.0
  0
LINE
  5
14C
330
1F
100
AcDbEntity
  8
0
  6
Continuous
 62
     7
370
     9
100
AcDbLine
 10
76.65927686127588
 20
220.4941044763614
 30
0.0
 11
77.2019988224745
 21
220.6541717692277
 31
0.0
  0
LINE
  5
14D
330
1F
100
AcDbEntity
  8
0
  6
Continuous
 62
     7
370
     9
100
AcDbLine
 10
79.55417176922776
 20
219.6480011775255
 30
0.0
 11
79.55417176922776
 21
219.25
 31
0.0
  0
LWPOLYLINE
  5
14E
330
1F
100
AcDbEntity
  8
0
  6
Continuous
 62
     7
370
     9
100
AcDbPolyline
 90
       39
 70
     0
 43
0.0
 10
-78.54800117752549
 20
220.6541717692277
 10
-78.58810272923822
 20
220.6543716984549
 10
-78.62771945643983
 20
220.6529913392658
 10
-78.6668513591303
 20
220.6500306916602
 10
-78.70549843730967
 20
220.6454897556384
 10
-78.7436606909779
 20
220.6393685312002
 10
-78.78133812013503
 20
220.6316670183457
 10
-78.81853072478104
 20
220.6223852170748
 10
-78.85523850491592
 20
220.6115231273876
 10
-78.89146146053967
 20
220.5990807492841
 10
-78.92719959165231
 20
220.5850580827642
 10
-78.96665071483888
 20
220.5674765778541
 10
-79.00549367415869
 20
220.5479127591545
 10
-79.04372846961175
 20
220.5263666266655
 10
-79.08135510119804
 20
220.502838180387
 10
-79.1183735689176
 20
220.4773274203191
 10
-79.15413902184267
 20
220.4503426773817
 10
-79.18931783710927
 20
220.4214457854606
 10
-79.22391001471742
 20
220.3906367445557
 10
-79.25791555466711
 20
220.3579155546671
 10
-79.2912155848557
 20
220.3233518584566
 10
-79.32253311037968
 20
220.2881722205112
 10
-79.35186813123904
 20
220.2523766408306
 10
-79.37922064743377
 20
220.2159651194151
 10
-79.4045906589639
 20
220.1789376562646
 10
-79.42757791662463
 20
220.1419718563125
 10
-79.44865284118252
 20
220.1044119161344
 10
-79.46781543263761
 20
220.0662578357305
 10
-79.48506569098986
 20
220.0275096151007
 10
-79.49908828142746
 20
219.9917683837535
 10
-79.51153043128423
 20
219.9555361274263
 10
-79.52239214056013
 20
219.918812846119
 10
-79.53167340925519
 20
219.8815985398316
 10
-79.53937423736942
 20
219.8438932085642
 10
-79.54549462490277
 20
219.8056968523166
 10
-79.5500345718553
 20
219.767009471089
 10
-79.55299407822697
 20
219.7278310648812
 10
-79.55437314401779
 20
219.6881616336934
 10
-79.55417176922776
 20
219.6480011775255
210
0.0
220
0.0
230
-1.0
  0
LINE
  5
14F
330
1F
100
AcDbEntity
  8
0
  6
Continuous
 62
     7
370
     9
100
AcDbLine
 10
77.2019988224745
 20
220.6541717692277
 30
0.0
 11
78.54800117752549
 21
220.6541717692277
 31
0.0
  0
LINE
  5
150
330
1F
100
AcDbEntity
  8
0
  6
Continuous
 62
     7
370
     9
100
AcDbLine
 10
82.7980011775255
 20
220.6541717692277
 30
0.0
 11
83.34072313872409
 21
220.4941044763614
 31
0.0
  0
LINE
  5
151
330
1F
100
AcDbEntity
  8
0
  6
Continuous
 62
     7
370
     9
100
AcDbLine
 10
81.45199882247451
 20
220.6541717692277
 30
0.0
 11
82.7980011775255
 21
220.6541717692277
 31
0.0
  0
LWPOLYLINE
  5
152
330
1F
100
AcDbEntity
  8
0
  6
Continuous
 62
     7
370
     9
100
AcDbPolyline
 90
       39
 70
     0
 43
0.0
 10
-80.44582823077224
 20
219.6480011775255
 10
-80.44562830154509
 20
219.6881027292382
 10
-80.44700866073426
 20
219.7277194564398
 10
-80.44996930833977
 20
219.7668513591303
 10
-80.45451024436161
 20
219.8054984373096
 10
-80.4606314687998
 20
219.8436606909779
 10
-80.46833298165433
 20
219.881338120135
 10
-80.47761478292519
 20
219.918530724781
 10
-80.48847687261238
 20
219.9552385049159
 10
-80.50091925071591
 20
219.9914614605397
 10
-80.51494191723577
 20
220.0271995916523
 10
-80.5325234221459
 20
220.0666507148389
 10
-80.55208724084548
 20
220.1054936741587
 10
-80.57363337333449
 20
220.1437284696117
 10
-80.59716181961298
 20
220.1813551011981
 10
-80.62267257968091
 20
220.2183735689176
 10
-80.64965732261825
 20
220.2541390218427
 10
-80.67855421453936
 20
220.2893178371093
 10
-80.70936325544425
 20
220.3239100147174
 10
-80.74208444533289
 20
220.3579155546671
 10
-80.77664814154335
 20
220.3912155848557
 10
-80.81182777948884
 20
220.4225331103796
 10
-80.84762335916933
 20
220.451868131239
 10
-80.88403488058488
 20
220.4792206474338
 10
-80.92106234373541
 20
220.5045906589639
 10
-80.95802814368754
 20
220.5275779166246
 10
-80.99558808386556
 20
220.5486528411825
 10
-81.0337421642695
 20
220.5678154326376
 10
-81.07249038489933
 20
220.5850656909898
 10
-81.10823161624646
 20
220.5990882814275
 10
-81.14446387257367
 20
220.6115304312842
 10
-81.18118715388097
 20
220.6223921405601
 10
-81.21840146016835
 20
220.6316734092552
 10
-81.25610679143583
 20
220.6393742373694
 10
-81.2943031476834
 20
220.6454946249028
 10
-81.33299052891103
 20
220.6500345718553
 10
-81.37216893511876
 20
220.652994078227
 10
-81.4118383663066
 20
220.6543731440178
 10
-81.45199882247451
 20
220.6541717692277
210
0.0
220
0.0
230
-1.0
  0
LINE
  5
153
330
1F
100
AcDbEntity
  8
0
  6
Continuous
 62
     7
370
     9
100
AcDbLine
 10
80.44582823077224
 20
219.25
 30
0.0
 11
80.44582823077224
 21
219.6480011775255
 31
0.0
  0
LINE
  5
154
330
1F
100
AcDbEntity
  8
0
  6
Continuous
 62
     7
370
     9
100
AcDbLine
 10
79.55417176922775
 20
219.25
 30
0.0
 11
80.44582823077225
 21
219.25
 31
0.0
  0
LINE
  5
155
330
1F
100
AcDbEntity
  8
0
  6
Continuous
 62
     7
370
     9
100
AcDbLine
 10
88.83737268084626
 20
213.5241633297844
 30
0.0
 11
88.63222575437042
 21
213.5698415389835
 31
0.0
  0
LINE
  5
156
330
1F
100
AcDbEntity
  8
0
  6
Continuous
 62
     7
370
     9
100
AcDbLine
 10
88.63222575437042
 20
213.5698415389835
 30
0.0
 11
88.63222575437042
 21
220.5086513684421
 31
0.0
  0
LWPOLYLINE
  5
157
330
1F
100
AcDbEntity
  8
0
  6
Continuous
 62
     7
370
     9
100
AcDbPolyline
 90
       37
 70
     0
 43
0.0
 10
-88.46759631833156
 20
221.0085752160203
 10
-88.4758399665844
 20
221.0077440171693
 10
-88.48398304829684
 20
221.0059951450336
 10
-88.49200651316438
 20
221.0033283287919
 10
-88.49989131088256
 20
220.9997432976232
 10
-88.50784694261492
 20
220.9950939244284
 10
-88.51564509659096
 20
220.9894672172935
 10
-88.52326694014802
 20
220.9828723898395
 10
-88.53069364062344
 20
220.9753186556875
 10
-88.53772859321745
 20
220.9670437339722
 10
-88.54457142226838
 20
220.9578603555506
 10
-88.55120686207376
 20
220.9477880875222
 10
-88.55761964693119
 20
220.9368464969866
 10
-88.56399977667007
 20
220.9246455045602
 10
-88.57013823230315
 20
220.9115277991182
 10
-88.57602099819185
 20
220.8975290446512
 10
-88.58163405869756
 20
220.8826849051497
 10
-88.58658040063597
 20
220.8682189310107
 10
-88.5912950818413
 20
220.8530481741715
 10
-88.59576940603826
 20
220.8372122440289
 10
-88.59999467695155
 20
220.8207507499797
 10
-88.60409387729457
 20
220.8031147487484
 10
-88.60792839424947
 20
220.7848402632862
 10
-88.61149124475257
 20
220.7659823716231
 10
-88.61477544574018
 20
220.746596151789
 10
-88.6175543978772
 20
220.7282836080305
 10
-88.6200983870749
 20
220.7095534726522
 10
-88.62240379322745
 20
220.6904560942543
 10
-88.624466996229
 20
220.6710418214369
 10
-88.62634046122254
 20
220.6507143164202
 10
-88.62795815078603
 20
220.6300874583261
 10
-88.62931783956655
 20
220.6092218676292
 10
-88.6304173022112
 20
220.5881781648041
 10
-88.6312076489454
 20
220.5684249082156
 10
-88.6317728848104
 20
220.5485518380485
 10
-88.63211244241576
 20
220.5286102321688
 10
-88.63222575437042
 20
220.5086513684421
210
0.0
220
0.0
230
-1.0
  0
LINE
  5
158
330
1F
100
AcDbEntity
  8
0
  6
Continuous
 62
     7
370
     9
100
AcDbLine
 10
88.46759631833156
 20
221.0085752160203
 30
0.0
 11
85.74999999999999
 21
221.0601192135857
 31
0.0
  0
LWPOLYLINE
  5
159
330
1F
100
AcDbEntity
  8
0
  6
Continuous
 62
     7
370
     9
100
AcDbPolyline
 90
       37
 70
     0
 43
0.0
 10
-85.25
 20
220.5637739522216
 10
-85.25038812995143
 20
220.5834280797905
 10
-85.25154954138016
 20
220.6030648627147
 10
-85.25347976664787
 20
220.6226326819689
 10
-85.25617433811624
 20
220.6420799185278
 10
-85.25974614915322
 20
220.6619564440995
 10
-85.26411928293616
 20
220.6816687680376
 10
-85.26927801169238
 20
220.7011631587973
 10
-85.27520660764917
 20
220.7203858848341
 10
-85.2816957596958
 20
220.7387781700334
 10
-85.28889371525962
 20
220.7568834075205
 10
-85.29677729649765
 20
220.7746573323296
 10
-85.30532332556689
 20
220.7920556794948
 10
-85.31479010750648
 20
220.8095364445559
 10
-85.32493115223515
 20
220.8265936042727
 10
-85.33571386810839
 20
220.8431866224692
 10
-85.34710566348166
 20
220.8592749629696
 10
-85.35897710713232
 20
220.8747024231324
 10
-85.37141526669592
 20
220.8896158779306
 10
-85.38438377884817
 20
220.9039845814109
 10
-85.39784628026479
 20
220.9177777876197
 10
-85.41215790802725
 20
220.9313248570133
 10
-85.42695433272664
 20
220.9442544587225
 10
-85.44219406505637
 20
220.9565430307977
 10
-85.45783561570994
 20
220.9681670112891
 10
-85.48016414293443
 20
220.9831715730768
 10
-85.50321567459319
 20
220.9968981916118
 10
-85.52688289813227
 20
221.0093189787436
 10
-85.55105850099768
 20
221.0204060463216
 10
-85.57563517063546
 20
221.0301315061953
 10
-85.60050559449162
 20
221.0384674702143
 10
-85.6250414245035
 20
221.0452720965344
 10
-85.64984200834239
 20
221.0507944889648
 10
-85.6748227519099
 20
221.0550375221952
 10
-85.69989906110762
 20
221.0580040709155
 10
-85.72498634183711
 20
221.0596970098157
 10
-85.75
 20
221.0601192135857
210
0.0
220
0.0
230
-1.0
  0
LINE
  5
15A
330
1F
100
AcDbEntity
  8
0
  6
Continuous
 62
     7
370
     9
100
AcDbLine
 10
85.25
 20
220.5637739522216
 30
0.0
 11
85.25
 21
216.0720662186036
 31
0.0
  0
LINE
  5
15B
330
1F
100
AcDbEntity
  8
0
  6
Continuous
 62
     7
370
     9
100
AcDbLine
 10
85.25
 20
216.0720662186036
 30
0.0
 11
83.85094349652886
 21
216.0748440876252
 31
0.0
  0
LINE
  5
15C
330
1F
100
AcDbEntity
  8
0
  6
Continuous
 62
     7
370
     9
100
AcDbLine
 10
83.85094349652887
 20
219.6478132517462
 30
0.0
 11
83.85094349652887
 21
216.0748440876252
 31
0.0
  0
LWPOLYLINE
  5
15D
330
1F
100
AcDbEntity
  8
0
  6
Continuous
 62
     7
370
     9
100
AcDbPolyline
 90
       25
 70
     0
 43
0.0
 10
-83.34072313301581
 20
220.4952575470784
 10
-83.38503712132665
 20
220.468181825884
 10
-83.42746785687278
 20
220.4396089305482
 10
-83.46801332514141
 20
220.409538861071
 10
-83.50667212415844
 20
220.3779716174523
 10
-83.54344339335981
 20
220.3449071996923
 10
-83.57832674571792
 20
220.3103456077908
 10
-83.60325031411105
 20
220.2834418933344
 10
-83.6271120747635
 20
220.2556960184235
 10
-83.64991226400734
 20
220.2271079830579
 10
-83.67165120095025
 20
220.1976777872379
 10
-83.69232927478981
 20
220.1674054309633
 10
-83.71194693271782
 20
220.1362909142342
 10
-83.73050466841529
 20
220.1043342370505
 10
-83.74800301113815
 20
220.0715353994123
 10
-83.76747364783395
 20
220.0311921541049
 10
-83.78490191023941
 20
219.9903980266955
 10
-83.80028916170903
 20
219.949153017184
 10
-83.81363669183617
 20
219.9074571255704
 10
-83.82494568454749
 20
219.8653103518548
 10
-83.83421719043342
 20
219.8227126960372
 10
-83.84145210330975
 20
219.7796641581175
 10
-83.84665114100592
 20
219.7361647380958
 10
-83.849814830376
 20
219.692214435972
 10
-83.85094349652887
 20
219.6478132517462
210
0.0
220
0.0
230
-1.0
  0
LINE
  5
15E
330
1F
100
AcDbEntity
  8
0
  6
Continuous
 62
     7
370
     9
100
AcDbLine
 10
76.14905650347113
 20
208.9251559123748
 30
0.0
 11
76.70220578672175
 21
208.9295159304658
 31
0.0
  0
LINE
  5
15F
330
1F
100
AcDbEntity
  8
0
  6
Continuous
 62
     7
370
     9
100
AcDbLine
 10
76.70220578672175
 20
216.0704840695342
 30
0.0
 11
76.14905650347114
 21
216.0748440876251
 31
0.0
  0
LINE
  5
160
330
1F
100
AcDbEntity
  8
0
  6
Continuous
 62
     7
370
     9
100
AcDbLine
 10
83.29779421327825
 20
208.9295159304658
 30
0.0
 11
83.85094349652887
 21
208.9251559123748
 31
0.0
  0
LINE
  5
161
330
1F
100
AcDbEntity
  8
0
  6
Continuous
 62
     7
370
     9
100
AcDbLine
 10
83.85094349652887
 20
216.0748440876252
 30
0.0
 11
83.29779421327825
 21
216.0704840695342
 31
0.0
  0
LINE
  5
162
330
1F
100
AcDbEntity
  8
0
  6
Continuous
 62
     7
370
     9
100
AcDbLine
 10
83.34072313224124
 20
222.0850440946998
 30
0.0
 11
84.73117747021777
 21
222.0914439090925
 31
0.0
  0
LINE
  5
163
330
1F
100
AcDbEntity
  8
0
  6
Continuous
 62
     7
370
     9
100
AcDbLine
 10
76.65927686775873
 20
222.0850440946998
 30
0.0
 11
83.34072313224124
 21
222.0850440946998
 31
0.0
  0
LINE
  5
164
330
1F
100
AcDbEntity
  8
0
  6
Continuous
 62
     7
370
     9
100
AcDbLine
 10
75.26882252978216
 20
222.0914439090926
 30
0.0
 11
76.65927686775873
 21
222.0850440946998
 31
0.0
  0
LWPOLYLINE
  5
165
330
1F
100
AcDbEntity
  8
0
  6
Continuous
 62
     7
370
     9
100
AcDbPolyline
 90
       35
 70
     0
 43
0.0
 10
-75.26882252978216
 20
222.0914439090926
 10
-75.25792383389428
 20
222.0917634649567
 10
-75.24710537128541
 20
222.0925129028443
 10
-75.23639740947328
 20
222.0936855234286
 10
-75.22583021597563
 20
222.0952746273826
 10
-75.2150885305808
 20
222.0973452190852
 10
-75.20451583662297
 20
222.0998442627987
 10
-75.1941403751643
 20
222.1027574910912
 10
-75.18399038726683
 20
222.1060706365304
 10
-75.17438008962274
 20
222.1096534301346
 10
-75.16499460400614
 20
222.1135917461855
 10
-75.15585391326582
 20
222.1178682778027
 10
-75.1469780002506
 20
222.1224657181058
 10
-75.13527591769905
 20
222.1292538558516
 10
-75.12409201823627
 20
222.1365859981296
 10
-75.11346177558686
 20
222.1444120903023
 10
-75.10291117661328
 20
222.1531275454752
 10
-75.09297912728833
 20
222.1623230866713
 10
-75.08368062165428
 20
222.1719412160522
 10
-75.07503065375333
 20
222.1819244357799
 10
-75.06704421762775
 20
222.1922152480161
 10
-75.05973630731975
 20
222.2027561549225
 10
-75.05278382441638
 20
222.2140513394803
 10
-75.0465308589326
 20
222.2255644622178
 10
-75.0409698330112
 20
222.237241857891
 10
-75.03609316879493
 20
222.249029861256
 10
-75.03048179783262
 20
222.2653243544467
 10
-75.02606307753071
 20
222.2816961188793
 10
-75.02278928398555
 20
222.2980418373091
 10
-75.02044054948031
 20
222.3159660731871
 10
-75.01933581178886
 20
222.3337273048792
 10
-75.01939414533776
 20
222.3512499452632
 10
-75.02053462455355
 20
222.3684584072168
 10
-75.02267632386281
 20
222.3852771036179
 10
-75.02573831769207
 20
222.4016304473442
210
0.0
220
0.0
230
-1.0
  0
LINE
  5
166
330
1F
100
AcDbEntity
  8
0
  6
Continuous
 62
     7
370
     9
100
AcDbLine
 10
75.13042780531454
 20
222.6240000470034
 30
0.0
 11
75.02573831769207
 21
222.4016304473442
 31
0.0
  0
LINE
  5
167
330
1F
100
AcDbEntity
  8
0
  6
Continuous
 62
     7
370
     9
100
AcDbLine
 10
84.86957219468543
 20
202.3759999529966
 30
0.0
 11
84.97426168230788
 21
202.5983695526558
 31
0.0
  0
LWPOLYLINE
  5
168
330
1F
100
AcDbEntity
  8
0
  6
Continuous
 62
     7
370
     9
100
AcDbPolyline
 90
       35
 70
     0
 43
0.0
 10
-84.73117747021782
 20
202.9085560909074
 10
-84.74207616610568
 20
202.9082365350433
 10
-84.75289462871456
 20
202.9074870971556
 10
-84.76360259052669
 20
202.9063144765714
 10
-84.77416978402432
 20
202.9047253726174
 10
-84.78491146941917
 20
202.9026547809148
 10
-84.79548416337698
 20
202.9001557372012
 10
-84.80585962483566
 20
202.8972425089088
 10
-84.81600961273314
 20
202.8939293634696
 10
-84.82561991037721
 20
202.8903465698654
 10
-84.83500539599382
 20
202.8864082538145
 10
-84.84414608673416
 20
202.8821317221973
 10
-84.85302199974936
 20
202.8775342818942
 10
-84.86472408230091
 20
202.8707461441484
 10
-84.87590798176369
 20
202.8634140018703
 10
-84.88653822441313
 20
202.8555879096977
 10
-84.89708882338668
 20
202.8468724545248
 10
-84.90702087271163
 20
202.8376769133287
 10
-84.91631937834569
 20
202.8280587839477
 10
-84.92496934624663
 20
202.81807556422
 10
-84.93295578237222
 20
202.8077847519839
 10
-84.9402636926802
 20
202.7972438450775
 10
-84.94721617558359
 20
202.7859486605197
 10
-84.95346914106736
 20
202.7744355377822
 10
-84.95903016698875
 20
202.762758142109
 10
-84.96390683120502
 20
202.750970138744
 10
-84.96951820216734
 20
202.7346756455532
 10
-84.97393692246926
 20
202.7183038811207
 10
-84.97721071601441
 20
202.7019581626909
 10
-84.97955945051964
 20
202.6840339268129
 10
-84.9806641882111
 20
202.6662726951208
 10
-84.98060585466222
 20
202.6487500547368
 10
-84.97946537544641
 20
202.6315415927832
 10
-84.97732367613716
 20
202.6147228963821
 10
-84.97426168230788
 20
202.5983695526558
210
0.0
220
0.0
230
-1.0
  0
LINE
  5
169
330
1F
100
AcDbEntity
  8
0
  6
Continuous
 62
     7
370
     9
100
AcDbLine
 10
84.73117747021782
 20
202.9085560909074
 30
0.0
 11
83.34072313224124
 21
202.9149559053002
 31
0.0
  0
LINE
  5
16A
330
1F
100
AcDbEntity
  8
0
  6
Continuous
 62
     7
370
     9
100
AcDbLine
 10
83.34072313224124
 20
202.9149559053002
 30
0.0
 11
76.65927686775873
 21
202.9149559053002
 31
0.0
  0
LINE
  5
16B
330
1F
100
AcDbEntity
  8
0
  6
Continuous
 62
     7
370
     9
100
AcDbLine
 10
76.65927686775873
 20
202.9149559053002
 30
0.0
 11
75.26882252978218
 21
202.9085560909074
 31
0.0
  0
LWPOLYLINE
  5
16C
330
1F
100
AcDbEntity
  8
0
  6
Continuous
 62
     7
370
     9
100
AcDbPolyline
 90
       34
 70
     0
 43
0.0
 10
-75.02573831769207
 20
202.5983695526558
 10
-75.0220849575914
 20
202.6186145891924
 10
-75.01986239879005
 20
202.6395020060655
 10
-75.01922278891564
 20
202.6609149166427
 10
-75.01991101850315
 20
202.6777626989914
 10
-75.02170665528182
 20
202.6948302671612
 10
-75.02467536699957
 20
202.7120219477401
 10
-75.02888282140444
 20
202.729242067316
 10
-75.0334150039381
 20
202.743644907541
 10
-75.0389017353175
 20
202.757967123229
 10
-75.04536782180627
 20
202.7721257181897
 10
-75.05102503478543
 20
202.7828571156816
 10
-75.05729499473352
 20
202.7934297016863
 10
-75.06417823704663
 20
202.803796219474
 10
-75.07167529712085
 20
202.8139094123145
 10
-75.08066921666226
 20
202.8247321118009
 10
-75.09042469507477
 20
202.8351603284545
 10
-75.10092211032382
 20
202.8451222734943
 10
-75.10951694024115
 20
202.852446711889
 10
-75.11855092922814
 20
202.8594432543842
 10
-75.1280042168199
 20
202.8660784459919
 10
-75.13785694255161
 20
202.8723188317242
 10
-75.14784217066351
 20
202.8780003531261
 10
-75.15819755277906
 20
202.8832694956536
 10
-75.16889368209617
 20
202.8880984329035
 10
-75.17990115181279
 20
202.8924593384729
 10
-75.19164435044449
 20
202.8964697811651
 10
-75.20370152429935
 20
202.8999420556413
 10
-75.21602816320252
 20
202.9028534194109
 10
-75.2285797569791
 20
202.9051811299835
 10
-75.23848657714153
 20
202.9065779674689
 10
-75.24851252466976
 20
202.9076095968837
 10
-75.25863278155337
 20
202.9082707330793
 10
-75.26882252978218
 20
202.9085560909074
210
0.0
220
0.0
230
-1.0
  0
LINE
  5
16D
330
1F
100
AcDbEntity
  8
0
  6
Continuous
 62
     7
370
     9
100
AcDbLine
 10
75.02573831769207
 20
202.5983695526558
 30
0.0
 11
75.13042780531454
 21
202.3759999529966
 31
0.0
  0
LWPOLYLINE
  5
16E
330
1F
100
AcDbEntity
  8
0
  6
Continuous
 62
     7
370
     9
100
AcDbPolyline
 90
       39
 70
     0
 43
0.0
 10
-84.9742616823079
 20
222.4016304473442
 10
-84.97712568235328
 20
222.3865424225273
 10
-84.97920807900728
 20
222.3710899327076
 10
-84.98045387929007
 20
222.3551606921444
 10
-84.98077577599648
 20
222.3389361773191
 10
-84.98008970402306
 20
222.3222162324013
 10
-84.97831553672118
 20
222.305300447478
 10
-84.97534234749759
 20
222.2880542545693
 10
-84.97111717859553
 20
222.270757932684
 10
-84.96781341638989
 20
222.2599700416825
 10
-84.96398079787879
 20
222.249222891122
 10
-84.95956850220301
 20
222.2384593421437
 10
-84.9545921185794
 20
222.227793503644
 10
-84.94896767340015
 20
222.2171273796655
 10
-84.9427437096382
 20
222.2066276012454
 10
-84.93584607002235
 20
222.1962364694233
 10
-84.92832470287912
 20
222.1860905876855
 10
-84.92337357439183
 20
222.1799732606987
 10
-84.91818412301296
 20
222.1739744520528
 10
-84.90892873522846
 20
222.164189353024
 10
-84.8990081737484
 20
222.1548154606759
 10
-84.89191188929377
 20
222.1487225173253
 10
-84.88451657930395
 20
222.1428544912891
 10
-84.87683230083202
 20
222.1372305604995
 10
-84.86960262313129
 20
222.1323438414246
 10
-84.86214305744836
 20
222.1276811682758
 10
-84.85214909849084
 20
222.1219933811089
 10
-84.8417954015891
 20
222.1167241113332
 10
-84.83230600145066
 20
222.1124127476598
 10
-84.82255095758592
 20
222.1084623480881
 10
-84.81255430407887
 20
222.1048905909647
 10
-84.80234007501356
 20
222.1017151546364
 10
-84.79221009869983
 20
222.0990190736588
 10
-84.78189451990247
 20
222.0967163295035
 10
-84.77142024302087
 20
222.0948188700164
 10
-84.76154286520655
 20
222.093424827082
 10
-84.75155537560991
 20
222.0923945411535
 10
-84.74140570172939
 20
222.0917302802931
 10
-84.73117747021777
 20
222.0914439090925
210
0.0
220
0.0
230
-1.0
  0
LINE
  5
16F
330
1F
100
AcDbEntity
  8
0
  6
Continuous
 62
     7
370
     9
100
AcDbLine
 10
84.9742616823079
 20
222.4016304473442
 30
0.0
 11
84.86957219468543
 21
222.6240000470034
 31
0.0
  0
LINE
  5
170
330
1F
100
AcDbEntity
  8
0
  6
Continuous
 62
     7
370
     9
100
AcDbLine
 10
73.75
 20
216.0401435918375
 30
0.0
 11
72.70309118692137
 21
216.0401435918375
 31
0.0
  0
LINE
  5
171
330
1F
100
AcDbEntity
  8
0
  6
Continuous
 62
     7
370
     9
100
AcDbLine
 10
74.75
 20
216.0488704596283
 30
0.0
 11
73.75
 21
216.0401435918375
 31
0.0
  0
LINE
  5
172
330
1F
100
AcDbEntity
  8
0
  6
Continuous
 62
     7
370
     9
100
AcDbLine
 10
74.75
 20
216.0720662186036
 30
0.0
 11
74.75
 21
216.0488704596283
 31
0.0
  0
LINE
  5
173
330
1F
100
AcDbEntity
  8
0
  6
Continuous
 62
     7
370
     9
100
AcDbLine
 10
72.70309118692137
 20
216.0401435918375
 30
0.0
 11
73.80056955336488
 21
216.0017301424938
 31
0.0
  0
LINE
  5
174
330
1F
100
AcDbEntity
  8
0
  6
Continuous
 62
     7
370
     9
100
AcDbLine
 10
74.75
 20
208.9511295403718
 30
0.0
 11
74.75
 21
208.9279337813964
 31
0.0
  0
LINE
  5
175
330
1F
100
AcDbEntity
  8
0
  6
Continuous
 62
     7
370
     9
100
AcDbLine
 10
73.75
 20
208.9598564081625
 30
0.0
 11
74.75
 21
208.9511295403718
 31
0.0
  0
LINE
  5
176
330
1F
100
AcDbEntity
  8
0
  6
Continuous
 62
     7
370
     9
100
AcDbLine
 10
72.70309118692137
 20
208.9598564081625
 30
0.0
 11
73.75
 21
208.9598564081625
 31
0.0
  0
LINE
  5
177
330
1F
100
AcDbEntity
  8
0
  6
Continuous
 62
     7
370
     9
100
AcDbLine
 10
72.70309118692137
 20
208.9598564081625
 30
0.0
 11
73.80056955336488
 21
208.9982698575062
 31
0.0
  0
LINE
  5
178
330
1F
100
AcDbEntity
  8
0
  6
Continuous
 62
     7
370
     9
100
AcDbLine
 10
85.25
 20
216.0488704596283
 30
0.0
 11
85.25
 21
216.0720662186036
 31
0.0
  0
LINE
  5
179
330
1F
100
AcDbEntity
  8
0
  6
Continuous
 62
     7
370
     9
100
AcDbLine
 10
85.25
 20
216.0488704596283
 30
0.0
 11
86.25
 21
216.0401435918375
 31
0.0
  0
LINE
  5
17A
330
1F
100
AcDbEntity
  8
0
  6
Continuous
 62
     7
370
     9
100
AcDbLine
 10
86.25
 20
216.0401435918375
 30
0.0
 11
87.29690881307863
 21
216.0401435918375
 31
0.0
  0
LINE
  5
17B
330
1F
100
AcDbEntity
  8
0
  6
Continuous
 62
     7
370
     9
100
AcDbLine
 10
87.29690881307863
 20
216.0401435918375
 30
0.0
 11
86.19943044663512
 21
216.0017301424938
 31
0.0
  0
LINE
  5
17C
330
1F
100
AcDbEntity
  8
0
  6
Continuous
 62
     7
370
     9
100
AcDbLine
 10
87.29690881307863
 20
208.9598564081625
 30
0.0
 11
86.25
 21
208.9598564081625
 31
0.0
  0
LINE
  5
17D
330
1F
100
AcDbEntity
  8
0
  6
Continuous
 62
     7
370
     9
100
AcDbLine
 10
86.25
 20
208.9598564081625
 30
0.0
 11
85.25
 21
208.9511295403718
 31
0.0
  0
LINE
  5
17E
330
1F
100
AcDbEntity
  8
0
  6
Continuous
 62
     7
370
     9
100
AcDbLine
 10
85.25
 20
208.9279337813964
 30
0.0
 11
85.25
 21
208.9511295403718
 31
0.0
  0
LINE
  5
17F
330
1F
100
AcDbEntity
  8
0
  6
Continuous
 62
     7
370
     9
100
AcDbLine
 10
87.29690881307863
 20
208.9598564081625
 30
0.0
 11
86.19943044663512
 21
208.9982698575062
 31
0.0
  0
LWPOLYLINE
  5
180
330
1F
100
AcDbEntity
  8
0
  6
Continuous
 62
     7
370
     9
100
AcDbPolyline
 90
        9
 70
     0
 43
0.0
 10
82.75001903846791
 20
204.9
 10
82.84756251371897
 20
204.9096067970805
 10
82.94135634703986
 20
204.9380580401779
 10
83.02779644237228
 20
204.9842604696452
 10
83.10356127637257
 20
205.0464387236274
 10
83.16573953035478
 20
205.1222035576277
 10
83.21194195982216
 20
205.2086436529601
 10
83.24039320291953
 20
205.302437486281
 10
83.24999999999999
 20
205.3999809615321
  0
LWPOLYLINE
  5
181
330
1F
100
AcDbEntity
  8
0
  6
Continuous
 62
     7
370
     9
100
AcDbPolyline
 90
        9
 70
     0
 43
0.0
 10
77.24998096153209
 20
220.1
 10
77.15243748628103
 20
220.0903932029195
 10
77.05864365296014
 20
220.0619419598221
 10
76.97220355762772
 20
220.0157395303548
 10
76.89643872362743
 20
219.9535612763726
 10
76.83426046964522
 20
219.8777964423723
 10
76.78805804017784
 20
219.7913563470399
 10
76.75960679708047
 20
219.697562513719
 10
76.75000000000001
 20
219.6000190384679
  0
LWPOLYLINE
  5
182
330
1F
100
AcDbEntity
  8
0
  6
Continuous
 62
     7
370
     9
100
AcDbPolyline
 90
        9
 70
     0
 43
0.0
 10
76.75
 20
205.3999809615321
 10
76.75960679708047
 20
205.302437486281
 10
76.78805804017784
 20
205.2086436529601
 10
76.83426046964522
 20
205.1222035576277
 10
76.89643872362743
 20
205.0464387236274
 10
76.97220355762772
 20
204.9842604696452
 10
77.05864365296014
 20
204.9380580401779
 10
77.15243748628103
 20
204.9096067970805
 10
77.24998096153209
 20
204.9
  0
LWPOLYLINE
  5
183
330
1F
100
AcDbEntity
  8
0
  6
Continuous
 62
     7
370
     9
100
AcDbPolyline
 90
        9
 70
     0
 43
0.0
 10
83.24999999999999
 20
219.6000190384679
 10
83.24039320291953
 20
219.697562513719
 10
83.21194195982216
 20
219.7913563470399
 10
83.16573953035478
 20
219.8777964423723
 10
83.10356127637257
 20
219.9535612763726
 10
83.02779644237228
 20
220.0157395303548
 10
82.94135634703986
 20
220.0619419598221
 10
82.84756251371897
 20
220.0903932029195
 10
82.75001903846793
 20
220.1
  0
LWPOLYLINE
  5
184
330
1F
100
AcDbEntity
  8
0
  6
Continuous
 62
     7
370
     9
100
AcDbPolyline
 90
        9
 70
     0
 43
0.0
 10
78.50001903846793
 20
204.9
 10
78.59756251371898
 20
204.9096067970804
 10
78.69135634703987
 20
204.9380580401778
 10
78.77779644237229
 20
204.9842604696452
 10
78.85356127637259
 20
205.0464387236274
 10
78.9157395303548
 20
205.1222035576277
 10
78.96194195982217
 20
205.2086436529601
 10
78.99039320291955
 20
205.302437486281
 10
79.00000000000001
 20
205.3999809615321
  0
LWPOLYLINE
  5
185
330
1F
100
AcDbEntity
  8
0
  6
Continuous
 62
     7
370
     9
100
AcDbPolyline
 90
        9
 70
     0
 43
0.0
 10
79.00000000000003
 20
219.6000190384679
 10
78.99039320291955
 20
219.697562513719
 10
78.96194195982217
 20
219.7913563470399
 10
78.9157395303548
 20
219.8777964423723
 10
78.85356127637259
 20
219.9535612763726
 10
78.77779644237229
 20
220.0157395303548
 10
78.69135634703987
 20
220.0619419598222
 10
78.59756251371898
 20
220.0903932029196
 10
78.50001903846793
 20
220.1
  0
LWPOLYLINE
  5
186
330
1F
100
AcDbEntity
  8
0
  6
Continuous
 62
     7
370
     9
100
AcDbPolyline
 90
        9
 70
     0
 43
0.0
 10
81.49998096153206
 20
220.1
 10
81.40243748628103
 20
220.0903932029195
 10
81.30864365296014
 20
220.0619419598221
 10
81.22220355762772
 20
220.0157395303548
 10
81.14643872362741
 20
219.9535612763726
 10
81.08426046964522
 20
219.8777964423723
 10
81.03805804017784
 20
219.7913563470399
 10
81.00960679708047
 20
219.697562513719
 10
81.0
 20
219.6000190384679
  0
LWPOLYLINE
  5
187
330
1F
100
AcDbEntity
  8
0
  6
Continuous
 62
     7
370
     9
100
AcDbPolyline
 90
        9
 70
     0
 43
0.0
 10
80.99999999999999
 20
205.3999809615321
 10
81.00960679708047
 20
205.302437486281
 10
81.03805804017784
 20
205.2086436529601
 10
81.08426046964522
 20
205.1222035576277
 10
81.14643872362741
 20
205.0464387236274
 10
81.22220355762772
 20
204.9842604696452
 10
81.30864365296014
 20
204.9380580401779
 10
81.40243748628103
 20
204.9096067970805
 10
81.49998096153207
 20
204.9
  0
LINE
  5
188
330
1F
100
AcDbEntity
  8
0
  6
Continuous
 62
     7
370
     9
100
AcDbLine
 10
82.75001903846791
 20
204.9
 30
0.0
 11
81.49998096153209
 21
204.9
 31
0.0
  0
LINE
  5
189
330
1F
100
AcDbEntity
  8
0
  6
Continuous
 62
     7
370
     9
100
AcDbLine
 10
79.0
 20
207.0767949192431
 30
0.0
 11
79.0
 21
205.3999809615321
 31
0.0
  0
LINE
  5
18A
330
1F
100
AcDbEntity
  8
0
  6
Continuous
 62
     7
370
     9
100
AcDbLine
 10
78.50001903846791
 20
204.9
 30
0.0
 11
77.24998096153209
 21
204.9
 31
0.0
  0
LINE
  5
18B
330
1F
100
AcDbEntity
  8
0
  6
Continuous
 62
     7
370
     9
100
AcDbLine
 10
77.24998096153209
 20
220.1
 30
0.0
 11
78.50001903846791
 21
220.1
 31
0.0
  0
LINE
  5
18C
330
1F
100
AcDbEntity
  8
0
  6
Continuous
 62
     7
370
     9
100
AcDbLine
 10
79.0
 20
219.6000190384679
 30
0.0
 11
79.0
 21
217.9232050807569
 31
0.0
  0
LINE
  5
18D
330
1F
100
AcDbEntity
  8
0
  6
Continuous
 62
     7
370
     9
100
AcDbLine
 10
81.49998096153209
 20
220.1
 30
0.0
 11
82.75001903846791
 21
220.1
 31
0.0
  0
LINE
  5
18E
330
1F
100
AcDbEntity
  8
0
  6
Continuous
 62
     7
370
     9
100
AcDbLine
 10
81.0
 20
205.3999809615321
 30
0.0
 11
81.0
 21
207.0767949192431
 31
0.0
  0
LINE
  5
18F
330
1F
100
AcDbEntity
  8
0
  6
Continuous
 62
     7
370
     9
100
AcDbLine
 10
81.0
 20
217.9232050807569
 30
0.0
 11
81.0
 21
219.6000190384679
 31
0.0
  0
LINE
  5
190
330
1F
100
AcDbEntity
  8
0
  6
Continuous
 62
     7
370
     9
100
AcDbLine
 10
76.73935803094902
 20
207.0829390629394
 30
0.0
 11
76.73787120079092
 21
207.2356113586555
 31
0.0
  0
LINE
  5
191
330
1F
100
AcDbEntity
  8
0
  6
Continuous
 62
     7
370
     9
100
AcDbLine
 10
76.73935803094902
 20
207.0829390629394
 30
0.0
 11
76.75
 21
207.0767949192431
 31
0.0
  0
LINE
  5
192
330
1F
100
AcDbEntity
  8
0
  6
Continuous
 62
     7
370
     9
100
AcDbLine
 10
76.75
 20
205.3999809615321
 30
0.0
 11
76.75
 21
207.0767949192431
 31
0.0
  0
LINE
  5
193
330
1F
100
AcDbEntity
  8
0
  6
Continuous
 62
     7
370
     9
100
AcDbLine
 10
83.26064196905098
 20
217.9170609370606
 30
0.0
 11
83.26212879920908
 21
217.7643886413445
 31
0.0
  0
LINE
  5
194
330
1F
100
AcDbEntity
  8
0
  6
Continuous
 62
     7
370
     9
100
AcDbLine
 10
83.26064196905098
 20
217.9170609370606
 30
0.0
 11
83.25
 21
217.9232050807569
 31
0.0
  0
LINE
  5
195
330
1F
100
AcDbEntity
  8
0
  6
Continuous
 62
     7
370
     9
100
AcDbLine
 10
83.25
 20
219.6000190384679
 30
0.0
 11
83.25
 21
217.9232050807569
 31
0.0
  0
LINE
  5
196
330
1F
100
AcDbEntity
  8
0
  6
Continuous
 62
     7
370
     9
100
AcDbLine
 10
76.75
 20
217.9232050807569
 30
0.0
 11
76.75
 21
219.6000190384679
 31
0.0
  0
LINE
  5
197
330
1F
100
AcDbEntity
  8
0
  6
Continuous
 62
     7
370
     9
100
AcDbLine
 10
76.73935803094902
 20
217.9170609370606
 30
0.0
 11
76.75
 21
217.9232050807569
 31
0.0
  0
LINE
  5
198
330
1F
100
AcDbEntity
  8
0
  6
Continuous
 62
     7
370
     9
100
AcDbLine
 10
76.73787120079092
 20
217.7643886413445
 30
0.0
 11
76.73935803094902
 21
217.9170609370606
 31
0.0
  0
LINE
  5
199
330
1F
100
AcDbEntity
  8
0
  6
Continuous
 62
     7
370
     9
100
AcDbLine
 10
83.25
 20
207.0767949192431
 30
0.0
 11
83.25
 21
205.3999809615321
 31
0.0
  0
LINE
  5
19A
330
1F
100
AcDbEntity
  8
0
  6
Continuous
 62
     7
370
     9
100
AcDbLine
 10
83.26064196905098
 20
207.0829390629394
 30
0.0
 11
83.25
 21
207.0767949192431
 31
0.0
  0
LINE
  5
19B
330
1F
100
AcDbEntity
  8
0
  6
Continuous
 62
     7
370
     9
100
AcDbLine
 10
83.26212879920908
 20
207.2356113586555
 30
0.0
 11
83.26064196905098
 21
207.0829390629394
 31
0.0
  0
LINE
  5
19C
330
1F
100
AcDbEntity
  8
0
  6
Continuous
 62
     7
370
     9
100
AcDbLine
 10
73.75
 20
203.9914247839796
 30
0.0
 11
71.53240368166841
 21
203.9914247839796
 31
0.0
  0
LINE
  5
19D
330
1F
100
AcDbEntity
  8
0
  6
Continuous
 62
     7
370
     9
100
AcDbLine
 10
88.46759631833156
 20
203.9914247839796
 30
0.0
 11
86.25
 21
203.9914247839796
 31
0.0
  0
LINE
  5
19E
330
1F
100
AcDbEntity
  8
0
  6
Continuous
 62
     7
370
     9
100
AcDbLine
 10
86.25
 20
221.0085752160203
 30
0.0
 11
88.46759631833156
 21
221.0085752160203
 31
0.0
  0
LINE
  5
19F
330
1F
100
AcDbEntity
  8
0
  6
Continuous
 62
     7
370
     9
100
AcDbLine
 10
75.13042780531454
 20
202.3759999529966
 30
0.0
 11
76.20858375633014
 21
202.1624759914888
 31
0.0
  0
LINE
  5
1A0
330
1F
100
AcDbEntity
  8
0
  6
Continuous
 62
     7
370
     9
100
AcDbLine
 10
84.86957219468543
 20
222.6240000470034
 30
0.0
 11
83.79141624366981
 21
222.8375240085112
 31
0.0
  0
LINE
  5
1A1
330
1F
100
AcDbEntity
  8
0
  6
Continuous
 62
     7
370
     9
100
AcDbLine
 10
76.20858375633014
 20
222.8375240085112
 30
0.0
 11
75.13042780531454
 21
222.6240000470034
 31
0.0
  0
LINE
  5
1A2
330
1F
100
AcDbEntity
  8
0
  6
Continuous
 62
     7
370
     9
100
AcDbLine
 10
83.79141624366981
 20
202.1624759914888
 30
0.0
 11
84.86957219468543
 21
202.3759999529966
 31
0.0
  0
LINE
  5
1A3
330
1F
100
AcDbEntity
  8
0
  6
Continuous
 62
     7
370
     9
100
AcDbLine
 10
76.20858375633014
 20
202.1624759914888
 30
0.0
 11
78.1781992623546
 21
202.1047623084752
 31
0.0
  0
LINE
  5
1A4
330
1F
100
AcDbEntity
  8
0
  6
Continuous
 62
     7
370
     9
100
AcDbLine
 10
78.17819926235458
 20
202.1047623084752
 30
0.0
 11
81.82180073764539
 21
202.1047623084752
 31
0.0
  0
LINE
  5
1A5
330
1F
100
AcDbEntity
  8
0
  6
Continuous
 62
     7
370
     9
100
AcDbLine
 10
81.82180073764539
 20
202.1047623084752
 30
0.0
 11
83.79141624366981
 21
202.1624759914888
 31
0.0
  0
LWPOLYLINE
  5
1A6
330
1F
100
AcDbEntity
  8
0
  6
Continuous
 62
     7
370
     9
100
AcDbPolyline
 90
        4
 70
     0
 43
0.0
 10
85.74108003776294
 20
202.0361394867714
 10
81.93561937726088
 20
202.06095434027
 10
78.0643806227391
 20
202.06095434027
 10
74.25891996223703
 20
202.0361394867714
  0
LINE
  5
1A7
330
1F
100
AcDbEntity
  8
0
  6
Continuous
 62
     7
370
     9
100
AcDbLine
 10
72.00018052435976
 20
202.0722944741266
 30
0.0
 11
73.0
 21
202.0361394867714
 31
0.0
  0
LWPOLYLINE
  5
1A8
330
1F
100
AcDbEntity
  8
0
  6
Continuous
 62
     7
370
     9
100
AcDbPolyline
 90
        4
 70
     0
 43
0.0
 10
74.25891996223703
 20
222.9638605132285
 10
78.0643806227391
 20
222.93904565973
 10
81.93561937726086
 20
222.93904565973
 10
85.74108003776296
 20
222.9638605132285
  0
LINE
  5
1A9
330
1F
100
AcDbEntity
  8
0
  6
Continuous
 62
     7
370
     9
100
AcDbLine
 10
87.99981947564021
 20
222.9277055258733
 30
0.0
 11
87.0
 21
222.9638605132285
 31
0.0
  0
LINE
  5
1AA
330
1F
100
AcDbEntity
  8
0
  6
Continuous
 62
     7
370
     9
100
AcDbLine
 10
83.79141624366981
 20
222.8375240085112
 30
0.0
 11
81.82180073764539
 21
222.8952376915248
 31
0.0
  0
LINE
  5
1AB
330
1F
100
AcDbEntity
  8
0
  6
Continuous
 62
     7
370
     9
100
AcDbLine
 10
81.82180073764539
 20
222.8952376915248
 30
0.0
 11
78.17819926235458
 21
222.8952376915248
 31
0.0
  0
LINE
  5
1AC
330
1F
100
AcDbEntity
  8
0
  6
Continuous
 62
     7
370
     9
100
AcDbLine
 10
78.17819926235458
 20
222.8952376915248
 30
0.0
 11
76.20858375633014
 21
222.8375240085112
 31
0.0
  0
LINE
  5
1AD
330
1F
100
AcDbEntity
  8
0
  6
Continuous
 62
     7
370
     9
100
AcDbLine
 10
81.0
 20
207.0767949192431
 30
0.0
 11
81.20000380769358
 21
207.1922671714539
 31
0.0
  0
LWPOLYLINE
  5
1AE
330
1F
100
AcDbEntity
  8
0
  6
Continuous
 62
     7
370
     9
100
AcDbPolyline
 90
        6
 70
     0
 43
0.0
 10
78.7999961923064
 20
217.807732828546
 10
78.76617117056934
 20
217.7831575777605
 10
78.73819495433698
 20
217.7520869375777
 10
78.7172901362101
 20
217.7158787304589
 10
78.70437028061606
 20
217.6761152964085
 10
78.69999999999999
 20
217.6345343429079
  0
LWPOLYLINE
  5
1AF
330
1F
100
AcDbEntity
  8
0
  6
Continuous
 62
     7
370
     9
100
AcDbPolyline
 90
        6
 70
     0
 43
0.0
 10
81.30000000000001
 20
217.6345343429079
 10
81.29562971938394
 20
217.6761152964085
 10
81.2827098637899
 20
217.7158787304589
 10
81.26180504566302
 20
217.7520869375777
 10
81.23382882943066
 20
217.7831575777605
 10
81.2000038076936
 20
217.807732828546
  0
LWPOLYLINE
  5
1B0
330
1F
100
AcDbEntity
  8
0
  6
Continuous
 62
     7
370
     9
100
AcDbPolyline
 90
        6
 70
     0
 43
0.0
 10
78.70000000000002
 20
207.3654656570921
 10
78.70437028061608
 20
207.3238847035915
 10
78.71729013621012
 20
207.2841212695411
 10
78.73819495433699
 20
207.2479130624223
 10
78.76617117056935
 20
207.2168424222394
 10
78.79999619230642
 20
207.192267171454
  0
LINE
  5
1B1
330
1F
100
AcDbEntity
  8
0
  6
Continuous
 62
     7
370
     9
100
AcDbLine
 10
78.7
 20
217.6345343429079
 30
0.0
 11
78.7
 21
207.3654656570921
 31
0.0
  0
LINE
  5
1B2
330
1F
100
AcDbEntity
  8
0
  6
Continuous
 62
     7
370
     9
100
AcDbLine
 10
81.20000380769358
 20
217.807732828546
 30
0.0
 11
81.0
 21
217.9232050807569
 31
0.0
  0
LINE
  5
1B3
330
1F
100
AcDbEntity
  8
0
  6
Continuous
 62
     7
370
     9
100
AcDbLine
 10
78.79999619230642
 20
207.1922671714539
 30
0.0
 11
79.0
 21
207.0767949192431
 31
0.0
  0
LINE
  5
1B4
330
1F
100
AcDbEntity
  8
0
  6
Continuous
 62
     7
370
     9
100
AcDbLine
 10
81.3
 20
207.3654656570921
 30
0.0
 11
81.3
 21
217.6345343429079
 31
0.0
  0
LWPOLYLINE
  5
1B5
330
1F
100
AcDbEntity
  8
0
  6
Continuous
 62
     7
370
     9
100
AcDbPolyline
 90
        6
 70
     0
 43
0.0
 10
81.2000038076936
 20
207.1922671714539
 10
81.23382882943066
 20
207.2168424222394
 10
81.26180504566304
 20
207.2479130624223
 10
81.2827098637899
 20
207.2841212695411
 10
81.29562971938394
 20
207.3238847035915
 10
81.30000000000001
 20
207.3654656570921
  0
LINE
  5
1B6
330
1F
100
AcDbEntity
  8
0
  6
Continuous
 62
     7
370
     9
100
AcDbLine
 10
79.0
 20
217.9232050807569
 30
0.0
 11
78.79999619230642
 21
217.807732828546
 31
0.0
  0
LINE
  5
1B7
330
1F
100
AcDbEntity
  8
0
  6
Continuous
 62
     7
370
     9
100
AcDbLine
 10
87.35
 20
211.4301584610165
 30
0.0
 11
88.63222575437042
 21
211.4301584610165
 31
0.0
  0
LINE
  5
1B8
330
1F
100
AcDbEntity
  8
0
  6
Continuous
 62
     7
370
     9
100
AcDbLine
 10
86.90369125048493
 20
211.483148973894
 30
0.0
 11
87.35
 21
211.4301584610165
 31
0.0
  0
LINE
  5
1B9
330
1F
100
AcDbEntity
  8
0
  6
Continuous
 62
     7
370
     9
100
AcDbLine
 10
88.84468498452462
 20
211.483148973894
 30
0.0
 11
88.83737268084626
 21
211.4758366702156
 31
0.0
  0
LINE
  5
1BA
330
1F
100
AcDbEntity
  8
0
  6
Continuous
 62
     7
370
     9
100
AcDbLine
 10
87.29690881307863
 20
214.06807475322
 30
0.0
 11
87.29690881307863
 21
216.0401435918375
 31
0.0
  0
LINE
  5
1BB
330
1F
100
AcDbEntity
  8
0
  6
Continuous
 62
     7
370
     9
100
AcDbLine
 10
87.00136907759983
 20
214.047384476906
 30
0.0
 11
87.29690881307863
 21
214.06807475322
 31
0.0
  0
LINE
  5
1BC
330
1F
100
AcDbEntity
  8
0
  6
Continuous
 62
     7
370
     9
100
AcDbLine
 10
86.32452960199024
 20
214.0
 30
0.0
 11
86.35
 21
214.0017831428718
 31
0.0
  0
LINE
  5
1BD
330
1F
100
AcDbEntity
  8
0
  6
Continuous
 62
     7
370
     9
100
AcDbLine
 10
86.15
 20
214.0122185454497
 30
0.0
 11
86.32452960199024
 21
214.0
 31
0.0
  0
LINE
  5
1BE
330
1F
100
AcDbEntity
  8
0
  6
Continuous
 62
     7
370
     9
100
AcDbLine
 10
86.15
 20
215.75
 30
0.0
 11
86.15
 21
215.801737757881
 31
0.0
  0
LINE
  5
1BF
330
1F
100
AcDbEntity
  8
0
  6
Continuous
 62
     7
370
     9
100
AcDbLine
 10
86.19943044663512
 20
216.0017301424938
 30
0.0
 11
86.15
 21
215.801737757881
 31
0.0
  0
LINE
  5
1C0
330
1F
100
AcDbEntity
  8
0
  6
Continuous
 62
     7
370
     9
100
AcDbLine
 10
86.15
 20
210.9877814545502
 30
0.0
 11
86.32452960199024
 21
211.0
 31
0.0
  0
LINE
  5
1C1
330
1F
100
AcDbEntity
  8
0
  6
Continuous
 62
     7
370
     9
100
AcDbLine
 10
86.32452960199024
 20
211.0
 30
0.0
 11
86.35
 21
210.9982168571282
 31
0.0
  0
LINE
  5
1C2
330
1F
100
AcDbEntity
  8
0
  6
Continuous
 62
     7
370
     9
100
AcDbLine
 10
87.00136907759986
 20
210.952615523094
 30
0.0
 11
87.29690881307863
 21
210.9319252467799
 31
0.0
  0
LINE
  5
1C3
330
1F
100
AcDbEntity
  8
0
  6
Continuous
 62
     7
370
     9
100
AcDbLine
 10
87.29690881307863
 20
208.9598564081625
 30
0.0
 11
87.29690881307863
 21
210.9319252467799
 31
0.0
  0
LINE
  5
1C4
330
1F
100
AcDbEntity
  8
0
  6
Continuous
 62
     7
370
     9
100
AcDbLine
 10
86.15
 20
209.198262242119
 30
0.0
 11
86.19943044663512
 21
208.9982698575062
 31
0.0
  0
LINE
  5
1C5
330
1F
100
AcDbEntity
  8
0
  6
Continuous
 62
     7
370
     9
100
AcDbLine
 10
86.15
 20
209.198262242119
 30
0.0
 11
86.15
 21
209.25
 31
0.0
  0
LINE
  5
1C6
330
1F
100
AcDbEntity
  8
0
  6
Continuous
 62
     7
370
     9
100
AcDbLine
 10
87.29690881307863
 20
210.9319252467799
 30
0.0
 11
87.35
 21
210.9319252467799
 31
0.0
  0
LINE
  5
1C7
330
1F
100
AcDbEntity
  8
0
  6
Continuous
 62
     7
370
     9
100
AcDbLine
 10
87.35
 20
210.9319252467799
 30
0.0
 11
87.00136907759986
 21
210.952615523094
 31
0.0
  0
LINE
  5
1C8
330
1F
100
AcDbEntity
  8
0
  6
Continuous
 62
     7
370
     9
100
AcDbLine
 10
71.36777424562956
 20
213.5698415389835
 30
0.0
 11
72.65
 21
213.5698415389835
 31
0.0
  0
LINE
  5
1C9
330
1F
100
AcDbEntity
  8
0
  6
Continuous
 62
     7
370
     9
100
AcDbLine
 10
73.09630874951507
 20
213.516851026106
 30
0.0
 11
72.65
 21
213.5698415389835
 31
0.0
  0
LINE
  5
1CA
330
1F
100
AcDbEntity
  8
0
  6
Continuous
 62
     7
370
     9
100
AcDbLine
 10
71.15531501547535
 20
213.516851026106
 30
0.0
 11
71.16262731915371
 21
213.5241633297844
 31
0.0
  0
LINE
  5
1CB
330
1F
100
AcDbEntity
  8
0
  6
Continuous
 62
     7
370
     9
100
AcDbLine
 10
87.35
 20
214.06807475322
 30
0.0
 11
87.29690881307863
 21
214.06807475322
 31
0.0
  0
LINE
  5
1CC
330
1F
100
AcDbEntity
  8
0
  6
Continuous
 62
     7
370
     9
100
AcDbLine
 10
87.00136907759983
 20
214.047384476906
 30
0.0
 11
87.35
 21
214.06807475322
 31
0.0
  0
LINE
  5
1CD
330
1F
100
AcDbEntity
  8
0
  6
Continuous
 62
     7
370
     9
100
AcDbLine
 10
72.70309118692137
 20
216.0401435918375
 30
0.0
 11
72.70309118692137
 21
214.06807475322
 31
0.0
  0
LINE
  5
1CE
330
1F
100
AcDbEntity
  8
0
  6
Continuous
 62
     7
370
     9
100
AcDbLine
 10
72.70309118692137
 20
214.06807475322
 30
0.0
 11
72.65
 21
214.06807475322
 31
0.0
  0
LINE
  5
1CF
330
1F
100
AcDbEntity
  8
0
  6
Continuous
 62
     7
370
     9
100
AcDbLine
 10
72.65
 20
213.5698415389835
 30
0.0
 11
72.65
 21
214.06807475322
 31
0.0
  0
LINE
  5
1D0
330
1F
100
AcDbEntity
  8
0
  6
Continuous
 62
     7
370
     9
100
AcDbLine
 10
88.63222575437042
 20
213.5698415389835
 30
0.0
 11
87.35
 21
213.5698415389835
 31
0.0
  0
LINE
  5
1D1
330
1F
100
AcDbEntity
  8
0
  6
Continuous
 62
     7
370
     9
100
AcDbLine
 10
88.83737268084626
 20
213.5241633297844
 30
0.0
 11
88.84468498452462
 21
213.516851026106
 31
0.0
  0
LINE
  5
1D2
330
1F
100
AcDbEntity
  8
0
  6
Continuous
 62
     7
370
     9
100
AcDbLine
 10
87.35
 20
213.5698415389835
 30
0.0
 11
86.90369125048493
 21
213.516851026106
 31
0.0
  0
LINE
  5
1D3
330
1F
100
AcDbEntity
  8
0
  6
Continuous
 62
     7
370
     9
100
AcDbLine
 10
73.85
 20
214.0122185454497
 30
0.0
 11
73.67547039800976
 21
214.0
 31
0.0
  0
LINE
  5
1D4
330
1F
100
AcDbEntity
  8
0
  6
Continuous
 62
     7
370
     9
100
AcDbLine
 10
73.67547039800976
 20
214.0
 30
0.0
 11
73.65
 21
214.0017831428718
 31
0.0
  0
LINE
  5
1D5
330
1F
100
AcDbEntity
  8
0
  6
Continuous
 62
     7
370
     9
100
AcDbLine
 10
72.99863092240021
 20
214.047384476906
 30
0.0
 11
72.70309118692137
 21
214.06807475322
 31
0.0
  0
LINE
  5
1D6
330
1F
100
AcDbEntity
  8
0
  6
Continuous
 62
     7
370
     9
100
AcDbLine
 10
73.85
 20
215.801737757881
 30
0.0
 11
73.80056955336488
 21
216.0017301424938
 31
0.0
  0
LINE
  5
1D7
330
1F
100
AcDbEntity
  8
0
  6
Continuous
 62
     7
370
     9
100
AcDbLine
 10
73.85
 20
215.75
 30
0.0
 11
73.85
 21
215.801737757881
 31
0.0
  0
LINE
  5
1D8
330
1F
100
AcDbEntity
  8
0
  6
Continuous
 62
     7
370
     9
100
AcDbLine
 10
87.35
 20
214.06807475322
 30
0.0
 11
87.35
 21
213.5698415389835
 31
0.0
  0
LINE
  5
1D9
330
1F
100
AcDbEntity
  8
0
  6
Continuous
 62
     7
370
     9
100
AcDbLine
 10
72.65
 20
214.06807475322
 30
0.0
 11
72.99863092240021
 21
214.047384476906
 31
0.0
  0
LINE
  5
1DA
330
1F
100
AcDbEntity
  8
0
  6
Continuous
 62
     7
370
     9
100
AcDbLine
 10
72.70309118692137
 20
210.9319252467799
 30
0.0
 11
72.70309118692137
 21
208.9598564081625
 31
0.0
  0
LINE
  5
1DB
330
1F
100
AcDbEntity
  8
0
  6
Continuous
 62
     7
370
     9
100
AcDbLine
 10
72.99863092240017
 20
210.952615523094
 30
0.0
 11
72.70309118692137
 21
210.9319252467799
 31
0.0
  0
LINE
  5
1DC
330
1F
100
AcDbEntity
  8
0
  6
Continuous
 62
     7
370
     9
100
AcDbLine
 10
73.67547039800976
 20
211.0
 30
0.0
 11
73.65
 21
210.9982168571282
 31
0.0
  0
LINE
  5
1DD
330
1F
100
AcDbEntity
  8
0
  6
Continuous
 62
     7
370
     9
100
AcDbLine
 10
73.85
 20
210.9877814545502
 30
0.0
 11
73.67547039800976
 21
211.0
 31
0.0
  0
LINE
  5
1DE
330
1F
100
AcDbEntity
  8
0
  6
Continuous
 62
     7
370
     9
100
AcDbLine
 10
73.85
 20
209.198262242119
 30
0.0
 11
73.85
 21
209.25
 31
0.0
  0
LINE
  5
1DF
330
1F
100
AcDbEntity
  8
0
  6
Continuous
 62
     7
370
     9
100
AcDbLine
 10
73.80056955336488
 20
208.9982698575062
 30
0.0
 11
73.85
 21
209.198262242119
 31
0.0
  0
LINE
  5
1E0
330
1F
100
AcDbEntity
  8
0
  6
Continuous
 62
     7
370
     9
100
AcDbLine
 10
72.65
 20
210.9319252467799
 30
0.0
 11
72.70309118692137
 21
210.9319252467799
 31
0.0
  0
LINE
  5
1E1
330
1F
100
AcDbEntity
  8
0
  6
Continuous
 62
     7
370
     9
100
AcDbLine
 10
72.99863092240017
 20
210.952615523094
 30
0.0
 11
72.65
 21
210.9319252467799
 31
0.0
  0
LWPOLYLINE
  5
1E2
330
1F
100
AcDbEntity
  8
0
  6
Continuous
 62
     7
370
     9
100
AcDbPolyline
 90
       33
 70
     0
 43
0.0
 10
-86.76176470588236
 20
213.0171556125965
 10
-86.76193406081103
 20
213.0411446768571
 10
-86.76244173553424
 20
213.0650784888566
 10
-86.76328656076181
 20
213.088901923592
 10
-86.76446659066947
 20
213.1125601102847
 10
-86.7659791073804
 20
213.1359985587595
 10
-86.76782062722526
 20
213.1591632849484
 10
-86.76998690876576
 20
213.1820009352278
 10
-86.77247296256371
 20
213.2044589093044
 10
-86.77527306267278
 20
213.2264854813652
 10
-86.77838075982673
 20
213.248029919214
 10
-86.78178889629346
 20
213.2690426011192
 10
-86.78548962236097
 20
213.289475130104
 10
-86.7894744144169
 20
213.3092804454152
 10
-86.79373409458053
 20
213.3284129309152
 10
-86.79825885184134
 20
213.3468285201465
 10
-86.80303826465608
 20
213.364484797826
 10
-86.80806132495199
 20
213.3813410975376
 10
-86.81331646348085
 20
213.3973585953965
 10
-86.81879157646551
 20
213.4125003994684
 10
-86.82447405347779
 20
213.4267316347409
 10
-86.83035080648301
 20
213.4400195234484
 10
-86.83640829998478
 20
213.4523334605664
 10
-86.84263258220037
 20
213.463645084302
 10
-86.84900931719473
 20
213.4739283414177
 10
-86.85552381789945
 20
213.4831595472378
 10
-86.86216107994044
 20
213.4913174401996
 10
-86.86890581619632
 20
213.4983832308233
 10
-86.87574249200826
 20
213.5043406449891
 10
-86.88265536095973
 20
213.5091759614196
 10
-86.8896285011441
 20
213.5128780432834
 10
-86.89664585183644
 20
213.5154383638453
 10
-86.90369125048493
 20
213.516851026106
210
0.0
220
0.0
230
-1.0
  0
LINE
  5
1E3
330
1F
100
AcDbEntity
  8
0
  6
Continuous
 62
     7
370
     9
100
AcDbLine
 10
86.76176470588236
 20
213.0171556125965
 30
0.0
 11
86.76176470588236
 21
211.9828443874035
 31
0.0
  0
LWPOLYLINE
  5
1E4
330
1F
100
AcDbEntity
  8
0
  6
Continuous
 62
     7
370
     9
100
AcDbPolyline
 90
       33
 70
     0
 43
0.0
 10
-86.90369125048493
 20
211.483148973894
 10
-86.89664585183644
 20
211.4845616361546
 10
-86.8896285011441
 20
211.4871219567166
 10
-86.88265536095973
 20
211.4908240385804
 10
-86.87574249200826
 20
211.4956593550109
 10
-86.86890581619632
 20
211.5016167691767
 10
-86.86216107994044
 20
211.5086825598004
 10
-86.85552381789945
 20
211.5168404527622
 10
-86.84900931719473
 20
211.5260716585822
 10
-86.84263258220037
 20
211.536354915698
 10
-86.83640829998478
 20
211.5476665394336
 10
-86.83035080648301
 20
211.5599804765515
 10
-86.82447405347779
 20
211.573268365259
 10
-86.81879157646551
 20
211.5874996005316
 10
-86.81331646348085
 20
211.6026414046035
 10
-86.80806132495199
 20
211.6186589024623
 10
-86.80303826465608
 20
211.635515202174
 10
-86.79825885184134
 20
211.6531714798535
 10
-86.79373409458053
 20
211.6715870690847
 10
-86.7894744144169
 20
211.6907195545848
 10
-86.78548962236097
 20
211.710524869896
 10
-86.78178889629346
 20
211.7309573988807
 10
-86.77838075982673
 20
211.751970080786
 10
-86.77527306267278
 20
211.7735145186348
 10
-86.77247296256371
 20
211.7955410906956
 10
-86.76998690876576
 20
211.8179990647721
 10
-86.76782062722526
 20
211.8408367150516
 10
-86.7659791073804
 20
211.8640014412404
 10
-86.76446659066947
 20
211.8874398897152
 10
-86.76328656076181
 20
211.9110980764079
 10
-86.76244173553424
 20
211.9349215111434
 10
-86.76193406081103
 20
211.9588553231428
 10
-86.76176470588236
 20
211.9828443874035
210
0.0
220
0.0
230
-1.0
  0
LINE
  5
1E5
330
1F
100
AcDbEntity
  8
0
  6
Continuous
 62
     7
370
     9
100
AcDbLine
 10
87.35
 20
211.4301584610165
 30
0.0
 11
87.35
 21
210.9319252467799
 31
0.0
  0
LINE
  5
1E6
330
1F
100
AcDbEntity
  8
0
  6
Continuous
 62
     7
370
     9
100
AcDbLine
 10
87.00136907759986
 20
210.952615523094
 30
0.0
 11
86.35
 21
210.9912724675359
 31
0.0
  0
LINE
  5
1E7
330
1F
100
AcDbEntity
  8
0
  6
Continuous
 62
     7
370
     9
100
AcDbLine
 10
86.35
 20
210.9912724675359
 30
0.0
 11
86.35
 21
214.0087275324641
 31
0.0
  0
LINE
  5
1E8
330
1F
100
AcDbEntity
  8
0
  6
Continuous
 62
     7
370
     9
100
AcDbLine
 10
86.35
 20
214.0087275324641
 30
0.0
 11
87.00136907759983
 21
214.047384476906
 31
0.0
  0
LINE
  5
1E9
330
1F
100
AcDbEntity
  8
0
  6
Continuous
 62
     7
370
     9
100
AcDbLine
 10
72.65
 20
211.4301584610165
 30
0.0
 11
71.36777424562956
 21
211.4301584610165
 31
0.0
  0
LINE
  5
1EA
330
1F
100
AcDbEntity
  8
0
  6
Continuous
 62
     7
370
     9
100
AcDbLine
 10
72.65
 20
210.9319252467799
 30
0.0
 11
72.65
 21
211.4301584610165
 31
0.0
  0
LINE
  5
1EB
330
1F
100
AcDbEntity
  8
0
  6
Continuous
 62
     7
370
     9
100
AcDbLine
 10
72.99863092240021
 20
214.047384476906
 30
0.0
 11
73.65
 21
214.0087275324641
 31
0.0
  0
LINE
  5
1EC
330
1F
100
AcDbEntity
  8
0
  6
Continuous
 62
     7
370
     9
100
AcDbLine
 10
73.65
 20
214.0087275324641
 30
0.0
 11
73.65
 21
210.9912724675359
 31
0.0
  0
LINE
  5
1ED
330
1F
100
AcDbEntity
  8
0
  6
Continuous
 62
     7
370
     9
100
AcDbLine
 10
73.65
 20
210.9912724675359
 30
0.0
 11
72.99863092240017
 21
210.952615523094
 31
0.0
  0
LINE
  5
1EE
330
1F
100
AcDbEntity
  8
0
  6
Continuous
 62
     7
370
     9
100
AcDbLine
 10
72.65
 20
211.4301584610165
 30
0.0
 11
73.09630874951507
 21
211.483148973894
 31
0.0
  0
LWPOLYLINE
  5
1EF
330
1F
100
AcDbEntity
  8
0
  6
Continuous
 62
     7
370
     9
100
AcDbPolyline
 90
       33
 70
     0
 43
0.0
 10
-73.23823529411764
 20
211.9828443874035
 10
-73.23806593918897
 20
211.9588553231428
 10
-73.23755826446576
 20
211.9349215111434
 10
-73.23671343923819
 20
211.9110980764079
 10
-73.23553340933053
 20
211.8874398897152
 10
-73.2340208926196
 20
211.8640014412404
 10
-73.23217937277474
 20
211.8408367150516
 10
-73.23001309123424
 20
211.8179990647721
 10
-73.22752703743629
 20
211.7955410906956
 10
-73.22472693732722
 20
211.7735145186348
 10
-73.22161924017327
 20
211.751970080786
 10
-73.21821110370654
 20
211.7309573988807
 10
-73.21451037763903
 20
211.710524869896
 10
-73.2105255855831
 20
211.6907195545848
 10
-73.20626590541947
 20
211.6715870690847
 10
-73.20174114815866
 20
211.6531714798535
 10
-73.19696173534392
 20
211.635515202174
 10
-73.19193867504801
 20
211.6186589024623
 10
-73.18668353651915
 20
211.6026414046035
 10
-73.18120842353449
 20
211.5874996005316
 10
-73.17552594652221
 20
211.573268365259
 10
-73.16964919351699
 20
211.5599804765515
 10
-73.16359170001522
 20
211.5476665394336
 10
-73.15736741779963
 20
211.536354915698
 10
-73.15099068280527
 20
211.5260716585822
 10
-73.14447618210055
 20
211.5168404527622
 10
-73.13783892005956
 20
211.5086825598004
 10
-73.13109418380368
 20
211.5016167691767
 10
-73.12425750799174
 20
211.4956593550109
 10
-73.11734463904027
 20
211.4908240385804
 10
-73.1103714988559
 20
211.4871219567166
 10
-73.10335414816356
 20
211.4845616361546
 10
-73.09630874951507
 20
211.483148973894
210
0.0
220
0.0
230
-1.0
  0
LINE
  5
1F0
330
1F
100
AcDbEntity
  8
0
  6
Continuous
 62
     7
370
     9
100
AcDbLine
 10
73.23823529411764
 20
211.9828443874035
 30
0.0
 11
73.23823529411764
 21
213.0171556125965
 31
0.0
  0
LWPOLYLINE
  5
1F1
330
1F
100
AcDbEntity
  8
0
  6
Continuous
 62
     7
370
     9
100
AcDbPolyline
 90
       33
 70
     0
 43
0.0
 10
-73.09630874951507
 20
213.516851026106
 10
-73.10335414816356
 20
213.5154383638453
 10
-73.1103714988559
 20
213.5128780432834
 10
-73.11734463904027
 20
213.5091759614196
 10
-73.12425750799174
 20
213.5043406449891
 10
-73.13109418380368
 20
213.4983832308233
 10
-73.13783892005956
 20
213.4913174401996
 10
-73.14447618210055
 20
213.4831595472378
 10
-73.15099068280527
 20
213.4739283414177
 10
-73.15736741779963
 20
213.463645084302
 10
-73.16359170001522
 20
213.4523334605664
 10
-73.16964919351699
 20
213.4400195234484
 10
-73.17552594652221
 20
213.4267316347409
 10
-73.18120842353449
 20
213.4125003994684
 10
-73.18668353651915
 20
213.3973585953965
 10
-73.19193867504801
 20
213.3813410975376
 10
-73.19696173534392
 20
213.364484797826
 10
-73.20174114815866
 20
213.3468285201465
 10
-73.20626590541947
 20
213.3284129309152
 10
-73.2105255855831
 20
213.3092804454152
 10
-73.21451037763903
 20
213.289475130104
 10
-73.21821110370654
 20
213.2690426011192
 10
-73.22161924017327
 20
213.248029919214
 10
-73.22472693732722
 20
213.2264854813652
 10
-73.22752703743629
 20
213.2044589093044
 10
-73.23001309123424
 20
213.1820009352278
 10
-73.23217937277474
 20
213.1591632849484
 10
-73.2340208926196
 20
213.1359985587595
 10
-73.23553340933053
 20
213.1125601102847
 10
-73.23671343923819
 20
213.088901923592
 10
-73.23755826446576
 20
213.0650784888566
 10
-73.23806593918897
 20
213.0411446768571
 10
-73.23823529411764
 20
213.0171556125965
210
0.0
220
0.0
230
-1.0
  0
LINE
  5
1F2
330
1F
100
AcDbEntity
  8
0
  6
Continuous
 62
     7
370
     9
100
AcDbLine
 10
71.16262731915371
 20
211.4758366702156
 30
0.0
 11
71.15531501547535
 21
211.483148973894
 31
0.0
  0
LWPOLYLINE
  5
1F3
330
1F
100
AcDbEntity
  8
0
  6
Continuous
 62
     7
370
     9
100
AcDbPolyline
 90
        6
 70
     0
 43
0.0
 10
76.95000380769359
 20
207.192267171454
 10
76.98382882943066
 20
207.2168424222394
 10
77.01180504566302
 20
207.2479130624223
 10
77.03270986378989
 20
207.2841212695411
 10
77.04562971938394
 20
207.3238847035915
 10
77.05
 20
207.3654656570921
  0
LWPOLYLINE
  5
1F4
330
1F
100
AcDbEntity
  8
0
  6
Continuous
 62
     7
370
     9
100
AcDbPolyline
 90
        6
 70
     0
 43
0.0
 10
83.04999619230641
 20
217.807732828546
 10
83.01617117056934
 20
217.7831575777605
 10
82.98819495433699
 20
217.7520869375777
 10
82.96729013621011
 20
217.7158787304589
 10
82.95437028061606
 20
217.6761152964085
 10
82.95
 20
217.6345343429079
  0
LWPOLYLINE
  5
1F5
330
1F
100
AcDbEntity
  8
0
  6
Continuous
 62
     7
370
     9
100
AcDbPolyline
 90
        6
 70
     0
 43
0.0
 10
77.05
 20
217.6345343429079
 10
77.04562971938394
 20
217.6761152964085
 10
77.03270986378989
 20
217.7158787304589
 10
77.01180504566301
 20
217.7520869375777
 10
76.98382882943066
 20
217.7831575777605
 10
76.95000380769359
 20
217.807732828546
  0
LWPOLYLINE
  5
1F6
330
1F
100
AcDbEntity
  8
0
  6
Continuous
 62
     7
370
     9
100
AcDbPolyline
 90
        6
 70
     0
 43
0.0
 10
82.95
 20
207.3654656570921
 10
82.95437028061606
 20
207.3238847035915
 10
82.9672901362101
 20
207.2841212695411
 10
82.98819495433698
 20
207.2479130624223
 10
83.01617117056934
 20
207.2168424222394
 10
83.04999619230641
 20
207.192267171454
  0
LINE
  5
1F7
330
1F
100
AcDbEntity
  8
0
  6
Continuous
 62
     7
370
     9
100
AcDbLine
 10
82.94999999999999
 20
217.6345343429079
 30
0.0
 11
82.94999999999999
 21
215.25
 31
0.0
  0
LINE
  5
1F8
330
1F
100
AcDbEntity
  8
0
  6
Continuous
 62
     7
370
     9
100
AcDbLine
 10
77.05000000000001
 20
215.25
 30
0.0
 11
77.05000000000001
 21
217.6345343429079
 31
0.0
  0
LINE
  5
1F9
330
1F
100
AcDbEntity
  8
0
  6
Continuous
 62
     7
370
     9
100
AcDbLine
 10
82.94999999999999
 20
209.75
 30
0.0
 11
82.94999999999999
 21
207.3654656570921
 31
0.0
  0
LINE
  5
1FA
330
1F
100
AcDbEntity
  8
0
  6
Continuous
 62
     7
370
     9
100
AcDbLine
 10
77.05000000000001
 20
207.3654656570921
 30
0.0
 11
77.05000000000001
 21
209.75
 31
0.0
  0
LINE
  5
1FB
330
1F
100
AcDbEntity
  8
0
  6
Continuous
 62
     7
370
     9
100
AcDbLine
 10
83.04999619230642
 20
207.1922671714539
 30
0.0
 11
83.25
 21
207.0767949192431
 31
0.0
  0
LINE
  5
1FC
330
1F
100
AcDbEntity
  8
0
  6
Continuous
 62
     7
370
     9
100
AcDbLine
 10
76.75
 20
207.0767949192431
 30
0.0
 11
76.95000380769358
 21
207.1922671714539
 31
0.0
  0
LINE
  5
1FD
330
1F
100
AcDbEntity
  8
0
  6
Continuous
 62
     7
370
     9
100
AcDbLine
 10
83.25
 20
217.9232050807569
 30
0.0
 11
83.04999619230642
 21
217.807732828546
 31
0.0
  0
LINE
  5
1FE
330
1F
100
AcDbEntity
  8
0
  6
Continuous
 62
     7
370
     9
100
AcDbLine
 10
76.95000380769358
 20
217.807732828546
 30
0.0
 11
76.75
 21
217.9232050807569
 31
0.0
  0
LINE
  5
1FF
330
1F
100
AcDbEntity
  8
0
  6
Continuous
 62
     7
370
     9
100
AcDbLine
 10
71.13846398936934
 20
213.0171556125965
 30
0.0
 11
71.15531501547535
 21
213.516851026106
 31
0.0
  0
LINE
  5
200
330
1F
100
AcDbEntity
  8
0
  6
Continuous
 62
     7
370
     9
100
AcDbLine
 10
71.13846398936934
 20
211.9828443874035
 30
0.0
 11
71.13846398936934
 21
213.0171556125965
 31
0.0
  0
LINE
  5
201
330
1F
100
AcDbEntity
  8
0
  6
Continuous
 62
     7
370
     9
100
AcDbLine
 10
71.15531501547535
 20
211.483148973894
 30
0.0
 11
71.13846398936934
 21
211.9828443874035
 31
0.0
  0
LINE
  5
202
330
1F
100
AcDbEntity
  8
0
  6
Continuous
 62
     7
370
     9
100
AcDbLine
 10
88.86153601063064
 20
211.9828443874035
 30
0.0
 11
88.84468498452462
 21
211.483148973894
 31
0.0
  0
LINE
  5
203
330
1F
100
AcDbEntity
  8
0
  6
Continuous
 62
     7
370
     9
100
AcDbLine
 10
88.86153601063064
 20
213.0171556125965
 30
0.0
 11
88.86153601063064
 21
211.9828443874035
 31
0.0
  0
LINE
  5
204
330
1F
100
AcDbEntity
  8
0
  6
Continuous
 62
     7
370
     9
100
AcDbLine
 10
88.84468498452462
 20
213.516851026106
 30
0.0
 11
88.86153601063064
 21
213.0171556125965
 31
0.0
  0
LINE
  5
205
330
1F
100
AcDbEntity
  8
0
  6
Continuous
 62
     7
370
     9
100
AcDbLine
 10
73.67547039800976
 20
214.0
 30
0.0
 11
73.65
 21
214.0
 31
0.0
  0
LINE
  5
206
330
1F
100
AcDbEntity
  8
0
  6
Continuous
 62
     7
370
     9
100
AcDbLine
 10
86.32452960199024
 20
211.0
 30
0.0
 11
86.35
 21
211.0
 31
0.0
  0
LINE
  5
207
330
1F
100
AcDbEntity
  8
0
  6
Continuous
 62
     7
370
     9
100
AcDbLine
 10
86.35
 20
214.0
 30
0.0
 11
86.32452960199024
 21
214.0
 31
0.0
  0
LINE
  5
208
330
1F
100
AcDbEntity
  8
0
  6
Continuous
 62
     7
370
     9
100
AcDbLine
 10
73.65
 20
211.0
 30
0.0
 11
73.67547039800976
 21
211.0
 31
0.0
  0
LINE
  5
209
330
1F
100
AcDbEntity
  8
0
  6
Continuous
 62
     7
370
     9
100
AcDbLine
 10
74.26872434430766
 20
202.0361571737551
 30
0.0
 11
74.26378810041064
 21
202.0355303137908
 31
0.0
  0
LINE
  5
20A
330
1F
100
AcDbEntity
  8
0
  6
Continuous
 62
     7
370
     9
100
AcDbLine
 10
85.73125204576334
 20
202.0361631875344
 30
0.0
 11
85.73621189955355
 21
202.0355303137908
 31
0.0
  0
LINE
  5
20B
330
1F
100
AcDbEntity
  8
0
  6
Continuous
 62
     7
370
     9
100
AcDbLine
 10
85.74108003776297
 20
222.9638605132285
 30
0.0
 11
85.73621190119172
 21
222.9644696862092
 31
0.0
  0
LINE
  5
20C
330
1F
100
AcDbEntity
  8
0
  6
Continuous
 62
     7
370
     9
100
AcDbLine
 10
85.73621189955355
 20
202.0355303137908
 30
0.0
 11
85.74108003776297
 21
202.0361394867714
 31
0.0
  0
LINE
  5
20D
330
1F
100
AcDbEntity
  8
0
  6
Continuous
 62
     7
370
     9
100
AcDbLine
 10
74.26378810041064
 20
202.0355303137908
 30
0.0
 11
74.25891996223703
 21
202.0361394867714
 31
0.0
  0
LINE
  5
20E
330
1F
100
AcDbEntity
  8
0
  6
Continuous
 62
     7
370
     9
100
AcDbLine
 10
74.26378810043825
 20
222.9644696862092
 30
0.0
 11
74.25891996223703
 21
222.9638605132285
 31
0.0
  0
LWPOLYLINE
  5
20F
330
1F
100
AcDbEntity
  8
0
  6
Continuous
 62
     7
370
     9
100
AcDbPolyline
 90
       59
 70
     0
 43
0.0
 10
71.00019078347484
 20
203.0699687537821
 10
71.0011681968226
 20
203.0262334464683
 10
71.00398804075758
 20
202.9833610630142
 10
71.00854465095657
 20
202.941424006287
 10
71.01473166121794
 20
202.900486086401
 10
71.02244255867708
 20
202.8606028364885
 10
71.03157119308045
 20
202.8218218512646
 10
71.04424875490352
 20
202.776795485374
 10
71.05863670069806
 20
202.7334691305423
 10
71.07455897911862
 20
202.6918843026168
 10
71.09184384937815
 20
202.6520694950949
 10
71.11032456870414
 20
202.6140411615782
 10
71.1322439154804
 20
202.5735766121808
 10
71.15524393845138
 20
202.5353521637275
 10
71.17911741175139
 20
202.4993462772559
 10
71.20366775074504
 20
202.4655248640439
 10
71.22870933144499
 20
202.4338428647992
 10
71.25361302455522
 20
202.4047563506165
 10
71.27866742740599
 20
202.3776217692561
 10
71.30372809118118
 20
202.3523737107758
 10
71.32866077589746
 20
202.3289417142115
 10
71.36001320193908
 20
202.3016279608202
 10
71.39072434958061
 20
202.2769751169307
 10
71.4205850158612
 20
202.2548185249862
 10
71.44940900865177
 20
202.2349916731218
 10
71.47831458363343
 20
202.2165387621198
 10
71.50573625207426
 20
202.2002733618161
 10
71.53153058014975
 20
202.1860139186451
 10
71.55452103969795
 20
202.1741142445367
 10
71.57582495590403
 20
202.163741155267
 10
71.59536467132135
 20
202.1547610275261
 10
71.61307493714266
 20
202.1470504853928
 10
71.6216030378253
 20
202.1434801517915
 10
71.62960750008878
 20
202.1402123003065
 10
71.6372546561064
 20
202.137165986371
 10
71.644751256674
 20
202.1342519647989
 10
71.65209814297451
 20
202.1314651987993
 10
71.6592961439091
 20
202.1288009627591
 10
71.66616526237017
 20
202.1263193420131
 10
71.67289591803785
 20
202.1239454753833
 10
71.67949007974966
 20
202.1216753516121
 10
71.6859500998589
 20
202.1195050806387
 10
71.6922787095243
 20
202.1174308955107
 10
71.69847901477145
 20
202.1154491542011
 10
71.70455449332088
 20
202.1135563413392
 10
71.71747301553151
 20
202.1096966945606
 10
71.7298560127299
 20
202.1062158428146
 10
71.74175890798195
 20
202.1030832566756
 10
71.75325290022447
 20
202.1002659298402
 10
71.76444193626189
 20
202.0976983366231
 10
71.77534750057568
 20
202.0953562847361
 10
71.78597717011458
 20
202.0932266415447
 10
71.8138667944054
 20
202.0883738492732
 10
71.84046050583035
 20
202.0847221113242
 10
71.87359973689871
 20
202.0809913164946
 10
71.90872309367458
 20
202.0777805972762
 10
71.94646306914407
 20
202.0749019602239
 10
71.98596934496584
 20
202.0723352595237
 10
72.00009984872591
 20
202.0715083217092
  0
LWPOLYLINE
  5
210
330
1F
100
AcDbEntity
  8
0
  6
Continuous
 62
     7
370
     9
100
AcDbPolyline
 90
       59
 70
     0
 43
0.0
 10
88.99980921652514
 20
221.9300312462178
 10
88.99883180317737
 20
221.9737665535316
 10
88.9960119592424
 20
222.0166389369858
 10
88.9914553490434
 20
222.058575993713
 10
88.98526833878203
 20
222.099513913599
 10
88.97755744132289
 20
222.1393971635114
 10
88.9684288069195
 20
222.1781781487354
 10
88.95575124509645
 20
222.2232045146261
 10
88.9413632993019
 20
222.2665308694577
 10
88.92544102088135
 20
222.3081156973833
 10
88.90815615062182
 20
222.3479305049051
 10
88.88967543129583
 20
222.3859588384219
 10
88.86775608451957
 20
222.4264233878192
 10
88.84475606154858
 20
222.4646478362725
 10
88.82088258824858
 20
222.5006537227441
 10
88.79633224925492
 20
222.5344751359561
 10
88.771290668555
 20
222.5661571352007
 10
88.74638697544474
 20
222.5952436493835
 10
88.72133257259398
 20
222.6223782307439
 10
88.69627190881877
 20
222.6476262892241
 10
88.6713392241025
 20
222.6710582857885
 10
88.63998679806087
 20
222.6983720391798
 10
88.60927565041936
 20
222.7230248830693
 10
88.57941498413877
 20
222.7451814750138
 10
88.5505909913482
 20
222.7650083268782
 10
88.52168541636652
 20
222.7834612378802
 10
88.4942637479257
 20
222.7997266381839
 10
88.46846941985022
 20
222.8139860813549
 10
88.44547896030201
 20
222.8258857554633
 10
88.42417504409593
 20
222.8362588447329
 10
88.40463532867862
 20
222.8452389724739
 10
88.3869250628573
 20
222.8529495146072
 10
88.37839696217468
 20
222.8565198482085
 10
88.37039249991118
 20
222.8597876996935
 10
88.36274534389355
 20
222.862834013629
 10
88.35524874332597
 20
222.8657480352011
 10
88.34790185702545
 20
222.8685348012006
 10
88.34070385609087
 20
222.8711990372408
 10
88.3338347376298
 20
222.8736806579869
 10
88.32710408196212
 20
222.8760545246167
 10
88.32050992025033
 20
222.8783246483879
 10
88.31404990014107
 20
222.8804949193613
 10
88.30772129047567
 20
222.8825691044893
 10
88.30152098522852
 20
222.8845508457989
 10
88.29544550667909
 20
222.8864436586608
 10
88.28252698446846
 20
222.8903033054393
 10
88.27014398727007
 20
222.8937841571854
 10
88.25824109201803
 20
222.8969167433244
 10
88.2467470997755
 20
222.8997340701598
 10
88.23555806373808
 20
222.9023016633768
 10
88.2246524994243
 20
222.9046437152638
 10
88.2140228298854
 20
222.9067733584553
 10
88.18613320559457
 20
222.9116261507268
 10
88.15953949416964
 20
222.9152778886758
 10
88.12640026310126
 20
222.9190086835054
 10
88.0912769063254
 20
222.9222194027238
 10
88.05353693085591
 20
222.9250980397761
 10
88.01403065503413
 20
222.9276647404763
 10
87.99990015127406
 20
222.9284916782907
  0
LINE
  5
211
330
1F
100
AcDbEntity
  8
0
  6
Continuous
 62
     7
370
     9
100
AcDbLine
 10
73.0
 20
202.0355303137906
 30
0.0
 11
74.26378795283894
 21
202.0355303137906
 31
0.0
  0
LINE
  5
212
330
1F
100
AcDbEntity
  8
0
  6
Continuous
 62
     7
370
     9
100
AcDbLine
 10
86.99999999999999
 20
222.9644696862094
 30
0.0
 11
85.7362120422904
 21
222.9644696862094
 31
0.0
  0
LINE
  5
213
330
1F
100
AcDbEntity
  8
0
  6
Continuous
 62
     7
370
     9
100
AcDbLine
 10
85.73621204761496
 20
202.0355303137906
 30
0.0
 11
87.99999999999999
 21
202.0355303137906
 31
0.0
  0
LINE
  5
214
330
1F
100
AcDbEntity
  8
0
  6
Continuous
 62
     7
370
     9
100
AcDbLine
 10
83.26212879920908
 20
216.034818655465
 30
0.0
 11
83.26212879920908
 21
217.7643886413445
 31
0.0
  0
LINE
  5
215
330
1F
100
AcDbEntity
  8
0
  6
Continuous
 62
     7
370
     9
100
AcDbLine
 10
79.0
 20
218.9938307695924
 30
0.0
 11
79.55417176922775
 21
219.25
 31
0.0
  0
LINE
  5
216
330
1F
100
AcDbEntity
  8
0
  6
Continuous
 62
     7
370
     9
100
AcDbLine
 10
79.55417176922775
 20
205.75
 30
0.0
 11
79.0
 21
206.0061692304076
 31
0.0
  0
LINE
  5
217
330
1F
100
AcDbEntity
  8
0
  6
Continuous
 62
     7
370
     9
100
AcDbLine
 10
76.73787120079092
 20
216.034818655465
 30
0.0
 11
76.73787120079092
 21
217.7643886413445
 31
0.0
  0
LINE
  5
218
330
1F
100
AcDbEntity
  8
0
  6
Continuous
 62
     7
370
     9
100
AcDbLine
 10
80.44582823077225
 20
219.25
 30
0.0
 11
81.0
 21
218.9938307695924
 31
0.0
  0
MTEXT
  5
219
330
1F
100
AcDbEntity
  8
0
 62
     7
100
AcDbMText
 10
74.18103351256723
 20
163.5147836688759
 30
0.0
 40
3.0
 41
0.0
 46
0.0
 71
     1
 72
     1
  1
{\fＭＳ ゴシック;MPBT-15}
 73
     1
 44
1.0
  0
LINE
  5
21A
330
1F
100
AcDbEntity
  8
0
  6
Continuous
 62
     7
370
     9
100
AcDbLine
 10
70.99999999999999
 20
221.9644696862094
 30
0.0
 11
70.99999999999999
 21
203.0704510832823
 31
0.0
  0
ARC
  5
21B
330
1F
100
AcDbEntity
  8
0
  6
Continuous
 62
     7
370
     9
100
AcDbCircle
 10
87.99999999999999
 20
203.0355303137906
 30
0.0
 40
1.0
100
AcDbArc
 50
270.0
 51
0.0
  0
LINE
  5
21C
330
1F
100
AcDbEntity
  8
0
  6
Continuous
 62
     7
370
     9
100
AcDbLine
 10
74.26378795240932
 20
222.9644696862094
 30
0.0
 11
72.0
 21
222.9644696862094
 31
0.0
  0
ARC
  5
21D
330
1F
100
AcDbEntity
  8
0
  6
Continuous
 62
     7
370
     9
100
AcDbCircle
 10
72.0
 20
221.9644696862094
 30
0.0
 40
1.0
100
AcDbArc
 50
90.0
 51
180.0
  0
LINE
  5
21E
330
1F
100
AcDbEntity
  8
0
  6
Continuous
 62
     7
370
     9
100
AcDbLine
 10
76.70220578672175
 20
208.9295159304658
 30
0.0
 11
76.73787120079092
 21
208.9651813445349
 31
0.0
  0
LINE
  5
21F
330
1F
100
AcDbEntity
  8
0
  6
Continuous
 62
     7
370
     9
100
AcDbLine
 10
83.29779421327825
 20
216.0704840695342
 30
0.0
 11
83.26212879920908
 21
216.034818655465
 31
0.0
  0
LINE
  5
220
330
1F
100
AcDbEntity
  8
0
  6
Continuous
 62
     7
370
     9
100
AcDbLine
 10
83.29779421327825
 20
208.9295159304658
 30
0.0
 11
83.26212879920908
 21
208.9651813445349
 31
0.0
  0
LINE
  5
221
330
1F
100
AcDbEntity
  8
0
  6
Continuous
 62
     7
370
     9
100
AcDbLine
 10
76.73787120079092
 20
207.2356113586555
 30
0.0
 11
76.73787120079092
 21
208.965181344535
 31
0.0
  0
LINE
  5
222
330
1F
100
AcDbEntity
  8
0
  6
Continuous
 62
     7
370
     9
100
AcDbLine
 10
83.26212879920908
 20
207.2356113586555
 30
0.0
 11
83.26212879920908
 21
208.965181344535
 31
0.0
  0
LINE
  5
223
330
1F
100
AcDbEntity
  8
0
  6
Continuous
 62
     7
370
     9
100
AcDbLine
 10
76.70220578672175
 20
216.0704840695342
 30
0.0
 11
76.73787120079092
 21
216.034818655465
 31
0.0
  0
LINE
  5
224
330
1F
100
AcDbEntity
  8
0
  6
Continuous
 62
     7
370
     9
100
AcDbLine
 10
88.99999999999999
 20
203.0355303137906
 30
0.0
 11
88.99999999999999
 21
221.9295489167177
 31
0.0
  0
LINE
  5
225
330
1F
100
AcDbEntity
  8
0
  6
Continuous
 62
     7
370
     9
100
AcDbLine
 10
81.0
 20
206.0061692304076
 30
0.0
 11
80.44582823077225
 21
205.75
 31
0.0
  0
ENDSEC
  0
SECTION
  2
OBJECTS
  0
DICTIONARY
  5
C
330
0
100
AcDbDictionary
281
     1
  3
ACAD_DETAILVIEWSTYLE
350
22D
  3
ACAD_GROUP
350
D
  3
ACAD_LAYOUT
350
1A
  3
ACAD_MATERIAL
350
43
  3
ACAD_MLEADERSTYLE
350
6B
  3
ACAD_MLINESTYLE
350
17
  3
ACAD_PLOTSETTINGS
350
19
  3
ACAD_PLOTSTYLENAME
350
E
  3
ACAD_SCALELIST
350
47
  3
ACAD_SECTIONVIEWSTYLE
350
22E
  3
ACAD_TABLESTYLE
350
69
  3
ACAD_VISUALSTYLE
350
2A
  3
ACDB_RECOMPOSE_DATA
350
22A
  3
AcDbVariableDictionary
350
226
  0
SUN
  5
6D
330
29
100
AcDbSun
 90
        1
290
     0
 63
     7
421
 16777215
 40
1.0
291
     1
 91
  2455826
 92
 54000000
292
     0
 70
     2
 71
   256
280
     1
  0
DICTIONARY
  5
22D
102
{ACAD_REACTORS
330
C
102
}
330
C
100
AcDbDictionary
281
     1
  0
DICTIONARY
  5
D
102
{ACAD_REACTORS
330
C
102
}
330
C
100
AcDbDictionary
281
     1
  0
DICTIONARY
  5
1A
102
{ACAD_REACTORS
330
C
102
}
330
C
100
AcDbDictionary
281
     1
  3
Layout1
350
1E
  3
Layout2
350
26
  3
Model
350
22
  0
DICTIONARY
  5
43
102
{ACAD_REACTORS
330
C
102
}
330
C
100
AcDbDictionary
281
     1
  3
ByBlock
350
45
  3
ByLayer
350
44
  3
Global
350
46
  0
DICTIONARY
  5
6B
102
{ACAD_REACTORS
330
C
102
}
330
C
100
AcDbDictionary
281
     1
  3
Standard
350
6C
  0
DICTIONARY
  5
17
102
{ACAD_REACTORS
330
C
102
}
330
C
100
AcDbDictionary
281
     1
  3
Standard
350
18
  0
DICTIONARY
  5
19
102
{ACAD_REACTORS
330
C
102
}
330
C
100
AcDbDictionary
281
     1
  0
ACDBDICTIONARYWDFLT
  5
E
102
{ACAD_REACTORS
330
C
102
}
330
C
100
AcDbDictionary
281
     1
  3
Normal
350
F
100
AcDbDictionaryWithDefault
340
F
  0
DICTIONARY
  5
47
102
{ACAD_REACTORS
330
C
102
}
330
C
100
AcDbDictionary
281
     1
  3
A0
350
48
  3
A1
350
49
  3
A2
350
4A
  3
A3
350
4B
  3
A4
350
4C
  3
A5
350
4D
  3
A6
350
4E
  3
A7
350
4F
  3
A8
350
50
  3
A9
350
51
  3
B0
350
52
  3
B1
350
53
  3
B2
350
54
  3
B3
350
55
  3
B4
350
56
  3
B5
350
57
  3
B6
350
58
  3
B7
350
59
  3
B8
350
5A
  3
B9
350
5B
  3
C0
350
5C
  3
C1
350
5D
  3
C2
350
5E
  3
C3
350
5F
  3
C4
350
60
  3
C5
350
61
  3
C6
350
62
  3
C7
350
63
  3
C8
350
64
  3
C9
350
65
  3
D0
350
66
  3
D1
350
67
  3
D2
350
68
  0
DICTIONARY
  5
22E
102
{ACAD_REACTORS
330
C
102
}
330
C
100
AcDbDictionary
281
     1
  0
DICTIONARY
  5
69
102
{ACAD_REACTORS
330
C
102
}
330
C
100
AcDbDictionary
281
     1
  3
Standard
350
6A
  0
DICTIONARY
  5
2A
102
{ACAD_REACTORS
330
C
102
}
330
C
100
AcDbDictionary
281
     1
  3
2dWireframe
350
2F
  3
Basic
350
32
  3
Brighten
350
36
  3
ColorChange
350
3A
  3
Conceptual
350
34
  3
Dim
350
35
  3
EdgeColorOff
350
3D
  3
Facepattern
350
39
  3
Flat
350
2B
  3
FlatWithEdges
350
2C
  3
Gouraud
350
2D
  3
GouraudWithEdges
350
2E
  3
Hidden
350
31
  3
JitterOff
350
3B
  3
Linepattern
350
38
  3
OverhangOff
350
3C
  3
Realistic
350
33
  3
Shaded
350
42
  3
Shaded with edges
350
41
  3
Shades of Gray
350
3E
  3
Sketchy
350
3F
  3
Thicken
350
37
  3
Wireframe
350
30
  3
X-Ray
350
40
  0
XRECORD
  5
22A
102
{ACAD_REACTORS
330
C
102
}
330
C
100
AcDbXrecord
280
     1
 90
        1
330
6A
  0
DICTIONARY
  5
226
102
{ACAD_REACTORS
330
C
102
}
330
C
100
AcDbDictionary
281
     1
  3
CANNOSCALE
350
227
  3
CMLEADERSTYLE
350
22C
  3
CTABLESTYLE
350
22B
  0
LAYOUT
  5
1E
102
{ACAD_REACTORS
330
1A
102
}
330
1A
100
AcDbPlotSettings
  1

  2
none_device
  4

  6

 40
0.0
 41
0.0
 42
0.0
 43
0.0
 44
0.0
 45
0.0
 46
0.0
 47
0.0
 48
0.0
 49
0.0
140
0.0
141
0.0
142
1.0
143
1.0
 70
   688
 72
     0
 73
     0
 74
     5
  7

 75
    16
 76
     0
 77
     2
 78
   300
147
1.0
148
0.0
149
0.0
100
AcDbLayout
  1
Layout1
 70
     1
 71
     1
 10
0.0
 20
0.0
 11
12.0
 21
9.0
 12
0.0
 22
0.0
 32
0.0
 14
1.000000000000000E+20
 24
1.000000000000000E+20
 34
1.000000000000000E+20
 15
-1.000000000000000E+20
 25
-1.000000000000000E+20
 35
-1.000000000000000E+20
146
0.0
 13
0.0
 23
0.0
 33
0.0
 16
1.0
 26
0.0
 36
0.0
 17
0.0
 27
1.0
 37
0.0
 76
     0
330
1B
  0
LAYOUT
  5
26
102
{ACAD_REACTORS
330
1A
102
}
330
1A
100
AcDbPlotSettings
  1

  2
none_device
  4

  6

 40
0.0
 41
0.0
 42
0.0
 43
0.0
 44
0.0
 45
0.0
 46
0.0
 47
0.0
 48
0.0
 49
0.0
140
0.0
141
0.0
142
1.0
143
1.0
 70
   688
 72
     0
 73
     0
 74
     5
  7

 75
    16
 76
     0
 77
     2
 78
   300
147
1.0
148
0.0
149
0.0
100
AcDbLayout
  1
Layout2
 70
     1
 71
     2
 10
0.0
 20
0.0
 11
0.0
 21
0.0
 12
0.0
 22
0.0
 32
0.0
 14
0.0
 24
0.0
 34
0.0
 15
0.0
 25
0.0
 35
0.0
146
0.0
 13
0.0
 23
0.0
 33
0.0
 16
1.0
 26
0.0
 36
0.0
 17
0.0
 27
1.0
 37
0.0
 76
     0
330
23
  0
LAYOUT
  5
22
102
{ACAD_REACTORS
330
1A
102
}
330
1A
100
AcDbPlotSettings
  1

  2
none_device
  4
Letter_(8.50_x_11.00_Inches)
  6

 40
6.35
 41
6.35
 42
6.35000508
 43
6.35000508
 44
215.9
 45
279.4
 46
0.0
 47
0.0
 48
0.0
 49
0.0
140
0.0
141
0.0
142
1.0
143
1.0
 70
  1712
 72
     0
 73
     0
 74
     0
  7

 75
     0
 76
     0
 77
     2
 78
   300
147
1.0
148
0.0
149
0.0
100
AcDbLayout
  1
Model
 70
     1
 71
     0
 10
0.0
 20
0.0
 11
12.0
 21
9.0
 12
0.0
 22
0.0
 32
0.0
 14
70.99999999999999
 24
160.8556927597849
 34
0.0
 15
130.4644301426277
 25
222.9644696862094
 35
0.0
146
0.0
 13
0.0
 23
0.0
 33
0.0
 16
1.0
 26
0.0
 36
0.0
 17
0.0
 27
1.0
 37
0.0
 76
     0
330
1F
331
29
  0
MATERIAL
  5
45
102
{ACAD_REACTORS
330
43
102
}
330
43
100
AcDbMaterial
  1
ByBlock
 72
     1
 94
      127
  0
MATERIAL
  5
44
102
{ACAD_REACTORS
330
43
102
}
330
43
100
AcDbMaterial
  1
ByLayer
 72
     1
 94
      127
  0
MATERIAL
  5
46
102
{ACAD_REACTORS
330
43
102
}
330
43
100
AcDbMaterial
  1
Global
 72
     1
 94
      127
  0
MLEADERSTYLE
  5
6C
102
{ACAD_REACTORS
330
6B
102
}
330
6B
100
AcDbMLeaderStyle
179
     2
170
     2
171
     1
172
     0
 90
        2
 40
0.0
 41
0.0
173
     1
 91
-1056964608
340
14
 92
       -2
290
     1
 42
0.09
291
     1
 43
0.36
  3
Standard
341
0
 44
0.18
300

342
11
174
     1
178
     6
175
     1
176
     0
 93
-1056964608
 45
0.18
292
     0
297
     0
 46
0.18
343
0
 94
-1056964608
 47
1.0
 49
1.0
140
1.0
293
     1
141
0.0
294
     1
177
     0
142
1.0
295
     0
296
     0
143
0.125
271
     0
272
     9
273
     9
298
     0
  0
MLINESTYLE
  5
18
102
{ACAD_REACTORS
330
17
102
}
330
17
100
AcDbMlineStyle
  2
Standard
 70
     0
  3

 62
   256
 51
90.0
 52
90.0
 71
     2
 49
0.5
 62
   256
  6
BYLAYER
 49
-0.5
 62
   256
  6
BYLAYER
  0
ACDBPLACEHOLDER
  5
F
102
{ACAD_REACTORS
330
E
102
}
330
E
  0
SCALE
  5
48
102
{ACAD_REACTORS
330
47
102
}
330
47
100
AcDbScale
 70
     0
300
1:1
140
1.0
141
1.0
290
     1
  0
SCALE
  5
49
102
{ACAD_REACTORS
330
47
102
}
330
47
100
AcDbScale
 70
     0
300
1:2
140
1.0
141
2.0
290
     0
  0
SCALE
  5
4A
102
{ACAD_REACTORS
330
47
102
}
330
47
100
AcDbScale
 70
     0
300
1:4
140
1.0
141
4.0
290
     0
  0
SCALE
  5
4B
102
{ACAD_REACTORS
330
47
102
}
330
47
100
AcDbScale
 70
     0
300
1:5
140
1.0
141
5.0
290
     0
  0
SCALE
  5
4C
102
{ACAD_REACTORS
330
47
102
}
330
47
100
AcDbScale
 70
     0
300
1:8
140
1.0
141
8.0
290
     0
  0
SCALE
  5
4D
102
{ACAD_REACTORS
330
47
102
}
330
47
100
AcDbScale
 70
     0
300
1:10
140
1.0
141
10.0
290
     0
  0
SCALE
  5
4E
102
{ACAD_REACTORS
330
47
102
}
330
47
100
AcDbScale
 70
     0
300
1:16
140
1.0
141
16.0
290
     0
  0
SCALE
  5
4F
102
{ACAD_REACTORS
330
47
102
}
330
47
100
AcDbScale
 70
     0
300
1:20
140
1.0
141
20.0
290
     0
  0
SCALE
  5
50
102
{ACAD_REACTORS
330
47
102
}
330
47
100
AcDbScale
 70
     0
300
1:30
140
1.0
141
30.0
290
     0
  0
SCALE
  5
51
102
{ACAD_REACTORS
330
47
102
}
330
47
100
AcDbScale
 70
     0
300
1:40
140
1.0
141
40.0
290
     0
  0
SCALE
  5
52
102
{ACAD_REACTORS
330
47
102
}
330
47
100
AcDbScale
 70
     0
300
1:50
140
1.0
141
50.0
290
     0
  0
SCALE
  5
53
102
{ACAD_REACTORS
330
47
102
}
330
47
100
AcDbScale
 70
     0
300
1:100
140
1.0
141
100.0
290
     0
  0
SCALE
  5
54
102
{ACAD_REACTORS
330
47
102
}
330
47
100
AcDbScale
 70
     0
300
2:1
140
2.0
141
1.0
290
     0
  0
SCALE
  5
55
102
{ACAD_REACTORS
330
47
102
}
330
47
100
AcDbScale
 70
     0
300
4:1
140
4.0
141
1.0
290
     0
  0
SCALE
  5
56
102
{ACAD_REACTORS
330
47
102
}
330
47
100
AcDbScale
 70
     0
300
8:1
140
8.0
141
1.0
290
     0
  0
SCALE
  5
57
102
{ACAD_REACTORS
330
47
102
}
330
47
100
AcDbScale
 70
     0
300
10:1
140
10.0
141
1.0
290
     0
  0
SCALE
  5
58
102
{ACAD_REACTORS
330
47
102
}
330
47
100
AcDbScale
 70
     0
300
100:1
140
100.0
141
1.0
290
     0
  0
SCALE
  5
59
102
{ACAD_REACTORS
330
47
102
}
330
47
100
AcDbScale
 70
     0
300
1/128" = 1'-0"
140
0.0078125
141
12.0
290
     0
  0
SCALE
  5
5A
102
{ACAD_REACTORS
330
47
102
}
330
47
100
AcDbScale
 70
     0
300
1/64" = 1'-0"
140
0.015625
141
12.0
290
     0
  0
SCALE
  5
5B
102
{ACAD_REACTORS
330
47
102
}
330
47
100
AcDbScale
 70
     0
300
1/32" = 1'-0"
140
0.03125
141
12.0
290
     0
  0
SCALE
  5
5C
102
{ACAD_REACTORS
330
47
102
}
330
47
100
AcDbScale
 70
     0
300
1/16" = 1'-0"
140
0.0625
141
12.0
290
     0
  0
SCALE
  5
5D
102
{ACAD_REACTORS
330
47
102
}
330
47
100
AcDbScale
 70
     0
300
3/32" = 1'-0"
140
0.09375
141
12.0
290
     0
  0
SCALE
  5
5E
102
{ACAD_REACTORS
330
47
102
}
330
47
100
AcDbScale
 70
     0
300
1/8" = 1'-0"
140
0.125
141
12.0
290
     0
  0
SCALE
  5
5F
102
{ACAD_REACTORS
330
47
102
}
330
47
100
AcDbScale
 70
     0
300
3/16" = 1'-0"
140
0.1875
141
12.0
290
     0
  0
SCALE
  5
60
102
{ACAD_REACTORS
330
47
102
}
330
47
100
AcDbScale
 70
     0
300
1/4" = 1'-0"
140
0.25
141
12.0
290
     0
  0
SCALE
  5
61
102
{ACAD_REACTORS
330
47
102
}
330
47
100
AcDbScale
 70
     0
300
3/8" = 1'-0"
140
0.375
141
12.0
290
     0
  0
SCALE
  5
62
102
{ACAD_REACTORS
330
47
102
}
330
47
100
AcDbScale
 70
     0
300
1/2" = 1'-0"
140
0.5
141
12.0
290
     0
  0
SCALE
  5
63
102
{ACAD_REACTORS
330
47
102
}
330
47
100
AcDbScale
 70
     0
300
3/4" = 1'-0"
140
0.75
141
12.0
290
     0
  0
SCALE
  5
64
102
{ACAD_REACTORS
330
47
102
}
330
47
100
AcDbScale
 70
     0
300
1" = 1'-0"
140
1.0
141
12.0
290
     0
  0
SCALE
  5
65
102
{ACAD_REACTORS
330
47
102
}
330
47
100
AcDbScale
 70
     0
300
1-1/2" = 1'-0"
140
1.5
141
12.0
290
     0
  0
SCALE
  5
66
102
{ACAD_REACTORS
330
47
102
}
330
47
100
AcDbScale
 70
     0
300
3" = 1'-0"
140
3.0
141
12.0
290
     0
  0
SCALE
  5
67
102
{ACAD_REACTORS
330
47
102
}
330
47
100
AcDbScale
 70
     0
300
6" = 1'-0"
140
6.0
141
12.0
290
     0
  0
SCALE
  5
68
102
{ACAD_REACTORS
330
47
102
}
330
47
100
AcDbScale
 70
     0
300
1'-0" = 1'-0"
140
12.0
141
12.0
290
     0
  0
TABLESTYLE
  5
6A
102
{ACAD_REACTORS
330
69
102
}
102
{ACAD_XDICTIONARY
360
228
102
}
330
69
100
AcDbTableStyle
  3
Standard
 70
     0
 71
     0
 40
0.06
 41
0.06
280
     0
281
     0
  7
Standard
140
0.18
170
     2
 62
     0
 63
   257
283
     0
 90
        4
 91
        0
  1

274
    -2
284
     1
 64
     0
275
    -2
285
     1
 65
     0
276
    -2
286
     1
 66
     0
277
    -2
287
     1
 67
     0
278
    -2
288
     1
 68
     0
279
    -2
289
     1
 69
     0
  7
Standard
140
0.25
170
     5
 62
     0
 63
   257
283
     0
 90
        4
 91
        0
  1

274
    -2
284
     1
 64
     0
275
    -2
285
     1
 65
     0
276
    -2
286
     1
 66
     0
277
    -2
287
     1
 67
     0
278
    -2
288
     1
 68
     0
279
    -2
289
     1
 69
     0
  7
Standard
140
0.18
170
     5
 62
     0
 63
   257
283
     0
 90
        4
 91
        0
  1

274
    -2
284
     1
 64
     0
275
    -2
285
     1
 65
     0
276
    -2
286
     1
 66
     0
277
    -2
287
     1
 67
     0
278
    -2
288
     1
 68
     0
279
    -2
289
     1
 69
     0
  0
VISUALSTYLE
  5
2F
102
{ACAD_REACTORS
330
2A
102
}
330
2A
100
AcDbVisualStyle
  2
2dWireframe
 70
     4
177
     3
291
     0
 70
    58
 90
        0
176
     1
 90
        2
176
     1
 90
        0
176
     1
 90
        0
176
     1
 40
0.6
176
     1
 40
30.0
176
     1
 62
     7
420
 16777215
176
     1
 90
        1
176
     1
 90
        4
176
     1
 62
     7
176
     1
 62
   257
176
     1
 90
        1
176
     1
 90
        1
176
     1
 40
1.0
176
     1
 90
        0
176
     1
 62
   257
176
     1
 40
1.0
176
     1
 90
        1
176
     1
 90
        6
176
     1
 90
        2
176
     1
 62
     7
176
     1
 90
        5
176
     1
 90
        0
176
     1
 90
        0
176
     1
290
     0
176
     1
 90
        1
176
     1
 40
0.0
176
     1
 90
        0
176
     1
290
     1
176
     1
290
     1
176
     1
290
     0
176
     1
290
     0
176
     1
290
     0
176
     1
290
     0
176
     1
290
     0
176
     1
290
     0
176
     1
290
     0
176
     1
 90
       50
176
     1
 40
0.0
176
     1
 40
1.0
176
     1
 90
        0
176
     1
 62
    18
420
        0
176
     1
 90
       50
176
     1
 90
        3
176
     1
 62
     5
420
      255
176
     1
290
     0
176
     1
 90
       50
176
     1
 90
       50
176
     1
 90
       50
176
     1
290
     0
176
     1
 90
       50
176
     1
 62
   256
176
     0
 40
1.0
176
     0
 90
        2
176
     1
  1
strokes_ogs.tif
176
     1
290
     0
176
     1
 40
1.0
176
     1
 40
1.0
176
     1
  0
VISUALSTYLE
  5
32
102
{ACAD_REACTORS
330
2A
102
}
330
2A
100
AcDbVisualStyle
  2
Basic
 70
     7
177
     3
291
     1
 70
    58
 90
        1
176
     1
 90
        0
176
     1
 90
        1
176
     1
 90
        0
176
     1
 40
0.6
176
     1
 40
30.0
176
     1
 62
     7
420
 16777215
176
     1
 90
        0
176
     1
 90
        4
176
     1
 62
     7
176
     1
 62
   257
176
     1
 90
        1
176
     1
 90
        1
176
     1
 40
1.0
176
     1
 90
        8
176
     1
 62
     7
176
     1
 40
1.0
176
     1
 90
        1
176
     1
 90
        6
176
     1
 90
        2
176
     1
 62
     7
176
     1
 90
        5
176
     1
 90
        0
176
     1
 90
        0
176
     1
290
     0
176
     1
 90
        1
176
     1
 40
0.0
176
     1
 90
        0
176
     1
290
     0
176
     1
290
     1
176
     1
290
     1
176
     1
290
     0
176
     1
290
     0
176
     1
290
     0
176
     1
290
     0
176
     1
290
     0
176
     1
290
     0
176
     1
 90
       50
176
     1
 40
0.0
176
     1
 40
1.0
176
     1
 90
        0
176
     1
 62
    18
420
        0
176
     1
 90
       50
176
     1
 90
        3
176
     1
 62
     5
420
      255
176
     1
290
     0
176
     1
 90
       50
176
     1
 90
       50
176
     1
 90
       50
176
     1
290
     0
176
     1
 90
       50
176
     1
 62
   256
176
     0
 40
1.0
176
     0
 90
        2
176
     1
  1
strokes_ogs.tif
176
     1
290
     0
176
     1
 40
1.0
176
     1
 40
1.0
176
     1
  0
VISUALSTYLE
  5
36
102
{ACAD_REACTORS
330
2A
102
}
330
2A
100
AcDbVisualStyle
  2
Brighten
 70
    12
177
     3
291
     1
 70
    58
 90
        2
176
     1
 90
        2
176
     1
 90
        0
176
     1
 90
        0
176
     1
 40
0.6
176
     1
 40
30.0
176
     1
 62
     7
420
 16777215
176
     1
 90
        1
176
     1
 90
        4
176
     1
 62
     7
176
     1
 62
   257
176
     1
 90
        1
176
     1
 90
        1
176
     1
 40
1.0
176
     1
 90
        8
176
     1
 62
     7
176
     1
 40
1.0
176
     1
 90
        1
176
     1
 90
        6
176
     1
 90
        2
176
     1
 62
     7
176
     1
 90
        5
176
     1
 90
        0
176
     1
 90
        0
176
     1
290
     0
176
     1
 90
        1
176
     1
 40
50.0
176
     1
 90
        0
176
     1
290
     0
176
     1
290
     1
176
     1
290
     1
176
     1
290
     0
176
     1
290
     0
176
     1
290
     0
176
     1
290
     0
176
     1
290
     0
176
     1
290
     0
176
     1
 90
       50
176
     1
 40
0.0
176
     1
 40
1.0
176
     1
 90
        0
176
     1
 62
    18
420
        0
176
     1
 90
       50
176
     1
 90
        3
176
     1
 62
     5
420
      255
176
     1
290
     0
176
     1
 90
       50
176
     1
 90
       50
176
     1
 90
       50
176
     1
290
     0
176
     1
 90
       50
176
     1
 62
   256
176
     0
 40
1.0
176
     0
 90
        2
176
     1
  1
strokes_ogs.tif
176
     1
290
     0
176
     1
 40
1.0
176
     1
 40
1.0
176
     1
  0
VISUALSTYLE
  5
3A
102
{ACAD_REACTORS
330
2A
102
}
330
2A
100
AcDbVisualStyle
  2
ColorChange
 70
    16
177
     3
291
     1
 70
    58
 90
        2
176
     1
 90
        2
176
     1
 90
        3
176
     1
 90
        0
176
     1
 40
0.6
176
     1
 40
30.0
176
     1
 62
     8
420
  8421504
176
     1
 90
        1
176
     1
 90
        4
176
     1
 62
     7
176
     1
 62
   257
176
     1
 90
        1
176
     1
 90
        1
176
     1
 40
1.0
176
     1
 90
        8
176
     1
 62
     8
420
  8421504
176
     1
 40
1.0
176
     1
 90
        1
176
     1
 90
        6
176
     1
 90
        2
176
     1
 62
     7
176
     1
 90
        5
176
     1
 90
        0
176
     1
 90
        0
176
     1
290
     0
176
     1
 90
        1
176
     1
 40
0.0
176
     1
 90
        0
176
     1
290
     0
176
     1
290
     1
176
     1
290
     1
176
     1
290
     0
176
     1
290
     0
176
     1
290
     0
176
     1
290
     0
176
     1
290
     0
176
     1
290
     0
176
     1
 90
       50
176
     1
 40
0.0
176
     1
 40
1.0
176
     1
 90
        0
176
     1
 62
    18
420
        0
176
     1
 90
       50
176
     1
 90
        3
176
     1
 62
     5
420
      255
176
     1
290
     0
176
     1
 90
       50
176
     1
 90
       50
176
     1
 90
       50
176
     1
290
     0
176
     1
 90
       50
176
     1
 62
   256
176
     0
 40
1.0
176
     0
 90
        2
176
     1
  1
strokes_ogs.tif
176
     1
290
     0
176
     1
 40
1.0
176
     1
 40
1.0
176
     1
  0
VISUALSTYLE
  5
34
102
{ACAD_REACTORS
330
2A
102
}
330
2A
100
AcDbVisualStyle
  2
Conceptual
 70
     9
177
     3
291
     0
 70
    58
 90
        3
176
     1
 90
        2
176
     1
 90
        0
176
     1
 90
        0
176
     1
 40
0.6
176
     1
 40
30.0
176
     1
 62
     7
420
 16777215
176
     1
 90
        2
176
     1
 90
        2
176
     1
 62
     7
176
     1
 62
   257
176
     1
 90
        1
176
     1
 90
        1
176
     1
 40
179.0
176
     1
 90
        8
176
     1
 62
     7
176
     1
 40
1.0
176
     1
 90
        1
176
     1
 90
        6
176
     1
 90
        2
176
     1
 62
     7
176
     1
 90
        3
176
     1
 90
        0
176
     1
 90
        0
176
     1
290
     0
176
     1
 90
        1
176
     1
 40
0.0
176
     1
 90
        0
176
     1
290
     0
176
     1
290
     1
176
     1
290
     1
176
     1
290
     0
176
     1
290
     0
176
     1
290
     0
176
     1
290
     0
176
     1
290
     0
176
     1
290
     0
176
     1
 90
       50
176
     1
 40
0.0
176
     1
 40
1.0
176
     1
 90
        0
176
     1
 62
    18
420
        0
176
     1
 90
       50
176
     1
 90
        3
176
     1
 62
     5
420
      255
176
     1
290
     0
176
     1
 90
       50
176
     1
 90
       50
176
     1
 90
       50
176
     1
290
     0
176
     1
 90
       50
176
     1
 62
   256
176
     0
 40
1.0
176
     0
 90
        2
176
     1
  1
strokes_ogs.tif
176
     1
290
     0
176
     1
 40
1.0
176
     1
 40
1.0
176
     1
  0
VISUALSTYLE
  5
35
102
{ACAD_REACTORS
330
2A
102
}
330
2A
100
AcDbVisualStyle
  2
Dim
 70
    11
177
     3
291
     1
 70
    58
 90
        2
176
     1
 90
        2
176
     1
 90
        0
176
     1
 90
        0
176
     1
 40
0.6
176
     1
 40
30.0
176
     1
 62
     7
420
 16777215
176
     1
 90
        1
176
     1
 90
        4
176
     1
 62
     7
176
     1
 62
   257
176
     1
 90
        1
176
     1
 90
        1
176
     1
 40
1.0
176
     1
 90
        8
176
     1
 62
     7
176
     1
 40
1.0
176
     1
 90
        1
176
     1
 90
        6
176
     1
 90
        2
176
     1
 62
     7
176
     1
 90
        5
176
     1
 90
        0
176
     1
 90
        0
176
     1
290
     0
176
     1
 90
        1
176
     1
 40
-50.0
176
     1
 90
        0
176
     1
290
     0
176
     1
290
     1
176
     1
290
     1
176
     1
290
     0
176
     1
290
     0
176
     1
290
     0
176
     1
290
     0
176
     1
290
     0
176
     1
290
     0
176
     1
 90
       50
176
     1
 40
0.0
176
     1
 40
1.0
176
     1
 90
        0
176
     1
 62
    18
420
        0
176
     1
 90
       50
176
     1
 90
        3
176
     1
 62
     5
420
      255
176
     1
290
     0
176
     1
 90
       50
176
     1
 90
       50
176
     1
 90
       50
176
     1
290
     0
176
     1
 90
       50
176
     1
 62
   256
176
     0
 40
1.0
176
     0
 90
        2
176
     1
  1
strokes_ogs.tif
176
     1
290
     0
176
     1
 40
1.0
176
     1
 40
1.0
176
     1
  0
VISUALSTYLE
  5
3D
102
{ACAD_REACTORS
330
2A
102
}
330
2A
100
AcDbVisualStyle
  2
EdgeColorOff
 70
    22
177
     3
291
     1
 70
    58
 90
        2
176
     0
 90
        2
176
     0
 90
        0
176
     0
 90
        0
176
     0
 40
0.6
176
     0
 40
30.0
176
     0
 62
     7
420
 16777215
176
     0
 90
        1
176
     0
 90
        4
176
     0
 62
     7
176
     0
 62
   257
176
     0
 90
        1
176
     0
 90
        1
176
     0
 40
1.0
176
     0
 90
        8
176
     2
 62
     7
176
     0
 40
1.0
176
     0
 90
        1
176
     0
 90
        6
176
     0
 90
        2
176
     0
 62
     7
176
     0
 90
        5
176
     0
 90
        0
176
     0
 90
        0
176
     0
290
     0
176
     0
 90
        1
176
     0
 40
0.0
176
     0
 90
        0
176
     0
290
     0
176
     0
290
     1
176
     0
290
     1
176
     0
290
     0
176
     0
290
     0
176
     0
290
     0
176
     0
290
     0
176
     0
290
     0
176
     0
290
     0
176
     0
 90
       50
176
     0
 40
0.0
176
     0
 40
1.0
176
     0
 90
        0
176
     0
 62
    18
420
        0
176
     0
 90
       50
176
     0
 90
        3
176
     0
 62
     5
420
      255
176
     0
290
     0
176
     0
 90
       50
176
     0
 90
       50
176
     0
 90
       50
176
     0
290
     0
176
     0
 90
       50
176
     0
 62
   256
176
     0
 40
1.0
176
     0
 90
        2
176
     0
  1
strokes_ogs.tif
176
     0
290
     0
176
     0
 40
1.0
176
     0
 40
1.0
176
     0
  0
VISUALSTYLE
  5
39
102
{ACAD_REACTORS
330
2A
102
}
330
2A
100
AcDbVisualStyle
  2
Facepattern
 70
    15
177
     3
291
     1
 70
    58
 90
        2
176
     1
 90
        2
176
     1
 90
        0
176
     1
 90
        0
176
     1
 40
0.6
176
     1
 40
30.0
176
     1
 62
     7
420
 16777215
176
     1
 90
        1
176
     1
 90
        4
176
     1
 62
     7
176
     1
 62
   257
176
     1
 90
        1
176
     1
 90
        1
176
     1
 40
1.0
176
     1
 90
        8
176
     1
 62
     7
176
     1
 40
1.0
176
     1
 90
        1
176
     1
 90
        6
176
     1
 90
        2
176
     1
 62
     7
176
     1
 90
        5
176
     1
 90
        0
176
     1
 90
        0
176
     1
290
     0
176
     1
 90
        1
176
     1
 40
0.0
176
     1
 90
        0
176
     1
290
     0
176
     1
290
     1
176
     1
290
     1
176
     1
290
     0
176
     1
290
     0
176
     1
290
     0
176
     1
290
     0
176
     1
290
     0
176
     1
290
     0
176
     1
 90
       50
176
     1
 40
0.0
176
     1
 40
1.0
176
     1
 90
        0
176
     1
 62
    18
420
        0
176
     1
 90
       50
176
     1
 90
        3
176
     1
 62
     5
420
      255
176
     1
290
     0
176
     1
 90
       50
176
     1
 90
       50
176
     1
 90
       50
176
     1
290
     0
176
     1
 90
       50
176
     1
 62
   256
176
     0
 40
1.0
176
     0
 90
        2
176
     1
  1
strokes_ogs.tif
176
     1
290
     0
176
     1
 40
1.0
176
     1
 40
1.0
176
     1
  0
VISUALSTYLE
  5
2B
102
{ACAD_REACTORS
330
2A
102
}
330
2A
100
AcDbVisualStyle
  2
Flat
 70
     0
177
     3
291
     1
 70
    58
 90
        2
176
     1
 90
        1
176
     1
 90
        1
176
     1
 90
        2
176
     1
 40
0.6
176
     1
 40
30.0
176
     1
 62
     7
420
 16777215
176
     1
 90
        0
176
     1
 90
        0
176
     1
 62
     7
176
     1
 62
   257
176
     1
 90
        1
176
     1
 90
        1
176
     1
 40
1.0
176
     1
 90
        8
176
     1
 62
     7
176
     1
 40
1.0
176
     1
 90
        1
176
     1
 90
        6
176
     1
 90
        2
176
     1
 62
     7
176
     1
 90
        5
176
     1
 90
        0
176
     1
 90
        0
176
     1
290
     0
176
     1
 90
       13
176
     1
 40
0.0
176
     1
 90
        0
176
     1
290
     0
176
     1
290
     1
176
     1
290
     1
176
     1
290
     0
176
     1
290
     0
176
     1
290
     0
176
     1
290
     0
176
     1
290
     0
176
     1
290
     0
176
     1
 90
       50
176
     1
 40
0.0
176
     1
 40
1.0
176
     1
 90
        0
176
     1
 62
    18
420
        0
176
     1
 90
       50
176
     1
 90
        3
176
     1
 62
     5
420
      255
176
     1
290
     0
176
     1
 90
       50
176
     1
 90
       50
176
     1
 90
       50
176
     1
290
     0
176
     1
 90
       50
176
     1
 62
   256
176
     0
 40
1.0
176
     0
 90
        2
176
     1
  1
strokes_ogs.tif
176
     1
290
     0
176
     1
 40
1.0
176
     1
 40
1.0
176
     1
  0
VISUALSTYLE
  5
2C
102
{ACAD_REACTORS
330
2A
102
}
330
2A
100
AcDbVisualStyle
  2
FlatWithEdges
 70
     1
177
     3
291
     1
 70
    58
 90
        2
176
     1
 90
        1
176
     1
 90
        1
176
     1
 90
        2
176
     1
 40
0.6
176
     1
 40
30.0
176
     1
 62
     7
420
 16777215
176
     1
 90
        1
176
     1
 90
        0
176
     1
 62
     7
176
     1
 62
   257
176
     1
 90
        1
176
     1
 90
        1
176
     1
 40
1.0
176
     1
 90
        0
176
     1
 62
   257
176
     1
 40
1.0
176
     1
 90
        1
176
     1
 90
        6
176
     1
 90
        2
176
     1
 62
     7
176
     1
 90
        5
176
     1
 90
        0
176
     1
 90
        0
176
     1
290
     0
176
     1
 90
       13
176
     1
 40
0.0
176
     1
 90
        0
176
     1
290
     0
176
     1
290
     1
176
     1
290
     1
176
     1
290
     0
176
     1
290
     0
176
     1
290
     0
176
     1
290
     0
176
     1
290
     0
176
     1
290
     0
176
     1
 90
       50
176
     1
 40
0.0
176
     1
 40
1.0
176
     1
 90
        0
176
     1
 62
    18
420
        0
176
     1
 90
       50
176
     1
 90
        3
176
     1
 62
     5
420
      255
176
     1
290
     0
176
     1
 90
       50
176
     1
 90
       50
176
     1
 90
       50
176
     1
290
     0
176
     1
 90
       50
176
     1
 62
   256
176
     0
 40
1.0
176
     0
 90
        2
176
     1
  1
strokes_ogs.tif
176
     1
290
     0
176
     1
 40
1.0
176
     1
 40
1.0
176
     1
  0
VISUALSTYLE
  5
2D
102
{ACAD_REACTORS
330
2A
102
}
330
2A
100
AcDbVisualStyle
  2
Gouraud
 70
     2
177
     3
291
     1
 70
    58
 90
        2
176
     1
 90
        2
176
     1
 90
        1
176
     1
 90
        2
176
     1
 40
0.6
176
     1
 40
30.0
176
     1
 62
     7
420
 16777215
176
     1
 90
        0
176
     1
 90
        0
176
     1
 62
     7
176
     1
 62
   257
176
     1
 90
        1
176
     1
 90
        1
176
     1
 40
1.0
176
     1
 90
        0
176
     1
 62
     7
176
     1
 40
1.0
176
     1
 90
        1
176
     1
 90
        6
176
     1
 90
        2
176
     1
 62
     7
176
     1
 90
        5
176
     1
 90
        0
176
     1
 90
        0
176
     1
290
     0
176
     1
 90
       13
176
     1
 40
0.0
176
     1
 90
        0
176
     1
290
     0
176
     1
290
     1
176
     1
290
     1
176
     1
290
     0
176
     1
290
     0
176
     1
290
     0
176
     1
290
     0
176
     1
290
     0
176
     1
290
     0
176
     1
 90
       50
176
     1
 40
0.0
176
     1
 40
1.0
176
     1
 90
        0
176
     1
 62
    18
420
        0
176
     1
 90
       50
176
     1
 90
        3
176
     1
 62
     5
420
      255
176
     1
290
     0
176
     1
 90
       50
176
     1
 90
       50
176
     1
 90
       50
176
     1
290
     0
176
     1
 90
       50
176
     1
 62
   256
176
     0
 40
1.0
176
     0
 90
        2
176
     1
  1
strokes_ogs.tif
176
     1
290
     0
176
     1
 40
1.0
176
     1
 40
1.0
176
     1
  0
VISUALSTYLE
  5
2E
102
{ACAD_REACTORS
330
2A
102
}
330
2A
100
AcDbVisualStyle
  2
GouraudWithEdges
 70
     3
177
     3
291
     1
 70
    58
 90
        2
176
     1
 90
        2
176
     1
 90
        1
176
     1
 90
        2
176
     1
 40
0.6
176
     1
 40
30.0
176
     1
 62
     7
420
 16777215
176
     1
 90
        1
176
     1
 90
        0
176
     1
 62
     7
176
     1
 62
   257
176
     1
 90
        1
176
     1
 90
        1
176
     1
 40
1.0
176
     1
 90
        0
176
     1
 62
   257
176
     1
 40
1.0
176
     1
 90
        1
176
     1
 90
        6
176
     1
 90
        2
176
     1
 62
     7
176
     1
 90
        5
176
     1
 90
        0
176
     1
 90
        0
176
     1
290
     0
176
     1
 90
       13
176
     1
 40
0.0
176
     1
 90
        0
176
     1
290
     0
176
     1
290
     1
176
     1
290
     1
176
     1
290
     0
176
     1
290
     0
176
     1
290
     0
176
     1
290
     0
176
     1
290
     0
176
     1
290
     0
176
     1
 90
       50
176
     1
 40
0.0
176
     1
 40
1.0
176
     1
 90
        0
176
     1
 62
    18
420
        0
176
     1
 90
       50
176
     1
 90
        3
176
     1
 62
     5
420
      255
176
     1
290
     0
176
     1
 90
       50
176
     1
 90
       50
176
     1
 90
       50
176
     1
290
     0
176
     1
 90
       50
176
     1
 62
   256
176
     0
 40
1.0
176
     0
 90
        2
176
     1
  1
strokes_ogs.tif
176
     1
290
     0
176
     1
 40
1.0
176
     1
 40
1.0
176
     1
  0
VISUALSTYLE
  5
31
102
{ACAD_REACTORS
330
2A
102
}
330
2A
100
AcDbVisualStyle
  2
Hidden
 70
     6
177
     3
291
     0
 70
    58
 90
        1
176
     1
 90
        2
176
     1
 90
        2
176
     1
 90
        0
176
     1
 40
0.6
176
     1
 40
30.0
176
     1
 62
     7
420
 16777215
176
     1
 90
        2
176
     1
 90
        2
176
     1
 62
     7
176
     1
 62
   257
176
     1
 90
        2
176
     1
 90
        1
176
     1
 40
40.0
176
     1
 90
        0
176
     1
 62
   257
176
     1
 40
1.0
176
     1
 90
        1
176
     1
 90
        6
176
     1
 90
        2
176
     1
 62
     7
176
     1
 90
        3
176
     1
 90
        0
176
     1
 90
        0
176
     1
290
     0
176
     1
 90
        1
176
     1
 40
0.0
176
     1
 90
        0
176
     1
290
     0
176
     1
290
     1
176
     1
290
     1
176
     1
290
     0
176
     1
290
     0
176
     1
290
     0
176
     1
290
     0
176
     1
290
     0
176
     1
290
     0
176
     1
 90
       50
176
     1
 40
0.0
176
     1
 40
1.0
176
     1
 90
        0
176
     1
 62
    18
420
        0
176
     1
 90
       50
176
     1
 90
        3
176
     1
 62
     5
420
      255
176
     1
290
     0
176
     1
 90
       50
176
     1
 90
       50
176
     1
 90
       50
176
     1
290
     0
176
     1
 90
       50
176
     1
 62
   256
176
     0
 40
1.0
176
     0
 90
        2
176
     1
  1
strokes_ogs.tif
176
     1
290
     0
176
     1
 40
1.0
176
     1
 40
1.0
176
     1
  0
VISUALSTYLE
  5
3B
102
{ACAD_REACTORS
330
2A
102
}
330
2A
100
AcDbVisualStyle
  2
JitterOff
 70
    20
177
     3
291
     1
 70
    58
 90
        2
176
     0
 90
        2
176
     0
 90
        0
176
     0
 90
        0
176
     0
 40
0.6
176
     0
 40
30.0
176
     0
 62
     7
420
 16777215
176
     0
 90
        1
176
     0
 90
        4
176
     0
 62
     7
176
     0
 62
   257
176
     0
 90
        1
176
     0
 90
        1
176
     0
 40
1.0
176
     0
 90
       10
176
     2
 62
     7
176
     0
 40
1.0
176
     0
 90
        1
176
     0
 90
        6
176
     0
 90
        2
176
     0
 62
     7
176
     0
 90
        5
176
     0
 90
        0
176
     0
 90
        0
176
     0
290
     0
176
     0
 90
        1
176
     0
 40
0.0
176
     0
 90
        0
176
     0
290
     0
176
     0
290
     1
176
     0
290
     1
176
     0
290
     0
176
     0
290
     0
176
     0
290
     0
176
     0
290
     0
176
     0
290
     0
176
     0
290
     0
176
     0
 90
       50
176
     0
 40
0.0
176
     0
 40
1.0
176
     0
 90
        0
176
     0
 62
    18
420
        0
176
     0
 90
       50
176
     0
 90
        3
176
     0
 62
     5
420
      255
176
     0
290
     0
176
     0
 90
       50
176
     0
 90
       50
176
     0
 90
       50
176
     0
290
     0
176
     0
 90
       50
176
     0
 62
   256
176
     0
 40
1.0
176
     0
 90
        2
176
     0
  1
strokes_ogs.tif
176
     0
290
     0
176
     0
 40
1.0
176
     0
 40
1.0
176
     0
  0
VISUALSTYLE
  5
38
102
{ACAD_REACTORS
330
2A
102
}
330
2A
100
AcDbVisualStyle
  2
Linepattern
 70
    14
177
     3
291
     1
 70
    58
 90
        2
176
     1
 90
        2
176
     1
 90
        0
176
     1
 90
        0
176
     1
 40
0.6
176
     1
 40
30.0
176
     1
 62
     7
420
 16777215
176
     1
 90
        1
176
     1
 90
        4
176
     1
 62
     7
176
     1
 62
   257
176
     1
 90
        7
176
     1
 90
        7
176
     1
 40
1.0
176
     1
 90
        8
176
     1
 62
     7
176
     1
 40
1.0
176
     1
 90
        1
176
     1
 90
        6
176
     1
 90
        2
176
     1
 62
     7
176
     1
 90
        5
176
     1
 90
        0
176
     1
 90
        0
176
     1
290
     0
176
     1
 90
        1
176
     1
 40
0.0
176
     1
 90
        0
176
     1
290
     0
176
     1
290
     1
176
     1
290
     1
176
     1
290
     0
176
     1
290
     0
176
     1
290
     0
176
     1
290
     0
176
     1
290
     0
176
     1
290
     0
176
     1
 90
       50
176
     1
 40
0.0
176
     1
 40
1.0
176
     1
 90
        0
176
     1
 62
    18
420
        0
176
     1
 90
       50
176
     1
 90
        3
176
     1
 62
     5
420
      255
176
     1
290
     0
176
     1
 90
       50
176
     1
 90
       50
176
     1
 90
       50
176
     1
290
     0
176
     1
 90
       50
176
     1
 62
   256
176
     0
 40
1.0
176
     0
 90
        2
176
     1
  1
strokes_ogs.tif
176
     1
290
     0
176
     1
 40
1.0
176
     1
 40
1.0
176
     1
  0
VISUALSTYLE
  5
3C
102
{ACAD_REACTORS
330
2A
102
}
330
2A
100
AcDbVisualStyle
  2
OverhangOff
 70
    21
177
     3
291
     1
 70
    58
 90
        2
176
     0
 90
        2
176
     0
 90
        0
176
     0
 90
        0
176
     0
 40
0.6
176
     0
 40
30.0
176
     0
 62
     7
420
 16777215
176
     0
 90
        1
176
     0
 90
        4
176
     0
 62
     7
176
     0
 62
   257
176
     0
 90
        1
176
     0
 90
        1
176
     0
 40
1.0
176
     0
 90
        9
176
     2
 62
     7
176
     0
 40
1.0
176
     0
 90
        1
176
     0
 90
        6
176
     0
 90
        2
176
     0
 62
     7
176
     0
 90
        5
176
     0
 90
        0
176
     0
 90
        0
176
     0
290
     0
176
     0
 90
        1
176
     0
 40
0.0
176
     0
 90
        0
176
     0
290
     0
176
     0
290
     1
176
     0
290
     1
176
     0
290
     0
176
     0
290
     0
176
     0
290
     0
176
     0
290
     0
176
     0
290
     0
176
     0
290
     0
176
     0
 90
       50
176
     0
 40
0.0
176
     0
 40
1.0
176
     0
 90
        0
176
     0
 62
    18
420
        0
176
     0
 90
       50
176
     0
 90
        3
176
     0
 62
     5
420
      255
176
     0
290
     0
176
     0
 90
       50
176
     0
 90
       50
176
     0
 90
       50
176
     0
290
     0
176
     0
 90
       50
176
     0
 62
   256
176
     0
 40
1.0
176
     0
 90
        2
176
     0
  1
strokes_ogs.tif
176
     0
290
     0
176
     0
 40
1.0
176
     0
 40
1.0
176
     0
  0
VISUALSTYLE
  5
33
102
{ACAD_REACTORS
330
2A
102
}
330
2A
100
AcDbVisualStyle
  2
Realistic
 70
     8
177
     3
291
     0
 70
    58
 90
        2
176
     1
 90
        3
176
     1
 90
        0
176
     1
 90
        2
176
     1
 40
0.6
176
     1
 40
30.0
176
     1
 62
     7
420
 16777215
176
     1
 90
        0
176
     1
 90
        0
176
     1
 62
     7
176
     1
 62
   257
176
     1
 90
        1
176
     1
 90
        1
176
     1
 40
1.0
176
     1
 90
        8
176
     1
 62
   257
176
     1
 40
1.0
176
     1
 90
        1
176
     1
 90
        6
176
     1
 90
        2
176
     1
 62
     7
176
     1
 90
        3
176
     1
 90
        0
176
     1
 90
        0
176
     1
290
     0
176
     1
 90
       13
176
     1
 40
0.0
176
     1
 90
        0
176
     1
290
     0
176
     1
290
     1
176
     1
290
     1
176
     1
290
     0
176
     1
290
     0
176
     1
290
     0
176
     1
290
     0
176
     1
290
     0
176
     1
290
     0
176
     1
 90
       50
176
     1
 40
0.0
176
     1
 40
1.0
176
     1
 90
        0
176
     1
 62
    18
420
        0
176
     1
 90
       50
176
     1
 90
        3
176
     1
 62
     5
420
      255
176
     1
290
     0
176
     1
 90
       50
176
     1
 90
       50
176
     1
 90
       50
176
     1
290
     0
176
     1
 90
       50
176
     1
 62
   256
176
     0
 40
1.0
176
     0
 90
        2
176
     1
  1
strokes_ogs.tif
176
     1
290
     0
176
     1
 40
1.0
176
     1
 40
1.0
176
     1
  0
VISUALSTYLE
  5
42
102
{ACAD_REACTORS
330
2A
102
}
330
2A
100
AcDbVisualStyle
  2
Shaded
 70
    27
177
     3
291
     0
 70
    58
 90
        2
176
     1
 90
        2
176
     1
 90
        1
176
     1
 90
        2
176
     1
 40
0.6
176
     1
 40
30.0
176
     1
 62
     7
420
 16777215
176
     1
 90
        0
176
     1
 90
        4
176
     1
 62
     7
176
     1
 62
   257
176
     1
 90
        1
176
     1
 90
        1
176
     1
 40
1.0
176
     1
 90
        8
176
     1
 62
   257
176
     1
 40
1.0
176
     1
 90
        1
176
     1
 90
        6
176
     1
 90
        2
176
     1
 62
     8
420
  7895160
176
     1
 90
        3
176
     1
 90
        0
176
     1
 90
        0
176
     1
290
     0
176
     1
 90
        5
176
     1
 40
0.0
176
     1
 90
        0
176
     1
290
     0
176
     1
290
     1
176
     1
290
     1
176
     1
290
     0
176
     1
290
     0
176
     1
290
     0
176
     1
290
     0
176
     1
290
     0
176
     1
290
     0
176
     1
 90
       50
176
     1
 40
0.0
176
     1
 40
1.0
176
     1
 90
        0
176
     1
 62
    18
420
        0
176
     1
 90
       50
176
     1
 90
        3
176
     1
 62
     5
420
      255
176
     1
290
     0
176
     1
 90
       50
176
     1
 90
       50
176
     1
 90
       50
176
     1
290
     0
176
     1
 90
       50
176
     1
 62
   256
176
     0
 40
1.0
176
     0
 90
        2
176
     1
  1
strokes_ogs.tif
176
     1
290
     0
176
     1
 40
1.0
176
     1
 40
1.0
176
     1
  0
VISUALSTYLE
  5
41
102
{ACAD_REACTORS
330
2A
102
}
330
2A
100
AcDbVisualStyle
  2
Shaded with edges
 70
    26
177
     3
291
     0
 70
    58
 90
        2
176
     1
 90
        2
176
     1
 90
        1
176
     1
 90
        2
176
     1
 40
0.6
176
     1
 40
30.0
176
     1
 62
     7
420
 16777215
176
     1
 90
        1
176
     1
 90
       10
176
     1
 62
     7
176
     1
 62
   257
176
     1
 90
        2
176
     1
 90
        1
176
     1
 40
1.0
176
     1
 90
        8
176
     1
 62
   257
176
     1
 40
1.0
176
     1
 90
        1
176
     1
 90
        6
176
     1
 90
        2
176
     1
 62
     7
176
     1
 90
        3
176
     1
 90
        0
176
     1
 90
        0
176
     1
290
     0
176
     1
 90
        5
176
     1
 40
0.0
176
     1
 90
        0
176
     1
290
     0
176
     1
290
     1
176
     1
290
     1
176
     1
290
     0
176
     1
290
     0
176
     1
290
     0
176
     1
290
     0
176
     1
290
     0
176
     1
290
     0
176
     1
 90
       50
176
     1
 40
0.0
176
     1
 40
1.0
176
     1
 90
        0
176
     1
 62
    18
420
        0
176
     1
 90
       50
176
     1
 90
        3
176
     1
 62
     5
420
      255
176
     1
290
     0
176
     1
 90
       50
176
     1
 90
       50
176
     1
 90
       50
176
     1
290
     0
176
     1
 90
       50
176
     1
 62
   256
176
     0
 40
1.0
176
     0
 90
        2
176
     1
  1
strokes_ogs.tif
176
     1
290
     0
176
     1
 40
1.0
176
     1
 40
1.0
176
     1
  0
VISUALSTYLE
  5
3E
102
{ACAD_REACTORS
330
2A
102
}
330
2A
100
AcDbVisualStyle
  2
Shades of Gray
 70
    23
177
     3
291
     0
 70
    58
 90
        2
176
     1
 90
        2
176
     1
 90
        3
176
     1
 90
        0
176
     1
 40
0.6
176
     1
 40
30.0
176
     1
 62
     7
420
 16777215
176
     1
 90
        2
176
     1
 90
        2
176
     1
 62
     7
176
     1
 62
     7
176
     1
 90
        1
176
     1
 90
        1
176
     1
 40
40.0
176
     1
 90
        8
176
     1
 62
     7
176
     1
 40
1.0
176
     1
 90
        1
176
     1
 90
        6
176
     1
 90
        2
176
     1
 62
     7
176
     1
 90
        3
176
     1
 90
        0
176
     1
 90
        0
176
     1
290
     0
176
     1
 90
        1
176
     1
 40
0.0
176
     1
 90
        0
176
     1
290
     0
176
     1
290
     1
176
     1
290
     1
176
     1
290
     0
176
     1
290
     0
176
     1
290
     0
176
     1
290
     0
176
     1
290
     0
176
     1
290
     0
176
     1
 90
       50
176
     1
 40
0.0
176
     1
 40
1.0
176
     1
 90
        0
176
     1
 62
    18
420
        0
176
     1
 90
       50
176
     1
 90
        3
176
     1
 62
     5
420
      255
176
     1
290
     0
176
     1
 90
       50
176
     1
 90
       50
176
     1
 90
       50
176
     1
290
     0
176
     1
 90
       50
176
     1
 62
   256
176
     0
 40
1.0
176
     0
 90
        2
176
     1
  1
strokes_ogs.tif
176
     1
290
     0
176
     1
 40
1.0
176
     1
 40
1.0
176
     1
  0
VISUALSTYLE
  5
3F
102
{ACAD_REACTORS
330
2A
102
}
330
2A
100
AcDbVisualStyle
  2
Sketchy
 70
    24
177
     3
291
     0
 70
    58
 90
        1
176
     1
 90
        2
176
     1
 90
        2
176
     1
 90
        0
176
     1
 40
0.6
176
     1
 40
30.0
176
     1
 62
     7
420
 16777215
176
     1
 90
        2
176
     1
 90
        2
176
     1
 62
     7
176
     1
 62
     7
176
     1
 90
        1
176
     1
 90
        1
176
     1
 40
40.0
176
     1
 90
       11
176
     1
 62
     7
176
     1
 40
1.0
176
     1
 90
        1
176
     1
 90
        6
176
     1
 90
        2
176
     1
 62
     7
176
     1
 90
        6
176
     1
 90
        0
176
     1
 90
        0
176
     1
290
     0
176
     1
 90
        1
176
     1
 40
0.0
176
     1
 90
        0
176
     1
290
     0
176
     1
290
     1
176
     1
290
     1
176
     1
290
     0
176
     1
290
     0
176
     1
290
     0
176
     1
290
     0
176
     1
290
     0
176
     1
290
     0
176
     1
 90
       50
176
     1
 40
0.0
176
     1
 40
1.0
176
     1
 90
        0
176
     1
 62
    18
420
        0
176
     1
 90
       50
176
     1
 90
        3
176
     1
 62
     5
420
      255
176
     1
290
     0
176
     1
 90
       50
176
     1
 90
       50
176
     1
 90
       50
176
     1
290
     0
176
     1
 90
       50
176
     1
 62
   256
176
     0
 40
1.0
176
     0
 90
        2
176
     1
  1
strokes_ogs.tif
176
     1
290
     0
176
     1
 40
1.0
176
     1
 40
1.0
176
     1
  0
VISUALSTYLE
  5
37
102
{ACAD_REACTORS
330
2A
102
}
330
2A
100
AcDbVisualStyle
  2
Thicken
 70
    13
177
     3
291
     1
 70
    58
 90
        2
176
     1
 90
        2
176
     1
 90
        0
176
     1
 90
        0
176
     1
 40
0.6
176
     1
 40
30.0
176
     1
 62
     7
420
 16777215
176
     1
 90
        1
176
     1
 90
        4
176
     1
 62
     7
176
     1
 62
   257
176
     1
 90
        1
176
     1
 90
        1
176
     1
 40
1.0
176
     1
 90
       12
176
     1
 62
     7
176
     1
 40
1.0
176
     1
 90
        1
176
     1
 90
        6
176
     1
 90
        2
176
     1
 62
     7
176
     1
 90
        5
176
     1
 90
        0
176
     1
 90
        0
176
     1
290
     0
176
     1
 90
        1
176
     1
 40
0.0
176
     1
 90
        0
176
     1
290
     0
176
     1
290
     1
176
     1
290
     1
176
     1
290
     0
176
     1
290
     0
176
     1
290
     0
176
     1
290
     0
176
     1
290
     0
176
     1
290
     0
176
     1
 90
       50
176
     1
 40
0.0
176
     1
 40
1.0
176
     1
 90
        0
176
     1
 62
    18
420
        0
176
     1
 90
       50
176
     1
 90
        3
176
     1
 62
     5
420
      255
176
     1
290
     0
176
     1
 90
       50
176
     1
 90
       50
176
     1
 90
       50
176
     1
290
     0
176
     1
 90
       50
176
     1
 62
   256
176
     0
 40
1.0
176
     0
 90
        2
176
     1
  1
strokes_ogs.tif
176
     1
290
     0
176
     1
 40
1.0
176
     1
 40
1.0
176
     1
  0
VISUALSTYLE
  5
30
102
{ACAD_REACTORS
330
2A
102
}
330
2A
100
AcDbVisualStyle
  2
Wireframe
 70
     5
177
     3
291
     0
 70
    58
 90
        0
176
     1
 90
        2
176
     1
 90
        0
176
     1
 90
        0
176
     1
 40
0.6
176
     1
 40
30.0
176
     1
 62
     7
420
 16777215
176
     1
 90
        1
176
     1
 90
        4
176
     1
 62
     7
176
     1
 62
   257
176
     1
 90
        1
176
     1
 90
        1
176
     1
 40
1.0
176
     1
 90
        0
176
     1
 62
   257
176
     1
 40
1.0
176
     1
 90
        1
176
     1
 90
        6
176
     1
 90
        2
176
     1
 62
     7
176
     1
 90
        3
176
     1
 90
        0
176
     1
 90
        0
176
     1
290
     0
176
     1
 90
        1
176
     1
 40
0.0
176
     1
 90
        0
176
     1
290
     0
176
     1
290
     1
176
     1
290
     1
176
     1
290
     0
176
     1
290
     0
176
     1
290
     0
176
     1
290
     0
176
     1
290
     0
176
     1
290
     0
176
     1
 90
       50
176
     1
 40
0.0
176
     1
 40
1.0
176
     1
 90
        0
176
     1
 62
    18
420
        0
176
     1
 90
       50
176
     1
 90
        3
176
     1
 62
     5
420
      255
176
     1
290
     0
176
     1
 90
       50
176
     1
 90
       50
176
     1
 90
       50
176
     1
290
     0
176
     1
 90
       50
176
     1
 62
   256
176
     0
 40
1.0
176
     0
 90
        2
176
     1
  1
strokes_ogs.tif
176
     1
290
     0
176
     1
 40
1.0
176
     1
 40
1.0
176
     1
  0
VISUALSTYLE
  5
40
102
{ACAD_REACTORS
330
2A
102
}
330
2A
100
AcDbVisualStyle
  2
X-Ray
 70
    25
177
     3
291
     0
 70
    58
 90
        2
176
     1
 90
        2
176
     1
 90
        1
176
     1
 90
        1
176
     1
 40
0.5
176
     1
 40
30.0
176
     1
 62
     7
420
 16777215
176
     1
 90
        1
176
     1
 90
        0
176
     1
 62
     7
176
     1
 62
   257
176
     1
 90
        1
176
     1
 90
        1
176
     1
 40
1.0
176
     1
 90
        8
176
     1
 62
     7
176
     1
 40
1.0
176
     1
 90
        1
176
     1
 90
        6
176
     1
 90
        2
176
     1
 62
     7
176
     1
 90
        3
176
     1
 90
        0
176
     1
 90
        0
176
     1
290
     0
176
     1
 90
       13
176
     1
 40
0.0
176
     1
 90
        0
176
     1
290
     0
176
     1
290
     1
176
     1
290
     1
176
     1
290
     0
176
     1
290
     0
176
     1
290
     0
176
     1
290
     0
176
     1
290
     0
176
     1
290
     0
176
     1
 90
       50
176
     1
 40
0.0
176
     1
 40
1.0
176
     1
 90
        0
176
     1
 62
    18
420
        0
176
     1
 90
       50
176
     1
 90
        3
176
     1
 62
     5
420
      255
176
     1
290
     0
176
     1
 90
       50
176
     1
 90
       50
176
     1
 90
       50
176
     1
290
     0
176
     1
 90
       50
176
     1
 62
   256
176
     0
 40
1.0
176
     0
 90
        2
176
     1
  1
strokes_ogs.tif
176
     1
290
     0
176
     1
 40
1.0
176
     1
 40
1.0
176
     1
  0
DICTIONARYVAR
  5
227
102
{ACAD_REACTORS
330
226
102
}
330
226
100
DictionaryVariables
280
     0
  1
1:1
  0
DICTIONARYVAR
  5
22C
102
{ACAD_REACTORS
330
226
102
}
330
226
100
DictionaryVariables
280
     0
  1
Standard
  0
DICTIONARYVAR
  5
22B
102
{ACAD_REACTORS
330
226
102
}
330
226
100
DictionaryVariables
280
     0
  1
Standard
  0
DICTIONARY
  5
228
330
6A
100
AcDbDictionary
280
     1
281
     1
  3
ACAD_ROUNDTRIP_2008_TABLESTYLE_CELLSTYLEMAP
360
229
  0
CELLSTYLEMAP
  5
229
102
{ACAD_REACTORS
330
228
102
}
330
228
100
AcDbCellStyleMap
 90
        3
300
CELLSTYLE
  1
TABLEFORMAT_BEGIN
 90
        5
170
     1
 91
        0
 92
    32768
 62
   257
 93
        1
300
CONTENTFORMAT
  1
CONTENTFORMAT_BEGIN
 90
        0
 91
        0
 92
        4
 93
        0
300

 40
0.0
140
1.0
 94
        5
 62
     0
340
11
144
0.25
309
CONTENTFORMAT_END
171
     1
301
MARGIN
  1
CELLMARGIN_BEGIN
 40
0.06
 40
0.06
 40
0.06
 40
0.06
 40
0.06
 40
0.06
309
CELLMARGIN_END
 94
        6
 95
        1
302
GRIDFORMAT
  1
GRIDFORMAT_BEGIN
 90
        0
 91
        1
 62
     0
 92
       -2
340
14
 93
        0
 40
0.045
309
GRIDFORMAT_END
 95
        2
302
GRIDFORMAT
  1
GRIDFORMAT_BEGIN
 90
        0
 91
        1
 62
     0
 92
       -2
340
14
 93
        0
 40
0.045
309
GRIDFORMAT_END
 95
        4
302
GRIDFORMAT
  1
GRIDFORMAT_BEGIN
 90
        0
 91
        1
 62
     0
 92
       -2
340
14
 93
        0
 40
0.045
309
GRIDFORMAT_END
 95
        8
302
GRIDFORMAT
  1
GRIDFORMAT_BEGIN
 90
        0
 91
        1
 62
     0
 92
       -2
340
14
 93
        0
 40
0.045
309
GRIDFORMAT_END
 95
       16
302
GRIDFORMAT
  1
GRIDFORMAT_BEGIN
 90
        0
 91
        1
 62
     0
 92
       -2
340
14
 93
        0
 40
0.045
309
GRIDFORMAT_END
 95
       32
302
GRIDFORMAT
  1
GRIDFORMAT_BEGIN
 90
        0
 91
        1
 62
     0
 92
       -2
340
14
 93
        0
 40
0.045
309
GRIDFORMAT_END
309
TABLEFORMAT_END
  1
CELLSTYLE_BEGIN
 90
        1
 91
        1
300
_TITLE
309
CELLSTYLE_END
300
CELLSTYLE
  1
TABLEFORMAT_BEGIN
 90
        5
170
     1
 91
        0
 92
        0
 62
   257
 93
        1
300
CONTENTFORMAT
  1
CONTENTFORMAT_BEGIN
 90
        0
 91
        0
 92
        4
 93
        0
300

 40
0.0
140
1.0
 94
        5
 62
     0
340
11
144
0.18
309
CONTENTFORMAT_END
171
     1
301
MARGIN
  1
CELLMARGIN_BEGIN
 40
0.06
 40
0.06
 40
0.06
 40
0.06
 40
0.06
 40
0.06
309
CELLMARGIN_END
 94
        6
 95
        1
302
GRIDFORMAT
  1
GRIDFORMAT_BEGIN
 90
        0
 91
        1
 62
     0
 92
       -2
340
14
 93
        0
 40
0.045
309
GRIDFORMAT_END
 95
        2
302
GRIDFORMAT
  1
GRIDFORMAT_BEGIN
 90
        0
 91
        1
 62
     0
 92
       -2
340
14
 93
        0
 40
0.045
309
GRIDFORMAT_END
 95
        4
302
GRIDFORMAT
  1
GRIDFORMAT_BEGIN
 90
        0
 91
        1
 62
     0
 92
       -2
340
14
 93
        0
 40
0.045
309
GRIDFORMAT_END
 95
        8
302
GRIDFORMAT
  1
GRIDFORMAT_BEGIN
 90
        0
 91
        1
 62
     0
 92
       -2
340
14
 93
        0
 40
0.045
309
GRIDFORMAT_END
 95
       16
302
GRIDFORMAT
  1
GRIDFORMAT_BEGIN
 90
        0
 91
        1
 62
     0
 92
       -2
340
14
 93
        0
 40
0.045
309
GRIDFORMAT_END
 95
       32
302
GRIDFORMAT
  1
GRIDFORMAT_BEGIN
 90
        0
 91
        1
 62
     0
 92
       -2
340
14
 93
        0
 40
0.045
309
GRIDFORMAT_END
309
TABLEFORMAT_END
  1
CELLSTYLE_BEGIN
 90
        2
 91
        1
300
_HEADER
309
CELLSTYLE_END
300
CELLSTYLE
  1
TABLEFORMAT_BEGIN
 90
        5
170
     1
 91
        0
 92
        0
 62
   257
 93
        1
300
CONTENTFORMAT
  1
CONTENTFORMAT_BEGIN
 90
        0
 91
        0
 92
        4
 93
        0
300

 40
0.0
140
1.0
 94
        2
 62
     0
340
11
144
0.18
309
CONTENTFORMAT_END
171
     1
301
MARGIN
  1
CELLMARGIN_BEGIN
 40
0.06
 40
0.06
 40
0.06
 40
0.06
 40
0.06
 40
0.06
309
CELLMARGIN_END
 94
        6
 95
        1
302
GRIDFORMAT
  1
GRIDFORMAT_BEGIN
 90
        0
 91
        1
 62
     0
 92
       -2
340
14
 93
        0
 40
0.045
309
GRIDFORMAT_END
 95
        2
302
GRIDFORMAT
  1
GRIDFORMAT_BEGIN
 90
        0
 91
        1
 62
     0
 92
       -2
340
14
 93
        0
 40
0.045
309
GRIDFORMAT_END
 95
        4
302
GRIDFORMAT
  1
GRIDFORMAT_BEGIN
 90
        0
 91
        1
 62
     0
 92
       -2
340
14
 93
        0
 40
0.045
309
GRIDFORMAT_END
 95
        8
302
GRIDFORMAT
  1
GRIDFORMAT_BEGIN
 90
        0
 91
        1
 62
     0
 92
       -2
340
14
 93
        0
 40
0.045
309
GRIDFORMAT_END
 95
       16
302
GRIDFORMAT
  1
GRIDFORMAT_BEGIN
 90
        0
 91
        1
 62
     0
 92
       -2
340
14
 93
        0
 40
0.045
309
GRIDFORMAT_END
 95
       32
302
GRIDFORMAT
  1
GRIDFORMAT_BEGIN
 90
        0
 91
        1
 62
     0
 92
       -2
340
14
 93
        0
 40
0.045
309
GRIDFORMAT_END
309
TABLEFORMAT_END
  1
CELLSTYLE_BEGIN
 90
        3
 91
        2
300
_DATA
309
CELLSTYLE_END
  0
ENDSEC
  0
EOF
