  0
SECTION
  2
HEADER
  9
$ACADVER
  1
AC1004
  9
$INSBASE
 10
0.0
 20
0.0
  9
$EXTMIN
 10
56.74999999999999
 20
161.1704545454546
  9
$EXTMAX
 10
122.0
 20
229.5
  9
$LIMMIN
 10
0.0
 20
0.0
  9
$LIMMAX
 10
12.0
 20
9.0
  9
$ORTHOMODE
 70
     0
  9
$REGENMODE
 70
     1
  9
$FILLMODE
 70
     1
  9
$QTEXTMODE
 70
     0
  9
$DRAGMODE
 70
     2
  9
$LTSCALE
 40
1.0
  9
$OSMODE
 70
    37
  9
$ATTMODE
 70
     1
  9
$TEXTSIZE
 40
0.2
  9
$TRACEWID
 40
0.05
  9
$TEXTSTYLE
  7
STANDARD
  9
$CLAYER
  8
0
  9
$CELTYPE
  6
BYLAYER
  9
$CECOLOR
 62
   256
  9
$DIMSCALE
 40
1.0
  9
$DIMASZ
 40
3.0
  9
$DIMEXO
 40
0.0625
  9
$DIMDLI
 40
0.38
  9
$DIMRND
 40
0.0
  9
$DIMDLE
 40
0.0
  9
$DIMEXE
 40
1.5
  9
$DIMTP
 40
0.0
  9
$DIMTM
 40
0.0
  9
$DIMTXT
 40
3.0
  9
$DIMCEN
 40
0.09
  9
$DIMTSZ
 40
0.0
  9
$DIMTOL
 70
     0
  9
$DIMLIM
 70
     0
  9
$DIMTIH
 70
     1
  9
$DIMTOH
 70
     1
  9
$DIMSE1
 70
     0
  9
$DIMSE2
 70
     0
  9
$DIMTAD
 70
     1
  9
$DIMZIN
 70
     0
  9
$DIMBLK
  1

  9
$DIMASO
 70
     1
  9
$DIMSHO
 70
     1
  9
$DIMPOST
  1

  9
$DIMAPOST
  1

  9
$DIMALT
 70
     0
  9
$DIMALTD
 70
     2
  9
$DIMALTF
 40
25.4
  9
$DIMLFAC
 40
1.0
  9
$DIMTOFL
 70
     0
  9
$DIMTVP
 40
0.0
  9
$DIMTIX
 70
     0
  9
$DIMSOXD
 70
     0
  9
$DIMSAH
 70
     0
  9
$DIMBLK1
  1

  9
$DIMBLK2
  1

  9
$LUNITS
 70
     2
  9
$LUPREC
 70
     4
  9
$SKETCHINC
 40
0.1
  9
$FILLETRAD
 40
0.5
  9
$AUNITS
 70
     0
  9
$AUPREC
 70
     0
  9
$MENU
  1
.
  9
$ELEVATION
 40
0.0
  9
$THICKNESS
 40
0.0
  9
$LIMCHECK
 70
     0
  9
$CHAMFERA
 40
0.0
  9
$CHAMFERB
 40
0.0
  9
$SKPOLY
 70
     0
  9
$TDCREATE
 40
2458841.430297234
  9
$TDUPDATE
 40
2458841.430297419
  9
$TDINDWG
 40
0.0000000116
  9
$TDUSRTIMER
 40
0.0000000116
  9
$USRTIMER
 70
     1
  9
$ANGBASE
 50
0.0
  9
$ANGDIR
 70
     0
  9
$PDMODE
 70
     0
  9
$PDSIZE
 40
0.0
  9
$PLINEWID
 40
0.0
  9
$COORDS
 70
     1
  9
$SPLFRAME
 70
     0
  9
$SPLINETYPE
 70
     6
  9
$SPLINESEGS
 70
     8
  9
$ATTDIA
 70
     0
  9
$ATTREQ
 70
     1
  9
$SURFTAB1
 70
     6
  9
$SURFTAB2
 70
     6
  9
$SURFTYPE
 70
     6
  9
$SURFU
 70
     6
  9
$SURFV
 70
     6
  9
$UCSNAME
  2

  9
$UCSORG
 10
0.0
 20
0.0
 30
0.0
  9
$UCSXDIR
 10
1.0
 20
0.0
 30
0.0
  9
$UCSYDIR
 10
0.0
 20
1.0
 30
0.0
  9
$USERI1
 70
     0
  9
$USERI2
 70
     0
  9
$USERI3
 70
     0
  9
$USERI4
 70
     0
  9
$USERI5
 70
     0
  9
$USERR1
 40
0.0
  9
$USERR2
 40
0.0
  9
$USERR3
 40
0.0
  9
$USERR4
 40
0.0
  9
$USERR5
 40
0.0
  9
$WORLDVIEW
 70
     1
  0
ENDSEC
  0
SECTION
  2
TABLES
  0
TABLE
  2
LTYPE
 70
     1
  0
LTYPE
  2
CONTINUOUS
 70
     0
  3
Solid line
 72
    65
 73
     0
 40
0.0
  0
ENDTAB
  0
TABLE
  2
LAYER
 70
     1
  0
LAYER
  2
0
 70
     0
 62
     7
  6
CONTINUOUS
  0
ENDTAB
  0
TABLE
  2
STYLE
 70
     2
  0
STYLE
  2
STANDARD
 70
     0
 40
0.0
 41
1.0
 50
0.0
 71
     0
 42
0.2
  3
txt
  4

  0
STYLE
  2
ＭＳ_ゴシック
 70
     0
 40
0.0
 41
1.0
 50
0.0
 71
     0
 42
0.2
  3
ＭＳ ゴシック.shx
  4

  0
ENDTAB
  0
TABLE
  2
VIEW
 70
     0
  0
ENDTAB
  0
ENDSEC
  0
SECTION
  2
BLOCKS
  0
BLOCK
  8
0
  2
D_FRAME_VIEW_1280
 70
     0
 10
0.0
 20
0.0
  0
ENDBLK
  8
0
  0
BLOCK
  8
0
  2
D_FRAME_VIEW_1392
 70
     0
 10
0.0
 20
0.0
  0
ENDBLK
  8
0
  0
BLOCK
  8
0
  2
D_FRAME_VIEW_1351
 70
     0
 10
0.0
 20
0.0
  0
ENDBLK
  8
0
  0
ENDSEC
  0
SECTION
  2
ENTITIES
  0
INSERT
  8
0
  6
CONTINUOUS
 62
     7
  2
D_FRAME_VIEW_1280
 10
0.0
 20
0.0
 30
0.0
  0
INSERT
  8
0
  6
CONTINUOUS
 62
     7
  2
D_FRAME_VIEW_1392
 10
0.0
 20
0.0
 30
0.0
  0
INSERT
  8
0
  6
CONTINUOUS
 62
     7
  2
D_FRAME_VIEW_1351
 10
0.0
 20
0.0
 30
0.0
  0
LINE
  8
0
  6
CONTINUOUS
 62
     7
 10
78.1187670047111
 20
225.5
 11
78.09252040565332
 21
225.2
  0
LINE
  8
0
  6
CONTINUOUS
 62
     7
 10
58.6118055826844
 20
205.5
 11
57.25038326360955
 21
205.5
  0
LINE
  8
0
  6
CONTINUOUS
 62
     7
 10
77.74961673639042
 20
229.5
 11
76.38819441731559
 21
229.5
  0
LINE
  8
0
  6
CONTINUOUS
 62
     7
 10
56.77624659905777
 20
209.5
 11
56.74999999999999
 21
209.2
  0
LINE
  8
0
  6
CONTINUOUS
 62
     7
 10
64.50149253650862
 20
187.9482233123038
 11
64.50000000000001
 21
187.9467307757952
  0
LINE
  8
0
  6
CONTINUOUS
 62
     7
 10
78.06627380659553
 20
221.0
 11
78.03127834118517
 21
221.0
  0
LINE
  8
0
  6
CONTINUOUS
 62
     7
 10
56.90747959434666
 20
221.3
 11
56.90747959434667
 21
225.2
  0
LINE
  8
0
  6
CONTINUOUS
 62
     7
 10
56.88123299528888
 20
225.5
 11
56.77624659905777
 21
225.5
  0
ARC
  8
0
  6
CONTINUOUS
 62
     7
 10
67.50000000000001
 20
132.7803375628118
 40
39.99999999999999
 50
77.16143185901596
 51
102.8385681409841
  0
LINE
  8
0
  6
CONTINUOUS
 62
     7
 10
70.47512704029884
 20
187.9523075110871
 11
70.49999999555897
 21
187.9467307767953
  0
ARC
  8
0
  6
CONTINUOUS
 62
     7
 10
67.4452423577592
 20
211.5056417396341
 40
1.453840345297879
 50
112.8404968433916
 51
359.7776566609721
  0
ARC
  8
0
  6
CONTINUOUS
 62
     7
 10
67.49543607547785
 20
211.5809298798997
 40
1.40596684820523
 50
356.700129833873
 51
115.9180236704908
  0
POLYLINE
  8
0
  6
CONTINUOUS
 62
     7
 66
     1
  0
VERTEX
  8
0
  6
CONTINUOUS
 62
     7
 10
76.38819441731559
 20
205.5
  0
VERTEX
  8
0
  6
CONTINUOUS
 62
     7
 10
67.49999999999999
 20
205.5349207694917
  0
VERTEX
  8
0
  6
CONTINUOUS
 62
     7
 10
58.61180558268438
 20
205.5
  0
SEQEND
  8
0
  6
CONTINUOUS
 62
     7
  0
ARC
  8
0
  6
CONTINUOUS
 62
     7
 10
67.50000000000001
 20
174.6245999655274
 40
13.65573759728441
 50
55.88093448728085
 51
124.1190655127194
  0
LINE
  8
0
  6
CONTINUOUS
 62
     7
 10
78.00503174212739
 20
220.7
 11
78.00503174212739
 21
214.3
  0
LINE
  8
0
  6
CONTINUOUS
 62
     7
 10
70.49999999555733
 20
187.9467307767956
 11
70.4985074564227
 21
187.948223315928
  0
LINE
  8
0
  6
CONTINUOUS
 62
     7
 10
78.24999999999999
 20
209.2
 11
78.2237534009422
 21
209.5
  0
LINE
  8
0
  6
CONTINUOUS
 62
     7
 10
56.77624659905777
 20
209.5
 11
56.88123299528888
 21
209.5
  0
LINE
  8
0
  6
CONTINUOUS
 62
     7
 10
56.93372619340443
 20
214.0
 11
56.96872165881481
 21
214.0
  0
LINE
  8
0
  6
CONTINUOUS
 62
     7
 10
77.33610226492051
 20
182.2262364741452
 11
78.24999999999999
 21
171.7803375628118
  0
ARC
  8
0
  6
CONTINUOUS
 62
     7
 10
72.3551287744618
 20
181.790457760407
 40
5.000000000000001
 50
5.000000000000057
 51
55.88093448728085
  0
LINE
  8
0
  6
CONTINUOUS
 62
     7
 10
78.09252040565332
 20
225.2
 11
78.09252040565332
 21
221.3
  0
LINE
  8
0
  6
CONTINUOUS
 62
     7
 10
56.90747959434667
 20
225.2
 11
56.88123299528889
 21
225.5
  0
CIRCLE
  8
0
  6
CONTINUOUS
 62
     7
 10
67.50007516570965
 20
211.5008678857817
 40
2.999911771262021
  0
CIRCLE
  8
0
  6
CONTINUOUS
 62
     7
 10
67.4999958658432
 20
211.5001653654943
 40
3.199995870115978
  0
POLYLINE
  8
0
  6
CONTINUOUS
 62
     7
 66
     1
  0
VERTEX
  8
0
  6
CONTINUOUS
 62
     7
 10
77.74961673639044
 20
205.5
  0
VERTEX
  8
0
  6
CONTINUOUS
 62
     7
 10
77.84731765837546
 20
205.5095761409277
  0
VERTEX
  8
0
  6
CONTINUOUS
 62
     7
 10
77.9412200266965
 20
205.5379379772612
  0
VERTEX
  8
0
  6
CONTINUOUS
 62
     7
 10
78.02772914323138
 20
205.5839997830317
  0
VERTEX
  8
0
  6
CONTINUOUS
 62
     7
 10
78.10353333262704
 20
205.6459982556767
  0
VERTEX
  8
0
  6
CONTINUOUS
 62
     7
 10
78.16573071730419
 20
205.7215600174294
  0
VERTEX
  8
0
  6
CONTINUOUS
 62
     7
 10
78.21194030489909
 20
205.807792471139
  0
VERTEX
  8
0
  6
CONTINUOUS
 62
     7
 10
78.2403931355791
 20
205.9013945324454
  0
VERTEX
  8
0
  6
CONTINUOUS
 62
     7
 10
78.25
 20
205.9987829993482
  0
SEQEND
  8
0
  6
CONTINUOUS
 62
     7
  0
LINE
  8
0
  6
CONTINUOUS
 62
     7
 10
78.24999999999999
 20
209.2
 11
78.24999999999999
 21
205.9987829993482
  0
POLYLINE
  8
0
  6
CONTINUOUS
 62
     7
 66
     1
  0
VERTEX
  8
0
  6
CONTINUOUS
 62
     7
 10
56.75
 20
205.9987829993482
  0
VERTEX
  8
0
  6
CONTINUOUS
 62
     7
 10
56.7596068644209
 20
205.9013945324453
  0
VERTEX
  8
0
  6
CONTINUOUS
 62
     7
 10
56.78805969510089
 20
205.807792471139
  0
VERTEX
  8
0
  6
CONTINUOUS
 62
     7
 10
56.83426928269581
 20
205.7215600174294
  0
VERTEX
  8
0
  6
CONTINUOUS
 62
     7
 10
56.89646666737294
 20
205.6459982556767
  0
VERTEX
  8
0
  6
CONTINUOUS
 62
     7
 10
56.97227085676861
 20
205.5839997830318
  0
VERTEX
  8
0
  6
CONTINUOUS
 62
     7
 10
57.05877997330349
 20
205.5379379772612
  0
VERTEX
  8
0
  6
CONTINUOUS
 62
     7
 10
57.15268234162453
 20
205.5095761409277
  0
VERTEX
  8
0
  6
CONTINUOUS
 62
     7
 10
57.25038326360955
 20
205.5
  0
SEQEND
  8
0
  6
CONTINUOUS
 62
     7
  0
LINE
  8
0
  6
CONTINUOUS
 62
     7
 10
78.09252040565332
 20
209.8
 11
78.1187670047111
 21
209.5
  0
LINE
  8
0
  6
CONTINUOUS
 62
     7
 10
78.2237534009422
 20
225.5
 11
78.1187670047111
 21
225.5
  0
LINE
  8
0
  6
CONTINUOUS
 62
     7
 10
58.61180558268441
 20
229.5
 11
57.25038326360956
 21
229.5
  0
LINE
  8
0
  6
CONTINUOUS
 62
     7
 10
78.1187670047111
 20
209.5
 11
78.2237534009422
 21
209.5
  0
LINE
  8
0
  6
CONTINUOUS
 62
     7
 10
78.09252040565332
 20
213.7
 11
78.09252040565332
 21
209.8
  0
POLYLINE
  8
0
  6
CONTINUOUS
 62
     7
 66
     1
  0
VERTEX
  8
0
  6
CONTINUOUS
 62
     7
 10
57.25038326360956
 20
229.5
  0
VERTEX
  8
0
  6
CONTINUOUS
 62
     7
 10
57.15268234162453
 20
229.4904238590723
  0
VERTEX
  8
0
  6
CONTINUOUS
 62
     7
 10
57.05877997330349
 20
229.4620620227388
  0
VERTEX
  8
0
  6
CONTINUOUS
 62
     7
 10
56.97227085676861
 20
229.4160002169682
  0
VERTEX
  8
0
  6
CONTINUOUS
 62
     7
 10
56.89646666737294
 20
229.3540017443233
  0
VERTEX
  8
0
  6
CONTINUOUS
 62
     7
 10
56.83426928269581
 20
229.2784399825705
  0
VERTEX
  8
0
  6
CONTINUOUS
 62
     7
 10
56.78805969510089
 20
229.192207528861
  0
VERTEX
  8
0
  6
CONTINUOUS
 62
     7
 10
56.75960686442089
 20
229.0986054675546
  0
VERTEX
  8
0
  6
CONTINUOUS
 62
     7
 10
56.75
 20
229.0012170006518
  0
SEQEND
  8
0
  6
CONTINUOUS
 62
     7
  0
LINE
  8
0
  6
CONTINUOUS
 62
     7
 10
78.24999999999999
 20
229.0012170006518
 11
78.24999999999999
 21
225.8
  0
LINE
  8
0
  6
CONTINUOUS
 62
     7
 10
56.74999999999999
 20
209.2
 11
56.74999999999999
 21
205.9987829993482
  0
ARC
  8
0
  6
CONTINUOUS
 62
     7
 10
62.6448712255382
 20
181.7904577604069
 40
5.000000000000001
 50
124.1190655127194
 51
175.0
  0
LINE
  8
0
  6
CONTINUOUS
 62
     7
 10
56.88123299528888
 20
209.5
 11
56.90747959434667
 21
209.8
  0
LINE
  8
0
  6
CONTINUOUS
 62
     7
 10
56.96872165881481
 20
221.0
 11
56.93372619340443
 21
221.0
  0
LINE
  8
0
  6
CONTINUOUS
 62
     7
 10
77.74961673639041
 20
205.5
 11
76.38819441731559
 21
205.5
  0
POLYLINE
  8
0
  6
CONTINUOUS
 62
     7
 66
     1
  0
VERTEX
  8
0
  6
CONTINUOUS
 62
     7
 10
78.24999999999997
 20
229.0012170006518
  0
VERTEX
  8
0
  6
CONTINUOUS
 62
     7
 10
78.24039313557907
 20
229.0986054675546
  0
VERTEX
  8
0
  6
CONTINUOUS
 62
     7
 10
78.21194030489907
 20
229.192207528861
  0
VERTEX
  8
0
  6
CONTINUOUS
 62
     7
 10
78.16573071730416
 20
229.2784399825705
  0
VERTEX
  8
0
  6
CONTINUOUS
 62
     7
 10
78.10353333262702
 20
229.3540017443233
  0
VERTEX
  8
0
  6
CONTINUOUS
 62
     7
 10
78.02772914323135
 20
229.4160002169682
  0
VERTEX
  8
0
  6
CONTINUOUS
 62
     7
 10
77.94122002669648
 20
229.4620620227388
  0
VERTEX
  8
0
  6
CONTINUOUS
 62
     7
 10
77.84731765837545
 20
229.4904238590723
  0
VERTEX
  8
0
  6
CONTINUOUS
 62
     7
 10
77.74961673639042
 20
229.5
  0
SEQEND
  8
0
  6
CONTINUOUS
 62
     7
  0
LINE
  8
0
  6
CONTINUOUS
 62
     7
 10
78.03127834118517
 20
214.0
 11
78.06627380659555
 21
214.0
  0
LINE
  8
0
  6
CONTINUOUS
 62
     7
 10
78.2237534009422
 20
225.5
 11
78.24999999999999
 21
225.8
  0
POLYLINE
  8
0
  6
CONTINUOUS
 62
     7
 66
     1
  0
VERTEX
  8
0
  6
CONTINUOUS
 62
     7
 10
58.61180558268439
 20
229.5
  0
VERTEX
  8
0
  6
CONTINUOUS
 62
     7
 10
67.49999999999999
 20
229.4650792305083
  0
VERTEX
  8
0
  6
CONTINUOUS
 62
     7
 10
76.38819441731559
 20
229.5
  0
SEQEND
  8
0
  6
CONTINUOUS
 62
     7
  0
LINE
  8
0
  6
CONTINUOUS
 62
     7
 10
56.75000000000001
 20
171.7803375628118
 11
57.66389773507947
 21
182.2262364741452
  0
LINE
  8
0
  6
CONTINUOUS
 62
     7
 10
78.05779077011994
 20
221.3030384493975
 11
78.00503174212739
 21
220.7
  0
LINE
  8
0
  6
CONTINUOUS
 62
     7
 10
58.61180558268442
 20
171.7803375628118
 11
56.75000000000001
 21
171.7803375628118
  0
POLYLINE
  8
0
  6
CONTINUOUS
 62
     7
 66
     1
  0
VERTEX
  8
0
  6
CONTINUOUS
 62
     7
 10
118.0
 20
173.2803375628118
  0
VERTEX
  8
0
  6
CONTINUOUS
 62
     7
 10
117.9996386368615
 20
173.29505786511
  0
VERTEX
  8
0
  6
CONTINUOUS
 62
     7
 10
117.9985554180017
 20
173.3097427049107
  0
VERTEX
  8
0
  6
CONTINUOUS
 62
     7
 10
117.9967529529894
 20
173.3243567051484
  0
VERTEX
  8
0
  6
CONTINUOUS
 62
     7
 10
117.994235584121
 20
173.3388646594166
  0
VERTEX
  8
0
  6
CONTINUOUS
 62
     7
 10
117.9910093759584
 20
173.3532316167828
  0
VERTEX
  8
0
  6
CONTINUOUS
 62
     7
 10
117.9870821007197
 20
173.3674229659881
  0
VERTEX
  8
0
  6
CONTINUOUS
 62
     7
 10
117.9824632195549
 20
173.3814045188295
  0
VERTEX
  8
0
  6
CONTINUOUS
 62
     7
 10
117.9771638597534
 20
173.3951425925213
  0
VERTEX
  8
0
  6
CONTINUOUS
 62
     7
 10
117.971196787937
 20
173.4086040908409
  0
VERTEX
  8
0
  6
CONTINUOUS
 62
     7
 10
117.9645763793045
 20
173.4217565838596
  0
VERTEX
  8
0
  6
CONTINUOUS
 62
     7
 10
117.9573185830001
 20
173.4345683860698
  0
VERTEX
  8
0
  6
CONTINUOUS
 62
     7
 10
117.9494408836908
 20
173.4470086327177
  0
VERTEX
  8
0
  6
CONTINUOUS
 62
     7
 10
117.9409622594442
 20
173.4590473541595
  0
VERTEX
  8
0
  6
CONTINUOUS
 62
     7
 10
117.9319031360088
 20
173.4706555480609
  0
VERTEX
  8
0
  6
CONTINUOUS
 62
     7
 10
117.9222853376065
 20
173.4818052492659
  0
VERTEX
  8
0
  6
CONTINUOUS
 62
     7
 10
117.912132034356
 20
173.4924695971678
  0
VERTEX
  8
0
  6
CONTINUOUS
 62
     7
 10
117.9014676864541
 20
173.5026229004183
  0
VERTEX
  8
0
  6
CONTINUOUS
 62
     7
 10
117.8903179852491
 20
173.5122406988206
  0
VERTEX
  8
0
  6
CONTINUOUS
 62
     7
 10
117.8787097913477
 20
173.521299822256
  0
VERTEX
  8
0
  6
CONTINUOUS
 62
     7
 10
117.8666710699059
 20
173.5297784465026
  0
VERTEX
  8
0
  6
CONTINUOUS
 62
     7
 10
117.854230823258
 20
173.5376561458119
  0
VERTEX
  8
0
  6
CONTINUOUS
 62
     7
 10
117.8414190210478
 20
173.5449139421163
  0
VERTEX
  8
0
  6
CONTINUOUS
 62
     7
 10
117.8282665280291
 20
173.5515343507488
  0
VERTEX
  8
0
  6
CONTINUOUS
 62
     7
 10
117.8148050297095
 20
173.5575014225652
  0
VERTEX
  8
0
  6
CONTINUOUS
 62
     7
 10
117.8010669560177
 20
173.5628007823667
  0
VERTEX
  8
0
  6
CONTINUOUS
 62
     7
 10
117.7870854031763
 20
173.5674196635315
  0
VERTEX
  8
0
  6
CONTINUOUS
 62
     7
 10
117.772894053971
 20
173.5713469387701
  0
VERTEX
  8
0
  6
CONTINUOUS
 62
     7
 10
117.7585270966049
 20
173.5745731469328
  0
VERTEX
  8
0
  6
CONTINUOUS
 62
     7
 10
117.7440191423366
 20
173.5770905158012
  0
VERTEX
  8
0
  6
CONTINUOUS
 62
     7
 10
117.7294051420989
 20
173.5788929808135
  0
VERTEX
  8
0
  6
CONTINUOUS
 62
     7
 10
117.7147203022982
 20
173.5799761996734
  0
VERTEX
  8
0
  6
CONTINUOUS
 62
     7
 10
117.7
 20
173.5803375628118
  0
SEQEND
  8
0
  6
CONTINUOUS
 62
     7
  0
LINE
  8
0
  6
CONTINUOUS
 62
     7
 10
120.9409629159826
 20
188.2803375628118
 11
101.0005550449303
 21
188.2803375628118
  0
LINE
  8
0
  6
CONTINUOUS
 62
     7
 10
102.5
 20
188.2803375628118
 11
102.5026914621707
 21
188.2800799210848
  0
LINE
  8
0
  6
CONTINUOUS
 62
     7
 10
113.5
 20
173.8803375628118
 11
113.5
 21
174.2803375628118
  0
LINE
  8
0
  6
CONTINUOUS
 62
     7
 10
98.00000000000003
 20
171.7803375628118
 11
98.55934167050782
 21
187.7977873111631
  0
POLYLINE
  8
0
  6
CONTINUOUS
 62
     7
 66
     1
  0
VERTEX
  8
0
  6
CONTINUOUS
 62
     7
 10
101.7
 20
171.7803375628118
  0
VERTEX
  8
0
  6
CONTINUOUS
 62
     7
 10
101.7147203022982
 20
171.7806989259502
  0
VERTEX
  8
0
  6
CONTINUOUS
 62
     7
 10
101.7294051420989
 20
171.7817821448102
  0
VERTEX
  8
0
  6
CONTINUOUS
 62
     7
 10
101.7440191423366
 20
171.7835846098224
  0
VERTEX
  8
0
  6
CONTINUOUS
 62
     7
 10
101.7585270966048
 20
171.7861019786909
  0
VERTEX
  8
0
  6
CONTINUOUS
 62
     7
 10
101.772894053971
 20
171.7893281868534
  0
VERTEX
  8
0
  6
CONTINUOUS
 62
     7
 10
101.7870854031763
 20
171.7932554620921
  0
VERTEX
  8
0
  6
CONTINUOUS
 62
     7
 10
101.8010669560177
 20
171.7978743432569
  0
VERTEX
  8
0
  6
CONTINUOUS
 62
     7
 10
101.8148050297095
 20
171.8031737030584
  0
VERTEX
  8
0
  6
CONTINUOUS
 62
     7
 10
101.8282665280291
 20
171.8091407748748
  0
VERTEX
  8
0
  6
CONTINUOUS
 62
     7
 10
101.8414190210478
 20
171.8157611835073
  0
VERTEX
  8
0
  6
CONTINUOUS
 62
     7
 10
101.854230823258
 20
171.8230189798117
  0
VERTEX
  8
0
  6
CONTINUOUS
 62
     7
 10
101.8666710699059
 20
171.8308966791211
  0
VERTEX
  8
0
  6
CONTINUOUS
 62
     7
 10
101.8787097913477
 20
171.8393753033676
  0
VERTEX
  8
0
  6
CONTINUOUS
 62
     7
 10
101.8903179852491
 20
171.848434426803
  0
VERTEX
  8
0
  6
CONTINUOUS
 62
     7
 10
101.9014676864541
 20
171.8580522252053
  0
VERTEX
  8
0
  6
CONTINUOUS
 62
     7
 10
101.912132034356
 20
171.8682055284558
  0
VERTEX
  8
0
  6
CONTINUOUS
 62
     7
 10
101.9222853376065
 20
171.8788698763577
  0
VERTEX
  8
0
  6
CONTINUOUS
 62
     7
 10
101.9319031360088
 20
171.8900195775627
  0
VERTEX
  8
0
  6
CONTINUOUS
 62
     7
 10
101.9409622594442
 20
171.9016277714641
  0
VERTEX
  8
0
  6
CONTINUOUS
 62
     7
 10
101.9494408836908
 20
171.9136664929059
  0
VERTEX
  8
0
  6
CONTINUOUS
 62
     7
 10
101.9573185830001
 20
171.9261067395538
  0
VERTEX
  8
0
  6
CONTINUOUS
 62
     7
 10
101.9645763793045
 20
171.938918541764
  0
VERTEX
  8
0
  6
CONTINUOUS
 62
     7
 10
101.971196787937
 20
171.9520710347827
  0
VERTEX
  8
0
  6
CONTINUOUS
 62
     7
 10
101.9771638597534
 20
171.9655325331023
  0
VERTEX
  8
0
  6
CONTINUOUS
 62
     7
 10
101.9824632195549
 20
171.9792706067941
  0
VERTEX
  8
0
  6
CONTINUOUS
 62
     7
 10
101.9870821007197
 20
171.9932521596355
  0
VERTEX
  8
0
  6
CONTINUOUS
 62
     7
 10
101.9910093759584
 20
172.0074435088408
  0
VERTEX
  8
0
  6
CONTINUOUS
 62
     7
 10
101.994235584121
 20
172.0218104662069
  0
VERTEX
  8
0
  6
CONTINUOUS
 62
     7
 10
101.9967529529894
 20
172.0363184204752
  0
VERTEX
  8
0
  6
CONTINUOUS
 62
     7
 10
101.9985554180016
 20
172.0509324207129
  0
VERTEX
  8
0
  6
CONTINUOUS
 62
     7
 10
101.9996386368615
 20
172.0656172605136
  0
VERTEX
  8
0
  6
CONTINUOUS
 62
     7
 10
102.0
 20
172.0803375628118
  0
SEQEND
  8
0
  6
CONTINUOUS
 62
     7
  0
LINE
  8
0
  6
CONTINUOUS
 62
     7
 10
101.7
 20
171.7803375628118
 11
98.0
 21
171.7803375628118
  0
LINE
  8
0
  6
CONTINUOUS
 62
     7
 10
56.9602386223392
 20
220.6969615506025
 11
56.90747959434665
 21
221.3
  0
ARC
  8
0
  6
CONTINUOUS
 62
     7
 10
99.05903708401736
 20
187.7803375628118
 40
0.5000000000000004
 50
90.0
 51
178.0000000000001
  0
LINE
  8
0
  6
CONTINUOUS
 62
     7
 10
100.8004371480991
 20
188.2803375628118
 11
99.05903708401736
 21
188.2803375628118
  0
POLYLINE
  8
0
  6
CONTINUOUS
 62
     7
 66
     1
  0
VERTEX
  8
0
  6
CONTINUOUS
 62
     7
 10
113.8
 20
173.5803375628118
  0
VERTEX
  8
0
  6
CONTINUOUS
 62
     7
 10
113.7852796977018
 20
173.5806989259502
  0
VERTEX
  8
0
  6
CONTINUOUS
 62
     7
 10
113.7705948579011
 20
173.5817821448101
  0
VERTEX
  8
0
  6
CONTINUOUS
 62
     7
 10
113.7559808576634
 20
173.5835846098224
  0
VERTEX
  8
0
  6
CONTINUOUS
 62
     7
 10
113.7414729033952
 20
173.5861019786908
  0
VERTEX
  8
0
  6
CONTINUOUS
 62
     7
 10
113.727105946029
 20
173.5893281868534
  0
VERTEX
  8
0
  6
CONTINUOUS
 62
     7
 10
113.7129145968237
 20
173.5932554620921
  0
VERTEX
  8
0
  6
CONTINUOUS
 62
     7
 10
113.6989330439823
 20
173.5978743432569
  0
VERTEX
  8
0
  6
CONTINUOUS
 62
     7
 10
113.6851949702905
 20
173.6031737030584
  0
VERTEX
  8
0
  6
CONTINUOUS
 62
     7
 10
113.6717334719709
 20
173.6091407748748
  0
VERTEX
  8
0
  6
CONTINUOUS
 62
     7
 10
113.6585809789522
 20
173.6157611835073
  0
VERTEX
  8
0
  6
CONTINUOUS
 62
     7
 10
113.645769176742
 20
173.6230189798117
  0
VERTEX
  8
0
  6
CONTINUOUS
 62
     7
 10
113.6333289300941
 20
173.630896679121
  0
VERTEX
  8
0
  6
CONTINUOUS
 62
     7
 10
113.6212902086523
 20
173.6393753033676
  0
VERTEX
  8
0
  6
CONTINUOUS
 62
     7
 10
113.6096820147509
 20
173.648434426803
  0
VERTEX
  8
0
  6
CONTINUOUS
 62
     7
 10
113.5985323135459
 20
173.6580522252053
  0
VERTEX
  8
0
  6
CONTINUOUS
 62
     7
 10
113.587867965644
 20
173.6682055284558
  0
VERTEX
  8
0
  6
CONTINUOUS
 62
     7
 10
113.5777146623935
 20
173.6788698763577
  0
VERTEX
  8
0
  6
CONTINUOUS
 62
     7
 10
113.5680968639912
 20
173.6900195775627
  0
VERTEX
  8
0
  6
CONTINUOUS
 62
     7
 10
113.5590377405558
 20
173.701627771464
  0
VERTEX
  8
0
  6
CONTINUOUS
 62
     7
 10
113.5505591163092
 20
173.7136664929059
  0
VERTEX
  8
0
  6
CONTINUOUS
 62
     7
 10
113.5426814169999
 20
173.7261067395538
  0
VERTEX
  8
0
  6
CONTINUOUS
 62
     7
 10
113.5354236206955
 20
173.738918541764
  0
VERTEX
  8
0
  6
CONTINUOUS
 62
     7
 10
113.528803212063
 20
173.7520710347827
  0
VERTEX
  8
0
  6
CONTINUOUS
 62
     7
 10
113.5228361402466
 20
173.7655325331023
  0
VERTEX
  8
0
  6
CONTINUOUS
 62
     7
 10
113.5175367804451
 20
173.7792706067941
  0
VERTEX
  8
0
  6
CONTINUOUS
 62
     7
 10
113.5129178992803
 20
173.7932521596354
  0
VERTEX
  8
0
  6
CONTINUOUS
 62
     7
 10
113.5089906240416
 20
173.8074435088408
  0
VERTEX
  8
0
  6
CONTINUOUS
 62
     7
 10
113.505764415879
 20
173.821810466207
  0
VERTEX
  8
0
  6
CONTINUOUS
 62
     7
 10
113.5032470470106
 20
173.8363184204752
  0
VERTEX
  8
0
  6
CONTINUOUS
 62
     7
 10
113.5014445819983
 20
173.8509324207129
  0
VERTEX
  8
0
  6
CONTINUOUS
 62
     7
 10
113.5003613631384
 20
173.8656172605136
  0
VERTEX
  8
0
  6
CONTINUOUS
 62
     7
 10
113.5
 20
173.8803375628118
  0
SEQEND
  8
0
  6
CONTINUOUS
 62
     7
  0
POLYLINE
  8
0
  6
CONTINUOUS
 62
     7
 66
     1
  0
VERTEX
  8
0
  6
CONTINUOUS
 62
     7
 10
113.5
 20
174.2803375628118
  0
VERTEX
  8
0
  6
CONTINUOUS
 62
     7
 10
113.4996386368615
 20
174.29505786511
  0
VERTEX
  8
0
  6
CONTINUOUS
 62
     7
 10
113.4985554180017
 20
174.3097427049107
  0
VERTEX
  8
0
  6
CONTINUOUS
 62
     7
 10
113.4967529529894
 20
174.3243567051484
  0
VERTEX
  8
0
  6
CONTINUOUS
 62
     7
 10
113.494235584121
 20
174.3388646594166
  0
VERTEX
  8
0
  6
CONTINUOUS
 62
     7
 10
113.4910093759584
 20
174.3532316167828
  0
VERTEX
  8
0
  6
CONTINUOUS
 62
     7
 10
113.4870821007197
 20
174.3674229659881
  0
VERTEX
  8
0
  6
CONTINUOUS
 62
     7
 10
113.4824632195549
 20
174.3814045188295
  0
VERTEX
  8
0
  6
CONTINUOUS
 62
     7
 10
113.4771638597534
 20
174.3951425925213
  0
VERTEX
  8
0
  6
CONTINUOUS
 62
     7
 10
113.471196787937
 20
174.4086040908409
  0
VERTEX
  8
0
  6
CONTINUOUS
 62
     7
 10
113.4645763793045
 20
174.4217565838596
  0
VERTEX
  8
0
  6
CONTINUOUS
 62
     7
 10
113.4573185830001
 20
174.4345683860698
  0
VERTEX
  8
0
  6
CONTINUOUS
 62
     7
 10
113.4494408836908
 20
174.4470086327177
  0
VERTEX
  8
0
  6
CONTINUOUS
 62
     7
 10
113.4409622594442
 20
174.4590473541595
  0
VERTEX
  8
0
  6
CONTINUOUS
 62
     7
 10
113.4319031360088
 20
174.4706555480609
  0
VERTEX
  8
0
  6
CONTINUOUS
 62
     7
 10
113.4222853376065
 20
174.4818052492659
  0
VERTEX
  8
0
  6
CONTINUOUS
 62
     7
 10
113.412132034356
 20
174.4924695971678
  0
VERTEX
  8
0
  6
CONTINUOUS
 62
     7
 10
113.4014676864541
 20
174.5026229004183
  0
VERTEX
  8
0
  6
CONTINUOUS
 62
     7
 10
113.3903179852491
 20
174.5122406988206
  0
VERTEX
  8
0
  6
CONTINUOUS
 62
     7
 10
113.3787097913477
 20
174.521299822256
  0
VERTEX
  8
0
  6
CONTINUOUS
 62
     7
 10
113.3666710699059
 20
174.5297784465026
  0
VERTEX
  8
0
  6
CONTINUOUS
 62
     7
 10
113.354230823258
 20
174.5376561458119
  0
VERTEX
  8
0
  6
CONTINUOUS
 62
     7
 10
113.3414190210478
 20
174.5449139421163
  0
VERTEX
  8
0
  6
CONTINUOUS
 62
     7
 10
113.3282665280291
 20
174.5515343507488
  0
VERTEX
  8
0
  6
CONTINUOUS
 62
     7
 10
113.3148050297095
 20
174.5575014225652
  0
VERTEX
  8
0
  6
CONTINUOUS
 62
     7
 10
113.3010669560177
 20
174.5628007823667
  0
VERTEX
  8
0
  6
CONTINUOUS
 62
     7
 10
113.2870854031763
 20
174.5674196635314
  0
VERTEX
  8
0
  6
CONTINUOUS
 62
     7
 10
113.272894053971
 20
174.5713469387701
  0
VERTEX
  8
0
  6
CONTINUOUS
 62
     7
 10
113.2585270966049
 20
174.5745731469328
  0
VERTEX
  8
0
  6
CONTINUOUS
 62
     7
 10
113.2440191423366
 20
174.5770905158012
  0
VERTEX
  8
0
  6
CONTINUOUS
 62
     7
 10
113.2294051420989
 20
174.5788929808135
  0
VERTEX
  8
0
  6
CONTINUOUS
 62
     7
 10
113.2147203022982
 20
174.5799761996734
  0
VERTEX
  8
0
  6
CONTINUOUS
 62
     7
 10
113.2
 20
174.5803375628118
  0
SEQEND
  8
0
  6
CONTINUOUS
 62
     7
  0
LINE
  8
0
  6
CONTINUOUS
 62
     7
 10
121.4406583294922
 20
187.7977873111631
 11
122.0
 21
171.7803375628118
  0
LINE
  8
0
  6
CONTINUOUS
 62
     7
 10
78.03976137766077
 20
214.3030384493975
 11
78.09252040565332
 21
213.7
  0
LINE
  8
0
  6
CONTINUOUS
 62
     7
 10
78.24999999999999
 20
171.7803375628118
 11
76.38819441731562
 21
171.7803375628118
  0
LINE
  8
0
  6
CONTINUOUS
 62
     7
 10
113.2
 20
174.5803375628118
 11
106.8
 21
174.5803375628118
  0
ARC
  8
0
  6
CONTINUOUS
 62
     7
 10
104.0477967510946
 20
201.990283727811
 40
14.04463202768066
 50
257.466644257505
 51
268.2359938719379
  0
ARC
  8
0
  6
CONTINUOUS
 62
     7
 10
104.0
 20
201.5562662403106
 40
13.65614448700785
 50
256.4480594821983
 51
283.5519405178018
  0
LINE
  8
0
  6
CONTINUOUS
 62
     7
 10
117.7
 20
173.5803375628118
 11
113.8
 21
173.5803375628118
  0
POLYLINE
  8
0
  6
CONTINUOUS
 62
     7
 66
     1
  0
VERTEX
  8
0
  6
CONTINUOUS
 62
     7
 10
106.5
 20
173.8803375628118
  0
VERTEX
  8
0
  6
CONTINUOUS
 62
     7
 10
106.4996386368615
 20
173.8656172605136
  0
VERTEX
  8
0
  6
CONTINUOUS
 62
     7
 10
106.4985554180017
 20
173.850932420713
  0
VERTEX
  8
0
  6
CONTINUOUS
 62
     7
 10
106.4967529529894
 20
173.8363184204752
  0
VERTEX
  8
0
  6
CONTINUOUS
 62
     7
 10
106.494235584121
 20
173.821810466207
  0
VERTEX
  8
0
  6
CONTINUOUS
 62
     7
 10
106.4910093759584
 20
173.8074435088408
  0
VERTEX
  8
0
  6
CONTINUOUS
 62
     7
 10
106.4870821007197
 20
173.7932521596355
  0
VERTEX
  8
0
  6
CONTINUOUS
 62
     7
 10
106.4824632195549
 20
173.7792706067941
  0
VERTEX
  8
0
  6
CONTINUOUS
 62
     7
 10
106.4771638597534
 20
173.7655325331023
  0
VERTEX
  8
0
  6
CONTINUOUS
 62
     7
 10
106.471196787937
 20
173.7520710347827
  0
VERTEX
  8
0
  6
CONTINUOUS
 62
     7
 10
106.4645763793045
 20
173.738918541764
  0
VERTEX
  8
0
  6
CONTINUOUS
 62
     7
 10
106.4573185830001
 20
173.7261067395538
  0
VERTEX
  8
0
  6
CONTINUOUS
 62
     7
 10
106.4494408836908
 20
173.7136664929059
  0
VERTEX
  8
0
  6
CONTINUOUS
 62
     7
 10
106.4409622594442
 20
173.7016277714641
  0
VERTEX
  8
0
  6
CONTINUOUS
 62
     7
 10
106.4319031360088
 20
173.6900195775627
  0
VERTEX
  8
0
  6
CONTINUOUS
 62
     7
 10
106.4222853376065
 20
173.6788698763577
  0
VERTEX
  8
0
  6
CONTINUOUS
 62
     7
 10
106.4121320343559
 20
173.6682055284558
  0
VERTEX
  8
0
  6
CONTINUOUS
 62
     7
 10
106.4014676864541
 20
173.6580522252053
  0
VERTEX
  8
0
  6
CONTINUOUS
 62
     7
 10
106.3903179852491
 20
173.648434426803
  0
VERTEX
  8
0
  6
CONTINUOUS
 62
     7
 10
106.3787097913477
 20
173.6393753033676
  0
VERTEX
  8
0
  6
CONTINUOUS
 62
     7
 10
106.3666710699059
 20
173.630896679121
  0
VERTEX
  8
0
  6
CONTINUOUS
 62
     7
 10
106.354230823258
 20
173.6230189798117
  0
VERTEX
  8
0
  6
CONTINUOUS
 62
     7
 10
106.3414190210478
 20
173.6157611835073
  0
VERTEX
  8
0
  6
CONTINUOUS
 62
     7
 10
106.3282665280291
 20
173.6091407748748
  0
VERTEX
  8
0
  6
CONTINUOUS
 62
     7
 10
106.3148050297095
 20
173.6031737030584
  0
VERTEX
  8
0
  6
CONTINUOUS
 62
     7
 10
106.3010669560177
 20
173.5978743432569
  0
VERTEX
  8
0
  6
CONTINUOUS
 62
     7
 10
106.2870854031763
 20
173.5932554620921
  0
VERTEX
  8
0
  6
CONTINUOUS
 62
     7
 10
106.272894053971
 20
173.5893281868534
  0
VERTEX
  8
0
  6
CONTINUOUS
 62
     7
 10
106.2585270966048
 20
173.5861019786908
  0
VERTEX
  8
0
  6
CONTINUOUS
 62
     7
 10
106.2440191423366
 20
173.5835846098224
  0
VERTEX
  8
0
  6
CONTINUOUS
 62
     7
 10
106.2294051420989
 20
173.5817821448101
  0
VERTEX
  8
0
  6
CONTINUOUS
 62
     7
 10
106.2147203022982
 20
173.5806989259503
  0
VERTEX
  8
0
  6
CONTINUOUS
 62
     7
 10
106.2
 20
173.5803375628118
  0
SEQEND
  8
0
  6
CONTINUOUS
 62
     7
  0
POLYLINE
  8
0
  6
CONTINUOUS
 62
     7
 66
     1
  0
VERTEX
  8
0
  6
CONTINUOUS
 62
     7
 10
102.3
 20
173.5803375628118
  0
VERTEX
  8
0
  6
CONTINUOUS
 62
     7
 10
102.2852796977018
 20
173.5799761996734
  0
VERTEX
  8
0
  6
CONTINUOUS
 62
     7
 10
102.2705948579011
 20
173.5788929808135
  0
VERTEX
  8
0
  6
CONTINUOUS
 62
     7
 10
102.2559808576634
 20
173.5770905158012
  0
VERTEX
  8
0
  6
CONTINUOUS
 62
     7
 10
102.2414729033952
 20
173.5745731469328
  0
VERTEX
  8
0
  6
CONTINUOUS
 62
     7
 10
102.227105946029
 20
173.5713469387701
  0
VERTEX
  8
0
  6
CONTINUOUS
 62
     7
 10
102.2129145968237
 20
173.5674196635314
  0
VERTEX
  8
0
  6
CONTINUOUS
 62
     7
 10
102.1989330439823
 20
173.5628007823667
  0
VERTEX
  8
0
  6
CONTINUOUS
 62
     7
 10
102.1851949702905
 20
173.5575014225652
  0
VERTEX
  8
0
  6
CONTINUOUS
 62
     7
 10
102.1717334719709
 20
173.5515343507488
  0
VERTEX
  8
0
  6
CONTINUOUS
 62
     7
 10
102.1585809789522
 20
173.5449139421163
  0
VERTEX
  8
0
  6
CONTINUOUS
 62
     7
 10
102.145769176742
 20
173.5376561458119
  0
VERTEX
  8
0
  6
CONTINUOUS
 62
     7
 10
102.1333289300941
 20
173.5297784465025
  0
VERTEX
  8
0
  6
CONTINUOUS
 62
     7
 10
102.1212902086523
 20
173.521299822256
  0
VERTEX
  8
0
  6
CONTINUOUS
 62
     7
 10
102.1096820147509
 20
173.5122406988206
  0
VERTEX
  8
0
  6
CONTINUOUS
 62
     7
 10
102.0985323135459
 20
173.5026229004183
  0
VERTEX
  8
0
  6
CONTINUOUS
 62
     7
 10
102.087867965644
 20
173.4924695971678
  0
VERTEX
  8
0
  6
CONTINUOUS
 62
     7
 10
102.0777146623935
 20
173.4818052492659
  0
VERTEX
  8
0
  6
CONTINUOUS
 62
     7
 10
102.0680968639912
 20
173.4706555480609
  0
VERTEX
  8
0
  6
CONTINUOUS
 62
     7
 10
102.0590377405558
 20
173.4590473541595
  0
VERTEX
  8
0
  6
CONTINUOUS
 62
     7
 10
102.0505591163092
 20
173.4470086327177
  0
VERTEX
  8
0
  6
CONTINUOUS
 62
     7
 10
102.0426814169999
 20
173.4345683860698
  0
VERTEX
  8
0
  6
CONTINUOUS
 62
     7
 10
102.0354236206955
 20
173.4217565838596
  0
VERTEX
  8
0
  6
CONTINUOUS
 62
     7
 10
102.028803212063
 20
173.4086040908409
  0
VERTEX
  8
0
  6
CONTINUOUS
 62
     7
 10
102.0228361402466
 20
173.3951425925213
  0
VERTEX
  8
0
  6
CONTINUOUS
 62
     7
 10
102.0175367804451
 20
173.3814045188295
  0
VERTEX
  8
0
  6
CONTINUOUS
 62
     7
 10
102.0129178992803
 20
173.3674229659881
  0
VERTEX
  8
0
  6
CONTINUOUS
 62
     7
 10
102.0089906240416
 20
173.3532316167828
  0
VERTEX
  8
0
  6
CONTINUOUS
 62
     7
 10
102.005764415879
 20
173.3388646594166
  0
VERTEX
  8
0
  6
CONTINUOUS
 62
     7
 10
102.0032470470106
 20
173.3243567051484
  0
VERTEX
  8
0
  6
CONTINUOUS
 62
     7
 10
102.0014445819983
 20
173.3097427049107
  0
VERTEX
  8
0
  6
CONTINUOUS
 62
     7
 10
102.0003613631385
 20
173.29505786511
  0
VERTEX
  8
0
  6
CONTINUOUS
 62
     7
 10
102.0
 20
173.2803375628118
  0
SEQEND
  8
0
  6
CONTINUOUS
 62
     7
  0
ARC
  8
0
  6
CONTINUOUS
 62
     7
 10
103.9855917489964
 20
201.7578496651979
 40
13.81050286957516
 50
268.4642587714714
 51
282.6073986112231
  0
LINE
  8
0
  6
CONTINUOUS
 62
     7
 10
107.0372134386622
 20
188.243124111443
 11
106.9985074575077
 21
188.2818300931372
  0
LINE
  8
0
  6
CONTINUOUS
 62
     7
 10
118.0
 20
172.0803375628118
 11
118.0
 21
173.2803375628118
  0
LINE
  8
0
  6
CONTINUOUS
 62
     7
 10
106.2
 20
173.5803375628118
 11
102.3
 21
173.5803375628118
  0
LINE
  8
0
  6
CONTINUOUS
 62
     7
 10
101.0014925458414
 20
188.28183009276
 11
100.9627872585351
 21
188.2431248048804
  0
LINE
  8
0
  6
CONTINUOUS
 62
     7
 10
102.0
 20
173.2803375628118
 11
102.0
 21
172.0803375628118
  0
LINE
  8
0
  6
CONTINUOUS
 62
     7
 10
56.99496825787258
 20
209.8
 11
56.99496825787258
 21
220.7
  0
POLYLINE
  8
0
  6
CONTINUOUS
 62
     7
 66
     1
  0
VERTEX
  8
0
  6
CONTINUOUS
 62
     7
 10
106.8
 20
174.5803375628118
  0
VERTEX
  8
0
  6
CONTINUOUS
 62
     7
 10
106.7852796977018
 20
174.5799761996734
  0
VERTEX
  8
0
  6
CONTINUOUS
 62
     7
 10
106.7705948579011
 20
174.5788929808135
  0
VERTEX
  8
0
  6
CONTINUOUS
 62
     7
 10
106.7559808576634
 20
174.5770905158012
  0
VERTEX
  8
0
  6
CONTINUOUS
 62
     7
 10
106.7414729033952
 20
174.5745731469328
  0
VERTEX
  8
0
  6
CONTINUOUS
 62
     7
 10
106.727105946029
 20
174.5713469387701
  0
VERTEX
  8
0
  6
CONTINUOUS
 62
     7
 10
106.7129145968237
 20
174.5674196635314
  0
VERTEX
  8
0
  6
CONTINUOUS
 62
     7
 10
106.6989330439823
 20
174.5628007823667
  0
VERTEX
  8
0
  6
CONTINUOUS
 62
     7
 10
106.6851949702905
 20
174.5575014225652
  0
VERTEX
  8
0
  6
CONTINUOUS
 62
     7
 10
106.6717334719709
 20
174.5515343507488
  0
VERTEX
  8
0
  6
CONTINUOUS
 62
     7
 10
106.6585809789522
 20
174.5449139421163
  0
VERTEX
  8
0
  6
CONTINUOUS
 62
     7
 10
106.645769176742
 20
174.5376561458119
  0
VERTEX
  8
0
  6
CONTINUOUS
 62
     7
 10
106.6333289300941
 20
174.5297784465025
  0
VERTEX
  8
0
  6
CONTINUOUS
 62
     7
 10
106.6212902086523
 20
174.521299822256
  0
VERTEX
  8
0
  6
CONTINUOUS
 62
     7
 10
106.6096820147509
 20
174.5122406988206
  0
VERTEX
  8
0
  6
CONTINUOUS
 62
     7
 10
106.5985323135459
 20
174.5026229004183
  0
VERTEX
  8
0
  6
CONTINUOUS
 62
     7
 10
106.587867965644
 20
174.4924695971678
  0
VERTEX
  8
0
  6
CONTINUOUS
 62
     7
 10
106.5777146623935
 20
174.4818052492659
  0
VERTEX
  8
0
  6
CONTINUOUS
 62
     7
 10
106.5680968639912
 20
174.4706555480609
  0
VERTEX
  8
0
  6
CONTINUOUS
 62
     7
 10
106.5590377405558
 20
174.4590473541595
  0
VERTEX
  8
0
  6
CONTINUOUS
 62
     7
 10
106.5505591163092
 20
174.4470086327177
  0
VERTEX
  8
0
  6
CONTINUOUS
 62
     7
 10
106.5426814169999
 20
174.4345683860698
  0
VERTEX
  8
0
  6
CONTINUOUS
 62
     7
 10
106.5354236206955
 20
174.4217565838596
  0
VERTEX
  8
0
  6
CONTINUOUS
 62
     7
 10
106.528803212063
 20
174.4086040908409
  0
VERTEX
  8
0
  6
CONTINUOUS
 62
     7
 10
106.5228361402466
 20
174.3951425925213
  0
VERTEX
  8
0
  6
CONTINUOUS
 62
     7
 10
106.5175367804451
 20
174.3814045188295
  0
VERTEX
  8
0
  6
CONTINUOUS
 62
     7
 10
106.5129178992803
 20
174.3674229659881
  0
VERTEX
  8
0
  6
CONTINUOUS
 62
     7
 10
106.5089906240416
 20
174.3532316167828
  0
VERTEX
  8
0
  6
CONTINUOUS
 62
     7
 10
106.505764415879
 20
174.3388646594166
  0
VERTEX
  8
0
  6
CONTINUOUS
 62
     7
 10
106.5032470470106
 20
174.3243567051484
  0
VERTEX
  8
0
  6
CONTINUOUS
 62
     7
 10
106.5014445819983
 20
174.3097427049107
  0
VERTEX
  8
0
  6
CONTINUOUS
 62
     7
 10
106.5003613631385
 20
174.29505786511
  0
VERTEX
  8
0
  6
CONTINUOUS
 62
     7
 10
106.5
 20
174.2803375628118
  0
SEQEND
  8
0
  6
CONTINUOUS
 62
     7
  0
LINE
  8
0
  6
CONTINUOUS
 62
     7
 10
106.5
 20
174.2803375628118
 11
106.5
 21
173.8803375628118
  0
LINE
  8
0
  6
CONTINUOUS
 62
     7
 10
56.74999999999999
 20
229.0012170006518
 11
56.74999999999999
 21
225.5
  0
LINE
  8
0
  6
CONTINUOUS
 62
     7
 10
122.0
 20
171.7803375628118
 11
118.3
 21
171.7803375628118
  0
POLYLINE
  8
0
  6
CONTINUOUS
 62
     7
 66
     1
  0
VERTEX
  8
0
  6
CONTINUOUS
 62
     7
 10
118.0
 20
172.0803375628118
  0
VERTEX
  8
0
  6
CONTINUOUS
 62
     7
 10
118.0003613631385
 20
172.0656172605136
  0
VERTEX
  8
0
  6
CONTINUOUS
 62
     7
 10
118.0014445819983
 20
172.0509324207129
  0
VERTEX
  8
0
  6
CONTINUOUS
 62
     7
 10
118.0032470470106
 20
172.0363184204752
  0
VERTEX
  8
0
  6
CONTINUOUS
 62
     7
 10
118.005764415879
 20
172.0218104662069
  0
VERTEX
  8
0
  6
CONTINUOUS
 62
     7
 10
118.0089906240416
 20
172.0074435088408
  0
VERTEX
  8
0
  6
CONTINUOUS
 62
     7
 10
118.0129178992803
 20
171.9932521596355
  0
VERTEX
  8
0
  6
CONTINUOUS
 62
     7
 10
118.0175367804451
 20
171.9792706067941
  0
VERTEX
  8
0
  6
CONTINUOUS
 62
     7
 10
118.0228361402466
 20
171.9655325331023
  0
VERTEX
  8
0
  6
CONTINUOUS
 62
     7
 10
118.028803212063
 20
171.9520710347827
  0
VERTEX
  8
0
  6
CONTINUOUS
 62
     7
 10
118.0354236206955
 20
171.938918541764
  0
VERTEX
  8
0
  6
CONTINUOUS
 62
     7
 10
118.0426814169999
 20
171.9261067395538
  0
VERTEX
  8
0
  6
CONTINUOUS
 62
     7
 10
118.0505591163092
 20
171.9136664929059
  0
VERTEX
  8
0
  6
CONTINUOUS
 62
     7
 10
118.0590377405558
 20
171.9016277714641
  0
VERTEX
  8
0
  6
CONTINUOUS
 62
     7
 10
118.0680968639912
 20
171.8900195775627
  0
VERTEX
  8
0
  6
CONTINUOUS
 62
     7
 10
118.0777146623935
 20
171.8788698763577
  0
VERTEX
  8
0
  6
CONTINUOUS
 62
     7
 10
118.087867965644
 20
171.8682055284558
  0
VERTEX
  8
0
  6
CONTINUOUS
 62
     7
 10
118.0985323135459
 20
171.8580522252053
  0
VERTEX
  8
0
  6
CONTINUOUS
 62
     7
 10
118.1096820147509
 20
171.848434426803
  0
VERTEX
  8
0
  6
CONTINUOUS
 62
     7
 10
118.1212902086523
 20
171.8393753033676
  0
VERTEX
  8
0
  6
CONTINUOUS
 62
     7
 10
118.1333289300941
 20
171.8308966791211
  0
VERTEX
  8
0
  6
CONTINUOUS
 62
     7
 10
118.145769176742
 20
171.8230189798117
  0
VERTEX
  8
0
  6
CONTINUOUS
 62
     7
 10
118.1585809789522
 20
171.8157611835073
  0
VERTEX
  8
0
  6
CONTINUOUS
 62
     7
 10
118.1717334719709
 20
171.8091407748748
  0
VERTEX
  8
0
  6
CONTINUOUS
 62
     7
 10
118.1851949702905
 20
171.8031737030584
  0
VERTEX
  8
0
  6
CONTINUOUS
 62
     7
 10
118.1989330439823
 20
171.7978743432569
  0
VERTEX
  8
0
  6
CONTINUOUS
 62
     7
 10
118.2129145968237
 20
171.7932554620921
  0
VERTEX
  8
0
  6
CONTINUOUS
 62
     7
 10
118.227105946029
 20
171.7893281868534
  0
VERTEX
  8
0
  6
CONTINUOUS
 62
     7
 10
118.2414729033952
 20
171.7861019786909
  0
VERTEX
  8
0
  6
CONTINUOUS
 62
     7
 10
118.2559808576634
 20
171.7835846098224
  0
VERTEX
  8
0
  6
CONTINUOUS
 62
     7
 10
118.2705948579011
 20
171.7817821448102
  0
VERTEX
  8
0
  6
CONTINUOUS
 62
     7
 10
118.2852796977018
 20
171.7806989259502
  0
VERTEX
  8
0
  6
CONTINUOUS
 62
     7
 10
118.3
 20
171.7803375628118
  0
SEQEND
  8
0
  6
CONTINUOUS
 62
     7
  0
ARC
  8
0
  6
CONTINUOUS
 62
     7
 10
120.9409629159826
 20
187.7803375628118
 40
0.5000000000000063
 50
1.999999999999946
 51
90.0
  0
TEXT
  8
0
  6
CONTINUOUS
 62
     7
 10
60.60376078529449
 20
160.8284200325122
 40
3.0
  1
MPBTC-15
  0
ENDSEC
  0
EOF
