  0
SECTION
  2
HEADER
  9
$ACADVER
  1
AC1004
  9
$INSBASE
 10
0.0
 20
0.0
  9
$EXTMIN
 10
0.0
 20
0.0
  9
$EXTMAX
 10
225.7151075126
 20
158.0000000022
  9
$LIMMIN
 10
0.0
 20
0.0
  9
$LIMMAX
 10
12.0
 20
9.0
  9
$ORTHOMODE
 70
     0
  9
$REGENMODE
 70
     1
  9
$FILLMODE
 70
     1
  9
$QTEXTMODE
 70
     0
  9
$DRAGMODE
 70
     2
  9
$LTSCALE
 40
1.0
  9
$OSMODE
 70
    37
  9
$ATTMODE
 70
     1
  9
$TEXTSIZE
 40
0.2
  9
$TRACEWID
 40
0.05
  9
$TEXTSTYLE
  7
STANDARD
  9
$CLAYER
  8
0
  9
$CELTYPE
  6
BYLAYER
  9
$CECOLOR
 62
   256
  9
$DIMSCALE
 40
1.0
  9
$DIMASZ
 40
0.9
  9
$DIMEXO
 40
0.0625
  9
$DIMDLI
 40
0.38
  9
$DIMRND
 40
0.0
  9
$DIMDLE
 40
0.0
  9
$DIMEXE
 40
0.45
  9
$DIMTP
 40
0.0
  9
$DIMTM
 40
0.0
  9
$DIMTXT
 40
3.0
  9
$DIMCEN
 40
0.09
  9
$DIMTSZ
 40
0.0
  9
$DIMTOL
 70
     0
  9
$DIMLIM
 70
     0
  9
$DIMTIH
 70
     1
  9
$DIMTOH
 70
     1
  9
$DIMSE1
 70
     0
  9
$DIMSE2
 70
     0
  9
$DIMTAD
 70
     1
  9
$DIMZIN
 70
     0
  9
$DIMBLK
  1

  9
$DIMASO
 70
     1
  9
$DIMSHO
 70
     1
  9
$DIMPOST
  1

  9
$DIMAPOST
  1

  9
$DIMALT
 70
     0
  9
$DIMALTD
 70
     2
  9
$DIMALTF
 40
25.4
  9
$DIMLFAC
 40
1.0
  9
$DIMTOFL
 70
     0
  9
$DIMTVP
 40
0.0
  9
$DIMTIX
 70
     0
  9
$DIMSOXD
 70
     0
  9
$DIMSAH
 70
     0
  9
$DIMBLK1
  1

  9
$DIMBLK2
  1

  9
$LUNITS
 70
     2
  9
$LUPREC
 70
     4
  9
$SKETCHINC
 40
0.1
  9
$FILLETRAD
 40
0.5
  9
$AUNITS
 70
     0
  9
$AUPREC
 70
     0
  9
$MENU
  1
.
  9
$ELEVATION
 40
0.0
  9
$THICKNESS
 40
0.0
  9
$LIMCHECK
 70
     0
  9
$CHAMFERA
 40
0.0
  9
$CHAMFERB
 40
0.0
  9
$SKPOLY
 70
     0
  9
$TDCREATE
 40
2459047.445360127
  9
$TDUPDATE
 40
2459047.445360313
  9
$TDINDWG
 40
0.0000000116
  9
$TDUSRTIMER
 40
0.0000000116
  9
$USRTIMER
 70
     1
  9
$ANGBASE
 50
0.0
  9
$ANGDIR
 70
     0
  9
$PDMODE
 70
     0
  9
$PDSIZE
 40
0.0
  9
$PLINEWID
 40
0.0
  9
$COORDS
 70
     1
  9
$SPLFRAME
 70
     0
  9
$SPLINETYPE
 70
     6
  9
$SPLINESEGS
 70
     8
  9
$ATTDIA
 70
     0
  9
$ATTREQ
 70
     1
  9
$SURFTAB1
 70
     6
  9
$SURFTAB2
 70
     6
  9
$SURFTYPE
 70
     6
  9
$SURFU
 70
     6
  9
$SURFV
 70
     6
  9
$UCSNAME
  2

  9
$UCSORG
 10
0.0
 20
0.0
 30
0.0
  9
$UCSXDIR
 10
1.0
 20
0.0
 30
0.0
  9
$UCSYDIR
 10
0.0
 20
1.0
 30
0.0
  9
$USERI1
 70
     0
  9
$USERI2
 70
     0
  9
$USERI3
 70
     0
  9
$USERI4
 70
     0
  9
$USERI5
 70
     0
  9
$USERR1
 40
0.0
  9
$USERR2
 40
0.0
  9
$USERR3
 40
0.0
  9
$USERR4
 40
0.0
  9
$USERR5
 40
0.0
  9
$WORLDVIEW
 70
     1
  0
ENDSEC
  0
SECTION
  2
TABLES
  0
TABLE
  2
LTYPE
 70
     3
  0
LTYPE
  2
CONTINUOUS
 70
     0
  3
Solid line
 72
    65
 73
     0
 40
0.0
  0
LTYPE
  2
________________
 70
     0
  3

 72
    65
 73
     6
 40
6.000000030000298
 49
1.714285714285714
 49
-0.857142857142857
 49
1.714285714285714
 49
-0.857142857142857
 49
0.0000000300003
 49
-0.857142857142857
  0
LTYPE
  2
CENTER
 70
     0
  3

 72
    65
 73
     0
 40
0.0
  0
ENDTAB
  0
TABLE
  2
LAYER
 70
     2
  0
LAYER
  2
0
 70
     0
 62
     7
  6
CONTINUOUS
  0
LAYER
  2
1
 70
     0
 62
     7
  6
CONTINUOUS
  0
ENDTAB
  0
TABLE
  2
STYLE
 70
     2
  0
STYLE
  2
STANDARD
 70
     0
 40
0.0
 41
1.0
 50
0.0
 71
     0
 42
0.2
  3
txt
  4

  0
STYLE
  2
ＭＳ_ゴシック
 70
     0
 40
0.0
 41
1.0
 50
0.0
 71
     0
 42
0.2
  3
ＭＳ ゴシック.shx
  4

  0
ENDTAB
  0
TABLE
  2
VIEW
 70
     0
  0
ENDTAB
  0
ENDSEC
  0
SECTION
  2
BLOCKS
  0
ENDSEC
  0
SECTION
  2
ENTITIES
  0
LINE
  8
1
  6
________________
 62
     7
 10
208.4151075126
 20
154.0000000022
 11
207.4151075126
 21
154.0000000022
  0
LINE
  8
1
  6
CONTINUOUS
 62
     7
 10
151.5000000169
 20
117.7
 11
152.0000000169
 21
117.2
  0
ARC
  8
1
  6
CONTINUOUS
 62
     7
 10
172.8372542752
 20
144.2999999999
 40
0.5
 50
90.0
 51
158.0000000021
  0
LINE
  8
1
  6
________________
 62
     7
 10
204.2151075126
 20
152.8000000022
 11
211.6151075126
 21
152.8000000022
  0
LINE
  8
1
  6
CONTINUOUS
 62
     7
 10
179.1627457584
 20
144.8
 11
172.8372542752
 21
144.8
  0
ARC
  8
1
  6
CONTINUOUS
 62
     7
 10
180.645306727
 20
143.3
 40
0.5
 50
202.0000000002
 51
270.0
  0
LINE
  8
1
  6
CONTINUOUS
 62
     7
 10
152.0000000169
 20
142.8
 11
151.5000000169
 21
142.3
  0
ARC
  8
1
  6
CONTINUOUS
 62
     7
 10
171.3546933068
 20
143.3
 40
0.5
 50
270.0
 51
338.0000000021001
  0
LINE
  8
1
  6
CONTINUOUS
 62
     7
 10
180.645306727
 20
142.8
 11
183.5000000169
 21
142.8
  0
ARC
  8
1
  6
CONTINUOUS
 62
     7
 10
179.1627457584
 20
144.3
 40
0.5
 50
22.0000000002
 51
90.0
  0
LINE
  8
1
  6
CONTINUOUS
 62
     7
 10
183.5000000169
 20
117.2
 11
152.0000000169
 21
117.2
  0
LINE
  8
1
  6
CONTINUOUS
 62
     7
 10
171.3546933068
 20
142.8
 11
152.0000000169
 21
142.8
  0
LINE
  8
1
  6
________________
 62
     7
 10
204.2151075126
 20
149.8000000022
 11
211.6151075126
 21
149.8000000022
  0
LINE
  8
1
  6
________________
 62
     7
 10
211.6606673839
 20
152.8000000022
 11
211.6606673839
 21
153.4000000022
  0
LINE
  8
1
  6
________________
 62
     7
 10
204.1897342167
 20
153.6307336163
 11
204.1695476412
 21
153.4000000022
  0
LINE
  8
1
  6
________________
 62
     7
 10
205.6840262639
 20
155.0000000022
 11
207.4151075126
 21
155.0000000022
  0
LINE
  8
1
  6
________________
 62
     7
 10
204.1695476412
 20
153.4000000022
 11
204.1695476412
 21
152.8000000022
  0
ARC
  8
1
  6
________________
 62
     7
 10
210.1461887613
 20
153.5000000022
 40
1.5
 50
5.0
 51
90.0
  0
ARC
  8
1
  6
________________
 62
     7
 10
205.6840262639
 20
153.5000000022
 40
1.5
 50
90.0
 51
175.0
  0
LINE
  8
1
  6
________________
 62
     7
 10
208.4151075126
 20
155.0000000022
 11
208.4151075126
 21
154.0000000022
  0
LINE
  8
1
  6
________________
 62
     7
 10
207.4151075126
 20
154.0000000022
 11
207.4151075126
 21
155.0000000022
  0
LINE
  8
1
  6
________________
 62
     7
 10
210.6151075127
 20
144.8000000022
 11
205.2151075118
 21
144.8000000022
  0
LINE
  8
1
  6
________________
 62
     7
 10
204.915107512
 20
145.1000000022
 11
204.9151075126
 21
146.5000000022
  0
LINE
  8
1
  6
CONTINUOUS
 62
     7
 10
171.818285234
 20
143.1126967033
 11
172.3736623479
 21
144.4873032966
  0
LINE
  8
1
  6
CONTINUOUS
 62
     7
 10
180.1817147997
 20
143.1126967033
 11
179.6263376857
 21
144.4873032967
  0
LINE
  8
1
  6
CONTINUOUS
 62
     7
 10
152.0000000169
 20
117.2
 11
152.0000000169
 21
142.8
  0
LINE
  8
1
  6
________________
 62
     7
 10
211.6404808084
 20
153.6307336163
 11
211.6606673839
 21
153.4000000022
  0
LINE
  8
1
  6
________________
 62
     7
 10
208.4151075126
 20
155.0000000022
 11
210.1461887613
 21
155.0000000022
  0
LINE
  8
1
  6
CONTINUOUS
 62
     7
 10
212.4987967386
 20
142.1177750435
 11
211.5414451814
 21
144.4873032967
  0
LINE
  8
1
  6
CONTINUOUS
 62
     7
 10
184.0000000169
 20
142.3
 11
184.0000000169
 21
117.7
  0
LINE
  8
1
  6
CONTINUOUS
 62
     7
 10
184.0000000169
 20
142.3
 11
183.5000000169
 21
142.8
  0
LINE
  8
1
  6
CONTINUOUS
 62
     7
 10
183.5000000169
 20
142.8
 11
183.5000000169
 21
117.2
  0
LINE
  8
1
  6
CONTINUOUS
 62
     7
 10
139.0571428579
 20
143.0988302143
 11
129.4857142864
 21
143.0988302143
  0
LINE
  8
1
  6
CONTINUOUS
 62
     7
 10
140.9714285722
 20
146.75
 11
140.9714285722
 21
113.25
  0
LINE
  8
1
  6
CONTINUOUS
 62
     7
 10
203.3314182866
 20
142.1177750435
 11
204.2887698437
 21
144.4873032967
  0
ARC
  8
1
  6
CONTINUOUS
 62
     7
 10
211.0778532541
 20
144.3
 40
0.5
 50
22.0
 51
90.0
  0
LINE
  8
1
  6
CENTER
 62
     7
 10
74.3054191874
 20
130.0
 11
187.0000000169
 21
130.0
  0
LINE
  8
1
  6
CONTINUOUS
 62
     7
 10
139.0571428579
 20
146.75
 11
139.0571428579
 21
113.25
  0
CIRCLE
  8
1
  6
CONTINUOUS
 62
     7
 10
95.190293137
 20
130.0
 40
6.9784810127
  0
LINE
  8
1
  6
CENTER
 62
     7
 10
190.1151075126
 20
130.0
 11
225.7151075126
 21
130.0
  0
CIRCLE
  8
1
  6
CONTINUOUS
 62
     7
 10
207.9151075126
 20
130.0
 40
10.8
  0
CIRCLE
  8
1
  6
CONTINUOUS
 62
     7
 10
207.9151075126
 20
130.0
 40
9.8
  0
LINE
  8
1
  6
CONTINUOUS
 62
     7
 10
211.0778532541
 20
144.8
 11
204.752361771
 21
144.8
  0
ARC
  8
1
  6
CONTINUOUS
 62
     7
 10
212.9623886658
 20
142.3050783403
 40
0.5
 50
202.0
 51
247.6976056191
  0
ARC
  8
1
  6
CONTINUOUS
 62
     7
 10
202.8678263593
 20
142.3050783403
 40
0.5
 50
292.3023943809
 51
338.0
  0
LINE
  8
1
  6
CONTINUOUS
 62
     7
 10
139.0571428579
 20
116.9011697857
 11
129.4857142864
 21
116.9011697857
  0
CIRCLE
  8
1
  6
CONTINUOUS
 62
     7
 10
207.9151075126
 20
130.0
 40
12.3
  0
LINE
  8
1
  6
CENTER
 62
     7
 10
207.9151075126
 20
158.0000000022
 11
207.9151075126
 21
112.2
  0
CIRCLE
  8
1
  6
CONTINUOUS
 62
     7
 10
207.9151075126
 20
130.0
 40
12.8
  0
CIRCLE
  8
1
  6
CONTINUOUS
 62
     7
 10
207.9151075126
 20
130.0
 40
8.0
  0
LINE
  8
1
  6
CONTINUOUS
 62
     7
 10
183.5000000169
 20
117.2
 11
184.0000000169
 21
117.7
  0
LINE
  8
1
  6
CENTER
 62
     7
 10
95.190480137
 20
150.3338094372
 11
95.190480137
 21
108.6464144792
  0
LINE
  8
1
  6
CONTINUOUS
 62
     7
 10
129.4857142864
 20
113.25
 11
129.4857142864
 21
146.75
  0
LINE
  8
1
  6
CONTINUOUS
 62
     7
 10
151.5000000169
 20
113.25
 11
151.5000000169
 21
146.75
  0
CIRCLE
  8
1
  6
CONTINUOUS
 62
     7
 10
95.190293137
 20
130.0
 40
11.1
  0
ARC
  8
1
  6
CONTINUOUS
 62
     7
 10
204.752361771
 20
144.3
 40
0.5
 50
90.0
 51
158.0
  0
ARC
  8
1
  6
________________
 62
     7
 10
209.9151075126
 20
156.6166666689
 40
6.8166666667
 50
252.9384687801
 51
287.0615312199
  0
LINE
  8
1
  6
________________
 62
     7
 10
209.4151075126
 20
144.8000000022
 11
209.4151075126
 21
146.8000000022
  0
LINE
  8
1
  6
________________
 62
     7
 10
206.9151075126
 20
144.8000000022
 11
206.9151075126
 21
146.8000000022
  0
LINE
  8
1
  6
________________
 62
     7
 10
210.4151075126
 20
149.8000000022
 11
210.4151075126
 21
149.0000000022
  0
LINE
  8
1
  6
________________
 62
     7
 10
205.4151075126
 20
146.8000000022
 11
206.4151075126
 21
147.8000000022
  0
LINE
  8
1
  6
________________
 62
     7
 10
209.4151075126
 20
147.8000000022
 11
209.4151075126
 21
148.0000000022
  0
LINE
  8
1
  6
________________
 62
     7
 10
209.4151075126
 20
148.0000000022
 11
210.4151075126
 21
149.0000000022
  0
LINE
  8
1
  6
________________
 62
     7
 10
203.9151075126
 20
150.1000000022
 11
203.9151075126
 21
152.5000000022
  0
ARC
  8
1
  6
________________
 62
     7
 10
209.9151075126
 20
145.9833333355
 40
6.8166666667
 50
72.9384687801
 51
107.0615312199
  0
LINE
  8
1
  6
________________
 62
     7
 10
210.9151075126
 20
146.5000000021
 11
210.9151075127
 21
145.1000000022
  0
LINE
  8
1
  6
________________
 62
     7
 10
210.4151075126
 20
149.0000000022
 11
205.4151075126
 21
149.0000000022
  0
LINE
  8
1
  6
________________
 62
     7
 10
207.4151075126
 20
146.8000000022
 11
207.4151075126
 21
144.8000000022
  0
LINE
  8
1
  6
________________
 62
     7
 10
205.4151075126
 20
146.8000000022
 11
205.4151075126
 21
144.8000000022
  0
LINE
  8
1
  6
________________
 62
     7
 10
206.4151075126
 20
146.8000000022
 11
206.4151075126
 21
144.8000000022
  0
LINE
  8
1
  6
________________
 62
     7
 10
208.4151075126
 20
144.8000000022
 11
208.4151075126
 21
146.8000000022
  0
LINE
  8
1
  6
________________
 62
     7
 10
205.4151075126
 20
149.0000000022
 11
205.4151075126
 21
149.8000000022
  0
LINE
  8
1
  6
________________
 62
     7
 10
210.4151075126
 20
146.8000000022
 11
209.4151075126
 21
147.8000000022
  0
LINE
  8
1
  6
________________
 62
     7
 10
208.9151075126
 20
146.8000000022
 11
208.9151075126
 21
144.8000000022
  0
LINE
  8
1
  6
________________
 62
     7
 10
205.2151075126
 20
146.8000000022
 11
210.6151075126
 21
146.8000000021
  0
LINE
  8
1
  6
________________
 62
     7
 10
210.4151075126
 20
144.8000000022
 11
210.4151075126
 21
146.8000000022
  0
LINE
  8
1
  6
________________
 62
     7
 10
205.9151075126
 20
144.8000000022
 11
205.9151075126
 21
146.8000000022
  0
LINE
  8
1
  6
________________
 62
     7
 10
209.4151075126
 20
148.0000000022
 11
206.4151075126
 21
148.0000000022
  0
LINE
  8
1
  6
________________
 62
     7
 10
206.4151075126
 20
147.8000000022
 11
209.4151075126
 21
147.8000000022
  0
LINE
  8
1
  6
________________
 62
     7
 10
206.4151075126
 20
148.0000000022
 11
205.4151075126
 21
149.0000000022
  0
LINE
  8
1
  6
________________
 62
     7
 10
211.9151075126
 20
150.1000000022
 11
211.9151075126
 21
152.5000000022
  0
ARC
  8
1
  6
________________
 62
     7
 10
205.9151075126
 20
145.9833333355
 40
6.8166666667
 50
72.9384687801
 51
107.0615312199
  0
LINE
  8
1
  6
________________
 62
     7
 10
206.4151075126
 20
147.8000000022
 11
206.4151075126
 21
148.0000000022
  0
LINE
  8
1
  6
________________
 62
     7
 10
209.9151075126
 20
146.8000000022
 11
209.9151075126
 21
144.8000000022
  0
LINE
  8
1
  6
CONTINUOUS
 62
     7
 10
139.0571428579
 20
129.5678002286
 11
129.4857142864
 21
129.5678002286
  0
LINE
  8
1
  6
CONTINUOUS
 62
     7
 10
139.0571428579
 20
125.3107035
 11
129.4857142864
 21
125.3107035
  0
LINE
  8
1
  6
CONTINUOUS
 62
     7
 10
139.0571428579
 20
136.3183766143
 11
129.4857142864
 21
136.3183766143
  0
LINE
  8
1
  6
CONTINUOUS
 62
     7
 10
139.0571428579
 20
123.6816233857
 11
129.4857142864
 21
123.6816233857
  0
LINE
  8
1
  6
CONTINUOUS
 62
     7
 10
139.0571428579
 20
137.1080453143
 11
129.4857142864
 21
137.1080453143
  0
LINE
  8
1
  6
CONTINUOUS
 62
     7
 10
139.0571428579
 20
122.8919546857
 11
129.4857142864
 21
122.8919546857
  0
LINE
  8
1
  6
CONTINUOUS
 62
     7
 10
148.1500000007
 20
114.2071428571
 11
148.1500000007
 21
113.25
  0
LINE
  8
1
  6
CONTINUOUS
 62
     7
 10
140.9714285722
 20
114.2071428571
 11
148.1500000007
 21
114.2071428571
  0
LINE
  8
1
  6
CONTINUOUS
 62
     7
 10
139.0571428579
 20
126.9911611286
 11
129.4857142864
 21
126.9911611286
  0
LINE
  8
1
  6
CONTINUOUS
 62
     7
 10
139.0571428579
 20
137.8782323286
 11
129.4857142864
 21
137.8782323286
  0
LINE
  8
1
  6
CONTINUOUS
 62
     7
 10
139.0571428579
 20
132.1550808429
 11
129.4857142864
 21
132.1550808429
  0
LINE
  8
1
  6
CONTINUOUS
 62
     7
 10
139.0571428579
 20
133.0088388714
 11
129.4857142864
 21
133.0088388714
  0
LINE
  8
1
  6
CONTINUOUS
 62
     7
 10
139.0571428579
 20
134.6892965
 11
129.4857142864
 21
134.6892965
  0
LINE
  8
1
  6
CONTINUOUS
 62
     7
 10
148.1500000007
 20
146.75
 11
148.1500000007
 21
145.7928571429
  0
LINE
  8
1
  6
CONTINUOUS
 62
     7
 10
139.0571428579
 20
128.7045846714
 11
129.4857142864
 21
128.7045846714
  0
LINE
  8
1
  6
CONTINUOUS
 62
     7
 10
139.0571428579
 20
133.8543501571
 11
129.4857142864
 21
133.8543501571
  0
LINE
  8
1
  6
CONTINUOUS
 62
     7
 10
139.0571428579
 20
135.5113893714
 11
129.4857142864
 21
135.5113893714
  0
LINE
  8
1
  6
CONTINUOUS
 62
     7
 10
139.0571428579
 20
131.2954153286
 11
129.4857142864
 21
131.2954153286
  0
LINE
  8
1
  6
CONTINUOUS
 62
     7
 10
139.0571428579
 20
126.1456498429
 11
129.4857142864
 21
126.1456498429
  0
LINE
  8
1
  6
CONTINUOUS
 62
     7
 10
139.0571428579
 20
124.4886106286
 11
129.4857142864
 21
124.4886106286
  0
LINE
  8
1
  6
CONTINUOUS
 62
     7
 10
139.0571428579
 20
130.4321997714
 11
129.4857142864
 21
130.4321997714
  0
LINE
  8
1
  6
CONTINUOUS
 62
     7
 10
139.0571428579
 20
127.8449191571
 11
129.4857142864
 21
127.8449191571
  0
LINE
  8
1
  6
CONTINUOUS
 62
     7
 10
148.1500000007
 20
145.7928571429
 11
140.9714285722
 21
145.7928571429
  0
LINE
  8
1
  6
CONTINUOUS
 62
     7
 10
139.0571428579
 20
139.3517719429
 11
129.4857142864
 21
139.3517719429
  0
LINE
  8
1
  6
CONTINUOUS
 62
     7
 10
139.0571428579
 20
140.7228513286
 11
129.4857142864
 21
140.7228513286
  0
LINE
  8
1
  6
CONTINUOUS
 62
     7
 10
139.0571428579
 20
119.2771486714
 11
129.4857142864
 21
119.2771486714
  0
LINE
  8
1
  6
CONTINUOUS
 62
     7
 10
139.0571428579
 20
118.6347746857
 11
129.4857142864
 21
118.6347746857
  0
LINE
  8
1
  6
CONTINUOUS
 62
     7
 10
139.0571428579
 20
141.3652253143
 11
129.4857142864
 21
141.3652253143
  0
LINE
  8
1
  6
CONTINUOUS
 62
     7
 10
139.0571428579
 20
141.9764490857
 11
129.4857142864
 21
141.9764490857
  0
LINE
  8
1
  6
CONTINUOUS
 62
     7
 10
139.0571428579
 20
118.0235509143
 11
129.4857142864
 21
118.0235509143
  0
LINE
  8
1
  6
CONTINUOUS
 62
     7
 10
139.0571428579
 20
121.3731757143
 11
129.4857142864
 21
121.3731757143
  0
LINE
  8
1
  6
CONTINUOUS
 62
     7
 10
139.0571428579
 20
140.0510863571
 11
129.4857142864
 21
140.0510863571
  0
LINE
  8
1
  6
CONTINUOUS
 62
     7
 10
139.0571428579
 20
119.9489136429
 11
129.4857142864
 21
119.9489136429
  0
LINE
  8
1
  6
CONTINUOUS
 62
     7
 10
139.0571428579
 20
122.1217676714
 11
129.4857142864
 21
122.1217676714
  0
LINE
  8
1
  6
CONTINUOUS
 62
     7
 10
139.0571428579
 20
138.6268242857
 11
129.4857142864
 21
138.6268242857
  0
LINE
  8
1
  6
CONTINUOUS
 62
     7
 10
139.0571428579
 20
120.6482280571
 11
129.4857142864
 21
120.6482280571
  0
LINE
  8
1
  6
CONTINUOUS
 62
     7
 10
139.0571428579
 20
146.5437797429
 11
129.4857142864
 21
146.5437797429
  0
LINE
  8
1
  6
CONTINUOUS
 62
     7
 10
139.0571428579
 20
145.9301966143
 11
129.4857142864
 21
145.9301966143
  0
LINE
  8
1
  6
CONTINUOUS
 62
     7
 10
139.0571428579
 20
114.0698033857
 11
129.4857142864
 21
114.0698033857
  0
LINE
  8
1
  6
CONTINUOUS
 62
     7
 10
139.0571428579
 20
113.4562202571
 11
129.4857142864
 21
113.4562202571
  0
LINE
  8
1
  6
CONTINUOUS
 62
     7
 10
139.0571428579
 20
146.3839723
 11
129.4857142864
 21
146.3839723
  0
ARC
  8
1
  6
CONTINUOUS
 62
     7
 10
95.190293137
 20
130.0
 40
10.0696202532
 50
227.665882
 51
282.334118
  0
LINE
  8
1
  6
CONTINUOUS
 62
     7
 10
139.0571428579
 20
113.8207423714
 11
129.4857142864
 21
113.8207423714
  0
ARC
  8
1
  6
CONTINUOUS
 62
     7
 10
95.190293137
 20
130.0
 40
10.0696202532
 50
180.0
 51
222.334118
  0
ARC
  8
1
  6
CONTINUOUS
 62
     7
 10
95.190293137
 20
130.0
 40
10.0696202532
 50
347.665882
 51
42.33411799999999
  0
LINE
  8
1
  6
CONTINUOUS
 62
     7
 10
139.0571428579
 20
142.5548457286
 11
129.4857142864
 21
142.5548457286
  0
LINE
  8
1
  6
CONTINUOUS
 62
     7
 10
139.0571428579
 20
146.1792576286
 11
129.4857142864
 21
146.1792576286
  0
LINE
  8
1
  6
CONTINUOUS
 62
     7
 10
139.0571428579
 20
113.6160277
 11
129.4857142864
 21
113.6160277
  0
LINE
  8
1
  6
CONTINUOUS
 62
     7
 10
139.0571428579
 20
117.4451542714
 11
129.4857142864
 21
117.4451542714
  0
LINE
  8
1
  6
________________
 62
     7
 10
176.5000000169
 20
155.0000000022
 11
178.2310812656
 21
155.0000000022
  0
LINE
  8
1
  6
________________
 62
     7
 10
173.3000000169
 20
146.8000000022
 11
178.7000000169
 21
146.8000000021
  0
LINE
  8
1
  6
________________
 62
     7
 10
180.3250000169
 20
150.1000000022
 11
180.3250000169
 21
152.5000000022
  0
LINE
  8
1
  6
________________
 62
     7
 10
179.7253733127
 20
153.6307336163
 11
179.7455598882
 21
153.4000000022
  0
LINE
  8
1
  6
________________
 62
     7
 10
205.2151075126
 20
146.8000000022
 11
204.9151075126
 21
146.5000000022
  0
LINE
  8
1
  6
________________
 62
     7
 10
210.9151075126
 20
146.5000000021
 11
210.6151075126
 21
146.8000000021
  0
LINE
  8
1
  6
________________
 62
     7
 10
173.0000000165
 20
145.1000000022
 11
173.0000000169
 21
146.5000000022
  0
ARC
  8
1
  6
________________
 62
     7
 10
205.9151075126
 20
156.6166666689
 40
6.8166666667
 50
252.9384687801
 51
287.0615312199
  0
ARC
  8
1
  6
________________
 62
     7
 10
204.2151075126
 20
152.5000000022
 40
0.3
 50
90.0
 51
180.0
  0
LINE
  8
1
  6
________________
 62
     7
 10
207.9151075126
 20
152.5000000022
 11
207.9151075126
 21
150.1000000022
  0
LINE
  8
1
  6
________________
 62
     7
 10
171.9750000169
 20
152.8000000022
 11
180.0250000169
 21
152.8000000022
  0
ARC
  8
1
  6
________________
 62
     7
 10
211.6151075126
 20
152.5000000022
 40
0.3
 50
0.0
 51
90.0
  0
LINE
  8
1
  6
________________
 62
     7
 10
171.9750000169
 20
149.8000000022
 11
180.0250000169
 21
149.8000000022
  0
LINE
  8
1
  6
________________
 62
     7
 10
173.7689187682
 20
155.0000000022
 11
175.5000000169
 21
155.0000000022
  0
LINE
  8
1
  6
________________
 62
     7
 10
205.2151075118
 20
144.8000000022
 11
204.915107512
 21
145.1000000022
  0
LINE
  8
1
  6
________________
 62
     7
 10
172.2544401455
 20
153.4000000022
 11
172.2544401455
 21
152.8000000022
  0
ARC
  8
1
  6
________________
 62
     7
 10
178.2310812656
 20
153.5000000022
 40
1.5
 50
5.0
 51
90.0
  0
LINE
  8
1
  6
________________
 62
     7
 10
176.5000000169
 20
155.0000000022
 11
176.5000000169
 21
154.0000000022
  0
ARC
  8
1
  6
________________
 62
     7
 10
211.6151075126
 20
150.1000000022
 40
0.3
 50
270.0
 51
0.0
  0
ARC
  8
1
  6
________________
 62
     7
 10
204.2151075126
 20
150.1000000022
 40
0.3
 50
180.0
 51
270.0
  0
LINE
  8
1
  6
________________
 62
     7
 10
179.7455598882
 20
152.8000000022
 11
179.7455598882
 21
153.4000000022
  0
LINE
  8
1
  6
________________
 62
     7
 10
171.6750000169
 20
150.1000000022
 11
171.6750000169
 21
152.5000000022
  0
LINE
  8
1
  6
________________
 62
     7
 10
172.274626721
 20
153.6307336163
 11
172.2544401455
 21
153.4000000022
  0
ARC
  8
1
  6
________________
 62
     7
 10
173.7689187682
 20
153.5000000022
 40
1.5
 50
90.0
 51
175.0
  0
LINE
  8
1
  6
________________
 62
     7
 10
176.5000000169
 20
154.0000000022
 11
175.5000000169
 21
154.0000000022
  0
LINE
  8
1
  6
________________
 62
     7
 10
175.5000000169
 20
154.0000000022
 11
175.5000000169
 21
155.0000000022
  0
LINE
  8
1
  6
________________
 62
     7
 10
178.7000000172
 20
144.8000000022
 11
173.3000000164
 21
144.8000000022
  0
LINE
  8
1
  6
________________
 62
     7
 10
210.9151075127
 20
145.1000000022
 11
210.6151075127
 21
144.8000000022
  0
LINE
  8
1
  6
CONTINUOUS
 62
     7
 10
139.0571428579
 20
144.0776983
 11
129.4857142864
 21
144.0776983
  0
LINE
  8
1
  6
CONTINUOUS
 62
     7
 10
139.0571428579
 20
116.3930877286
 11
129.4857142864
 21
116.3930877286
  0
LINE
  8
1
  6
CONTINUOUS
 62
     7
 10
129.4857142864
 20
113.25
 11
140.9714285722
 21
113.25
  0
LINE
  8
1
  6
CONTINUOUS
 62
     7
 10
139.0571428579
 20
115.4901019286
 11
129.4857142864
 21
115.4901019286
  0
LINE
  8
1
  6
CONTINUOUS
 62
     7
 10
139.0571428579
 20
143.6069122714
 11
129.4857142864
 21
143.6069122714
  0
LINE
  8
1
  6
CONTINUOUS
 62
     7
 10
98.2460772383
 20
120.4052396203
 11
98.5130217815
 21
119.4089908717
  0
LINE
  8
1
  6
CONTINUOUS
 62
     7
 10
140.9714285722
 20
146.75
 11
129.4857142864
 21
146.75
  0
LINE
  8
1
  6
CONTINUOUS
 62
     7
 10
139.0571428579
 20
145.3018868857
 11
129.4857142864
 21
145.3018868857
  0
LINE
  8
1
  6
CONTINUOUS
 62
     7
 10
85.1206728838
 20
130.0
 11
84.090293137
 21
130.0
  0
LINE
  8
1
  6
CONTINUOUS
 62
     7
 10
139.0571428579
 20
114.6981131143
 11
129.4857142864
 21
114.6981131143
  0
LINE
  8
1
  6
CONTINUOUS
 62
     7
 10
92.1345090357
 20
139.5947603797
 11
91.8675644925
 21
140.5910091283
  0
LINE
  8
1
  6
CONTINUOUS
 62
     7
 10
105.7813022653
 20
126.6772713555
 11
104.7850535167
 21
126.9442158987
  0
LINE
  8
1
  6
CONTINUOUS
 62
     7
 10
103.3633651395
 20
137.5107186101
 11
102.6340608585
 21
136.7814143291
  0
LINE
  8
1
  6
CONTINUOUS
 62
     7
 10
149.5857142864
 20
113.25
 11
149.5857142864
 21
146.75
  0
LINE
  8
1
  6
CONTINUOUS
 62
     7
 10
87.0172211345
 20
122.4892813899
 11
87.7465254155
 21
123.2185856709
  0
LINE
  8
1
  6
CONTINUOUS
 62
     7
 10
97.6082300118
 20
119.1665526599
 11
97.3412867319
 21
120.1628015696
  0
LINE
  8
1
  6
CONTINUOUS
 62
     7
 10
139.0571428579
 20
145.6374717
 11
129.4857142864
 21
145.6374717
  0
LINE
  8
1
  6
CONTINUOUS
 62
     7
 10
148.1500000007
 20
113.25
 11
151.5000000007
 21
113.25
  0
LINE
  8
1
  6
CONTINUOUS
 62
     7
 10
139.0571428579
 20
114.3625283
 11
129.4857142864
 21
114.3625283
  0
LINE
  8
1
  6
CONTINUOUS
 62
     7
 10
105.0274915674
 20
127.8490064051
 11
106.023740477
 21
127.5820631252
  0
LINE
  8
1
  6
CONTINUOUS
 62
     7
 10
151.5000000007
 20
146.75
 11
148.1500000007
 21
146.75
  0
LINE
  8
1
  6
CONTINUOUS
 62
     7
 10
139.0571428579
 20
115.0756408857
 11
129.4857142864
 21
115.0756408857
  0
LINE
  8
1
  6
CONTINUOUS
 62
     7
 10
88.4088788079
 20
122.5562322785
 11
87.6795745269
 21
121.8269279975
  0
LINE
  8
1
  6
CONTINUOUS
 62
     7
 10
139.0571428579
 20
144.5098980714
 11
129.4857142864
 21
144.5098980714
  0
LINE
  8
1
  6
CONTINUOUS
 62
     7
 10
139.0571428579
 20
144.9243591143
 11
129.4857142864
 21
144.9243591143
  0
LINE
  8
1
  6
CONTINUOUS
 62
     7
 10
139.0571428579
 20
115.9223017
 11
129.4857142864
 21
115.9223017
  0
ARC
  8
1
  6
________________
 62
     7
 10
91.490293137
 20
152.5000000022
 40
0.3
 50
90.0
 51
180.0
  0
ARC
  8
1
  6
________________
 62
     7
 10
98.890293137
 20
150.1000000022
 40
0.3
 50
270.0
 51
0.0
  0
LINE
  8
1
  6
________________
 62
     7
 10
97.690293137
 20
149.8000000022
 11
97.690293137
 21
149.0000000022
  0
LINE
  8
1
  6
________________
 62
     7
 10
92.690293137
 20
149.0000000022
 11
92.690293137
 21
149.8000000022
  0
LINE
  8
1
  6
________________
 62
     7
 10
97.690293137
 20
146.5623820761
 11
97.690293137
 21
146.8000000022
  0
LINE
  8
1
  6
________________
 62
     7
 10
97.690293137
 20
146.8000000022
 11
96.690293137
 21
147.8000000022
  0
LINE
  8
1
  6
________________
 62
     7
 10
96.690293137
 20
146.6827006218
 11
96.690293137
 21
146.8000000022
  0
LINE
  8
1
  6
________________
 62
     7
 10
93.690293137
 20
147.8000000022
 11
96.690293137
 21
147.8000000022
  0
LINE
  8
1
  6
________________
 62
     7
 10
91.190293137
 20
150.1000000022
 11
91.190293137
 21
152.5000000022
  0
LINE
  8
1
  6
________________
 62
     7
 10
95.690293137
 20
146.7425356513
 11
95.690293137
 21
146.8000000022
  0
ARC
  8
1
  6
________________
 62
     7
 10
97.190293137
 20
145.9833333355
 40
6.8166666667
 50
72.9384687801
 51
107.0615312199
  0
ARC
  8
1
  6
________________
 62
     7
 10
93.190293137
 20
145.9833333355
 40
6.8166666667
 50
72.9384687801
 51
107.0615312199
  0
LINE
  8
1
  6
________________
 62
     7
 10
92.690293137
 20
146.8000000022
 11
92.690293137
 21
146.5623820761
  0
ARC
  8
1
  6
________________
 62
     7
 10
97.190293137
 20
156.6166666689
 40
6.8166666667
 50
252.9384687801
 51
287.0615312199
  0
LINE
  8
1
  6
________________
 62
     7
 10
96.690293137
 20
147.8000000022
 11
96.690293137
 21
148.0000000022
  0
LINE
  8
1
  6
________________
 62
     7
 10
97.190293137
 20
146.8000000022
 11
97.190293137
 21
146.6301683706
  0
LINE
  8
1
  6
________________
 62
     7
 10
93.690293137
 20
147.8000000022
 11
93.690293137
 21
148.0000000022
  0
LINE
  8
1
  6
________________
 62
     7
 10
96.690293137
 20
148.0000000022
 11
97.690293137
 21
149.0000000022
  0
LINE
  8
1
  6
________________
 62
     7
 10
96.690293137
 20
148.0000000022
 11
93.690293137
 21
148.0000000022
  0
ARC
  8
1
  6
________________
 62
     7
 10
91.490293137
 20
150.1000000022
 40
0.3
 50
180.0
 51
270.0
  0
LINE
  8
1
  6
________________
 62
     7
 10
92.490293137
 20
146.8000000022
 11
92.190293137
 21
146.5000000022
  0
LINE
  8
1
  6
________________
 62
     7
 10
98.190293137
 20
146.5000000021
 11
97.890293137
 21
146.8000000021
  0
LINE
  8
1
  6
________________
 62
     7
 10
99.190293137
 20
150.1000000022
 11
99.190293137
 21
152.5000000022
  0
LINE
  8
1
  6
________________
 62
     7
 10
96.190293137
 20
146.8000000022
 11
96.190293137
 21
146.7201226083
  0
LINE
  8
1
  6
________________
 62
     7
 10
93.690293137
 20
148.0000000022
 11
92.690293137
 21
149.0000000022
  0
LINE
  8
1
  6
________________
 62
     7
 10
97.690293137
 20
149.0000000022
 11
92.690293137
 21
149.0000000022
  0
LINE
  8
1
  6
________________
 62
     7
 10
94.690293137
 20
146.8000000022
 11
94.690293137
 21
146.7425356513
  0
LINE
  8
1
  6
________________
 62
     7
 10
94.190293137
 20
146.7201226083
 11
94.190293137
 21
146.8000000022
  0
LINE
  8
1
  6
________________
 62
     7
 10
92.690293137
 20
146.8000000022
 11
93.690293137
 21
147.8000000022
  0
ARC
  8
1
  6
________________
 62
     7
 10
98.890293137
 20
152.5000000022
 40
0.3
 50
0.0
 51
90.0
  0
LINE
  8
1
  6
________________
 62
     7
 10
93.690293137
 20
146.8000000022
 11
93.690293137
 21
146.6827006218
  0
LINE
  8
1
  6
________________
 62
     7
 10
92.490293137
 20
146.8000000022
 11
97.890293137
 21
146.8000000021
  0
LINE
  8
1
  6
________________
 62
     7
 10
93.190293137
 20
146.6301683706
 11
93.190293137
 21
146.8000000022
  0
LINE
  8
1
  6
________________
 62
     7
 10
94.690293137
 20
154.0000000022
 11
94.690293137
 21
155.0000000022
  0
ARC
  8
1
  6
________________
 62
     7
 10
93.190293137
 20
156.6166666689
 40
6.8166666667
 50
252.9384687801
 51
287.0615312199
  0
LINE
  8
1
  6
________________
 62
     7
 10
95.190293137
 20
152.5000000022
 11
95.190293137
 21
150.1000000022
  0
LINE
  8
1
  6
CONTINUOUS
 62
     7
 10
129.4857142864
 20
146.7499999999999
 11
118.026895241299
 21
143.6796186906702
  0
ARC
  8
1
  6
CONTINUOUS
 62
     7
 10
118.2857142864
 20
142.7136928643807
 40
1.000000000000008
 50
104.9999999999088
 51
179.9999999999998
  0
LINE
  8
1
  6
CONTINUOUS
 62
     7
 10
117.2857142864
 20
142.7136928643807
 11
117.2857142864
 21
117.2863071356193
  0
ARC
  8
1
  6
CONTINUOUS
 62
     7
 10
118.2857142864
 20
117.2863071356193
 40
1.000000000000001
 50
180.0
 51
255.0000000000907
  0
LINE
  8
1
  6
CONTINUOUS
 62
     7
 10
118.026895241299
 20
116.3203813093298
 11
129.4857142864001
 21
113.2500000000001
  0
TEXT
  8
1
  6
CONTINUOUS
 62
     7
 10
208.2772464093121
 20
103.2985169090909
 40
3.5
  1
ＭＰＥＰ－１４
 41
0.591219
 51
15.0
  0
LINE
  8
1
  6
________________
 62
     7
 10
98.9358530083
 20
152.8000000022
 11
98.9358530083
 21
153.4000000022
  0
LINE
  8
1
  6
________________
 62
     7
 10
178.0155989401
 20
152.5000000022
 11
178.0155989401
 21
150.1000000022
  0
ARC
  8
1
  6
________________
 62
     7
 10
179.1702994785
 20
150.42777778
 40
2.3722222222
 50
60.8722176851
 51
119.1277823149
  0
LINE
  8
1
  6
________________
 62
     7
 10
173.5000000169
 20
146.8000000022
 11
173.5000000169
 21
144.8000000022
  0
ARC
  8
1
  6
________________
 62
     7
 10
172.8297005552
 20
152.1722222244
 40
2.3722222222
 50
240.8722176851
 51
299.1277823149
  0
LINE
  8
1
  6
________________
 62
     7
 10
173.3000000169
 20
146.8000000022
 11
173.0000000169
 21
146.5000000022
  0
ARC
  8
1
  6
________________
 62
     7
 10
171.9750000169
 20
152.5000000022
 40
0.3
 50
90.0
 51
180.0
  0
LINE
  8
1
  6
________________
 62
     7
 10
176.0000000169
 20
144.8000000022
 11
176.0000000169
 21
146.8000000022
  0
LINE
  8
1
  6
________________
 62
     7
 10
92.9592118883
 20
155.0000000022
 11
94.690293137
 21
155.0000000022
  0
LINE
  8
1
  6
________________
 62
     7
 10
174.5000000169
 20
147.8000000022
 11
177.5000000169
 21
147.8000000022
  0
ARC
  8
1
  6
________________
 62
     7
 10
171.9750000169
 20
150.1000000022
 40
0.3
 50
180.0
 51
270.0
  0
LINE
  8
1
  6
________________
 62
     7
 10
98.9156664328
 20
153.6307336163
 11
98.9358530083
 21
153.4000000022
  0
LINE
  8
1
  6
________________
 62
     7
 10
95.690293137
 20
155.0000000022
 11
97.4213743857
 21
155.0000000022
  0
LINE
  8
1
  6
________________
 62
     7
 10
177.5000000169
 20
144.8000000022
 11
177.5000000169
 21
146.8000000022
  0
LINE
  8
1
  6
________________
 62
     7
 10
177.5000000169
 20
148.0000000022
 11
178.5000000169
 21
149.0000000022
  0
ARC
  8
1
  6
________________
 62
     7
 10
176.0000000169
 20
145.8789349699
 40
6.9210650323
 50
73.0685890193
 51
106.9314109807
  0
LINE
  8
1
  6
________________
 62
     7
 10
177.5000000169
 20
147.8000000022
 11
177.5000000169
 21
148.0000000022
  0
ARC
  8
1
  6
________________
 62
     7
 10
180.0250000169
 20
152.5000000022
 40
0.3
 50
0.0
 51
90.0
  0
CIRCLE
  8
1
  6
CONTINUOUS
 62
     7
 10
95.190293137
 20
130.0
 40
16.750000001
  0
LINE
  8
1
  6
________________
 62
     7
 10
177.5000000169
 20
148.0000000022
 11
174.5000000169
 21
148.0000000022
  0
LINE
  8
1
  6
________________
 62
     7
 10
173.5000000169
 20
149.0000000022
 11
173.5000000169
 21
149.8000000022
  0
LINE
  8
1
  6
________________
 62
     7
 10
178.5000000169
 20
146.8000000022
 11
177.5000000169
 21
147.8000000022
  0
LINE
  8
1
  6
________________
 62
     7
 10
173.9844010936
 20
150.1000000022
 11
173.9844010936
 21
152.5000000022
  0
LINE
  8
1
  6
________________
 62
     7
 10
179.0000000172
 20
145.1000000022
 11
178.7000000172
 21
144.8000000022
  0
ARC
  8
1
  6
CONTINUOUS
 62
     7
 10
207.9151075126
 20
130.0
 40
16.75
 50
100.3176025347
 51
79.68239748320002
  0
LINE
  8
1
  6
________________
 62
     7
 10
173.0000000165
 20
145.1000000022
 11
173.3000000164
 21
144.8000000022
  0
LINE
  8
1
  6
________________
 62
     7
 10
91.490293137
 20
152.8000000022
 11
98.890293137
 21
152.8000000022
  0
LINE
  8
1
  6
________________
 62
     7
 10
178.5000000169
 20
149.8000000022
 11
178.5000000169
 21
149.0000000022
  0
LINE
  8
1
  6
________________
 62
     7
 10
91.4649198411
 20
153.6307336163
 11
91.4447332656
 21
153.4000000022
  0
LINE
  8
1
  6
________________
 62
     7
 10
174.5000000169
 20
147.8000000022
 11
174.5000000169
 21
148.0000000022
  0
ARC
  8
1
  6
________________
 62
     7
 10
97.4213743857
 20
153.5000000022
 40
1.5
 50
5.0
 51
90.0
  0
LINE
  8
1
  6
________________
 62
     7
 10
95.690293137
 20
155.0000000022
 11
95.690293137
 21
154.0000000022
  0
LINE
  8
1
  6
________________
 62
     7
 10
95.690293137
 20
154.0000000022
 11
94.690293137
 21
154.0000000022
  0
LINE
  8
1
  6
________________
 62
     7
 10
176.5000000169
 20
144.8000000022
 11
176.5000000169
 21
146.8000000022
  0
LINE
  8
1
  6
________________
 62
     7
 10
178.5000000169
 20
149.0000000022
 11
173.5000000169
 21
149.0000000022
  0
LINE
  8
1
  6
________________
 62
     7
 10
91.4447332656
 20
153.4000000022
 11
91.4447332656
 21
152.8000000022
  0
ARC
  8
1
  6
________________
 62
     7
 10
92.9592118883
 20
153.5000000022
 40
1.5
 50
90.0
 51
175.0
  0
ARC
  8
1
  6
________________
 62
     7
 10
179.1702994785
 20
152.1722222244
 40
2.3722222222
 50
240.8722176851
 51
299.1277823149
  0
LINE
  8
1
  6
________________
 62
     7
 10
177.0000000169
 20
146.8000000022
 11
177.0000000169
 21
144.8000000022
  0
LINE
  8
1
  6
________________
 62
     7
 10
175.5000000169
 20
146.8000000022
 11
175.5000000169
 21
144.8000000022
  0
LINE
  8
1
  6
________________
 62
     7
 10
174.5000000169
 20
146.8000000022
 11
174.5000000169
 21
144.8000000022
  0
LINE
  8
1
  6
________________
 62
     7
 10
174.5000000169
 20
148.0000000022
 11
173.5000000169
 21
149.0000000022
  0
LINE
  8
1
  6
________________
 62
     7
 10
179.0000000169
 20
146.5000000021
 11
178.7000000169
 21
146.8000000021
  0
LINE
  8
1
  6
________________
 62
     7
 10
175.0000000169
 20
144.8000000022
 11
175.0000000169
 21
146.8000000022
  0
LINE
  8
1
  6
________________
 62
     7
 10
174.0000000169
 20
144.8000000022
 11
174.0000000169
 21
146.8000000022
  0
ARC
  8
1
  6
________________
 62
     7
 10
172.8297005552
 20
150.42777778
 40
2.3722222222
 50
60.8722176851
 51
119.1277823149
  0
LINE
  8
1
  6
________________
 62
     7
 10
173.5000000169
 20
146.8000000022
 11
174.5000000169
 21
147.8000000022
  0
LINE
  8
1
  6
________________
 62
     7
 10
179.0000000169
 20
146.5000000021
 11
179.0000000172
 21
145.1000000022
  0
LINE
  8
1
  6
________________
 62
     7
 10
91.490293137
 20
149.8000000022
 11
98.890293137
 21
149.8000000022
  0
ARC
  8
1
  6
________________
 62
     7
 10
180.0250000169
 20
150.1000000022
 40
0.3
 50
270.0
 51
0.0
  0
ARC
  8
1
  6
________________
 62
     7
 10
176.0000000169
 20
156.7210650345
 40
6.9210650323
 50
253.0685890193
 51
286.9314109807
  0
LINE
  8
1
  6
________________
 62
     7
 10
178.5000000169
 20
144.8000000022
 11
178.5000000169
 21
146.8000000022
  0
LINE
  8
1
  6
________________
 62
     7
 10
178.0000000169
 20
146.8000000022
 11
178.0000000169
 21
144.8000000022
  0
ARC
  8
1
  6
CONTINUOUS
 62
     7
 10
95.1904683015
 20
129.9999147595
 40
8.6475641266
 50
179.9994352258
 51
359.461852
  0
CIRCLE
  8
1
  6
CONTINUOUS
 62
     7
 10
95.190293137
 20
130.0
 40
7.5405063291
  0
LINE
  8
1
  6
CONTINUOUS
 62
     7
 10
87.6497868079
 20
130.0
 11
86.5425491623
 21
130.0
  0
ARC
  8
1
  6
CONTINUOUS
 62
     7
 10
95.190293137
 20
130.0
 40
10.0696202532
 50
107.665882
 51
150.0
  0
ARC
  8
1
  6
CONTINUOUS
 62
     7
 10
95.190293137
 20
130.0
 40
10.0696202532
 50
47.66588200000001
 51
102.334118
  0
LINE
  8
1
  6
CONTINUOUS
 62
     7
 10
102.7307994661
 20
130.0
 11
103.8380371117
 21
130.0
  0
LINE
  8
1
  6
CONTINUOUS
 62
     7
 10
101.9717074661
 20
137.4437677215
 11
102.7010117471
 21
138.1730720025
  0
ARC
  8
1
  6
CONTINUOUS
 62
     7
 10
95.190293137
 20
130.0
 40
10.0696202532
 50
287.665882
 51
342.334118
  0
LINE
  8
1
  6
CONTINUOUS
 62
     7
 10
103.8376511876
 20
129.9186946076
 11
103.8384211623
 21
130.0810515443
  0
LINE
  8
1
  6
CONTINUOUS
 62
     7
 10
92.7723562622
 20
140.8334473401
 11
93.0392995421
 21
139.8371984304
  0
LINE
  8
1
  6
CONTINUOUS
 62
     7
 10
86.4697462762
 20
135.0348101266
 11
85.5774111876
 21
135.55
  0
LINE
  8
1
  6
CONTINUOUS
 62
     7
 10
86.542971618
 20
130.0876075696
 11
86.5420377193
 21
129.8937210127
  0
CIRCLE
  8
1
  6
CONTINUOUS
 62
     7
 10
95.190293137
 20
130.0
 40
9.7417721519
  0
ENDSEC
  0
EOF
