  0
SECTION
  2
HEADER
  9
$ACADVER
  1
AC1004
  9
$INSBASE
 10
0.0
 20
0.0
  9
$EXTMIN
 10
-100.0
 20
-5.0
  9
$EXTMAX
 10
160.2036011113
 20
154.414328208
  9
$LIMMIN
 10
0.0
 20
0.0
  9
$LIMMAX
 10
12.0
 20
9.0
  9
$ORTHOMODE
 70
     0
  9
$REGENMODE
 70
     1
  9
$FILLMODE
 70
     1
  9
$QTEXTMODE
 70
     0
  9
$DRAGMODE
 70
     2
  9
$LTSCALE
 40
1.0
  9
$OSMODE
 70
    37
  9
$ATTMODE
 70
     1
  9
$TEXTSIZE
 40
0.2
  9
$TRACEWID
 40
0.05
  9
$TEXTSTYLE
  7
STANDARD
  9
$CLAYER
  8
0
  9
$CELTYPE
  6
BYLAYER
  9
$CECOLOR
 62
   256
  9
$DIMSCALE
 40
1.0
  9
$DIMASZ
 40
1.5
  9
$DIMEXO
 40
0.0625
  9
$DIMDLI
 40
0.38
  9
$DIMRND
 40
0.0
  9
$DIMDLE
 40
0.0
  9
$DIMEXE
 40
0.75
  9
$DIMTP
 40
0.0
  9
$DIMTM
 40
0.0
  9
$DIMTXT
 40
3.5
  9
$DIMCEN
 40
0.09
  9
$DIMTSZ
 40
0.0
  9
$DIMTOL
 70
     0
  9
$DIMLIM
 70
     0
  9
$DIMTIH
 70
     1
  9
$DIMTOH
 70
     1
  9
$DIMSE1
 70
     0
  9
$DIMSE2
 70
     0
  9
$DIMTAD
 70
     1
  9
$DIMZIN
 70
     0
  9
$DIMBLK
  1

  9
$DIMASO
 70
     1
  9
$DIMSHO
 70
     1
  9
$DIMPOST
  1

  9
$DIMAPOST
  1

  9
$DIMALT
 70
     0
  9
$DIMALTD
 70
     2
  9
$DIMALTF
 40
25.4
  9
$DIMLFAC
 40
1.0
  9
$DIMTOFL
 70
     0
  9
$DIMTVP
 40
0.0
  9
$DIMTIX
 70
     0
  9
$DIMSOXD
 70
     0
  9
$DIMSAH
 70
     0
  9
$DIMBLK1
  1

  9
$DIMBLK2
  1

  9
$LUNITS
 70
     2
  9
$LUPREC
 70
     4
  9
$SKETCHINC
 40
0.1
  9
$FILLETRAD
 40
0.5
  9
$AUNITS
 70
     0
  9
$AUPREC
 70
     0
  9
$MENU
  1
.
  9
$ELEVATION
 40
0.0
  9
$THICKNESS
 40
0.0
  9
$LIMCHECK
 70
     0
  9
$CHAMFERA
 40
0.0
  9
$CHAMFERB
 40
0.0
  9
$SKPOLY
 70
     0
  9
$TDCREATE
 40
2459048.478715428
  9
$TDUPDATE
 40
2459048.478715613
  9
$TDINDWG
 40
0.0000000116
  9
$TDUSRTIMER
 40
0.0000000116
  9
$USRTIMER
 70
     1
  9
$ANGBASE
 50
0.0
  9
$ANGDIR
 70
     0
  9
$PDMODE
 70
     0
  9
$PDSIZE
 40
0.0
  9
$PLINEWID
 40
0.0
  9
$COORDS
 70
     1
  9
$SPLFRAME
 70
     0
  9
$SPLINETYPE
 70
     6
  9
$SPLINESEGS
 70
     8
  9
$ATTDIA
 70
     0
  9
$ATTREQ
 70
     1
  9
$SURFTAB1
 70
     6
  9
$SURFTAB2
 70
     6
  9
$SURFTYPE
 70
     6
  9
$SURFU
 70
     6
  9
$SURFV
 70
     6
  9
$UCSNAME
  2

  9
$UCSORG
 10
0.0
 20
0.0
 30
0.0
  9
$UCSXDIR
 10
1.0
 20
0.0
 30
0.0
  9
$UCSYDIR
 10
0.0
 20
1.0
 30
0.0
  9
$USERI1
 70
     0
  9
$USERI2
 70
     0
  9
$USERI3
 70
     0
  9
$USERI4
 70
     0
  9
$USERI5
 70
     0
  9
$USERR1
 40
0.0
  9
$USERR2
 40
0.0
  9
$USERR3
 40
0.0
  9
$USERR4
 40
0.0
  9
$USERR5
 40
0.0
  9
$WORLDVIEW
 70
     1
  0
ENDSEC
  0
SECTION
  2
TABLES
  0
TABLE
  2
LTYPE
 70
     3
  0
LTYPE
  2
CONTINUOUS
 70
     0
  3
Solid line
 72
    65
 73
     0
 40
0.0
  0
LTYPE
  2
________________
 70
     0
  3

 72
    65
 73
     6
 40
6.000000030000298
 49
1.714285714285714
 49
-0.857142857142857
 49
1.714285714285714
 49
-0.857142857142857
 49
0.0000000300003
 49
-0.857142857142857
  0
LTYPE
  2
CENTER
 70
     0
  3

 72
    65
 73
     0
 40
0.0
  0
ENDTAB
  0
TABLE
  2
LAYER
 70
     2
  0
LAYER
  2
0
 70
     0
 62
     7
  6
CONTINUOUS
  0
LAYER
  2
1
 70
     0
 62
     7
  6
CONTINUOUS
  0
ENDTAB
  0
TABLE
  2
STYLE
 70
     2
  0
STYLE
  2
STANDARD
 70
     0
 40
0.0
 41
1.0
 50
0.0
 71
     0
 42
0.2
  3
txt
  4

  0
STYLE
  2
ＭＳ_ゴシック
 70
     0
 40
0.0
 41
1.0
 50
0.0
 71
     0
 42
0.2
  3
ＭＳ ゴシック.shx
  4

  0
ENDTAB
  0
TABLE
  2
VIEW
 70
     0
  0
ENDTAB
  0
ENDSEC
  0
SECTION
  2
BLOCKS
  0
ENDSEC
  0
SECTION
  2
ENTITIES
  0
TEXT
  8
1
  6
CONTINUOUS
 62
     7
 10
139.9071161230323
 20
91.4336429090909
 40
3.5
  1
ＭＰＥＰ－２２
 41
0.636384
 51
15.0
  0
LINE
  8
1
  6
________________
 62
     7
 10
139.7756350096
 20
144.214328208
 11
139.7756350096
 21
144.414328208
  0
LINE
  8
1
  6
________________
 62
     7
 10
139.7756350096
 20
144.414328208
 11
140.7756350096
 21
145.414328208
  0
ARC
  8
1
  6
________________
 62
     7
 10
140.2756350096
 20
153.0309948747
 40
6.8166666667
 50
252.9384687801
 51
287.0615312199
  0
LINE
  8
1
  6
________________
 62
     7
 10
141.2756350096
 20
142.9143282079
 11
141.2756350097
 21
141.5143282081
  0
LINE
  8
1
  6
________________
 62
     7
 10
136.7756350096
 20
143.214328208
 11
136.7756350096
 21
141.214328208
  0
LINE
  8
1
  6
________________
 62
     7
 10
136.7756350096
 20
144.214328208
 11
139.7756350096
 21
144.214328208
  0
ARC
  8
1
  6
________________
 62
     7
 10
141.9756350096
 20
148.914328208
 40
0.3
 50
0.0
 51
90.0
  0
LINE
  8
1
  6
________________
 62
     7
 10
135.7756350096
 20
145.414328208
 11
135.7756350096
 21
146.214328208
  0
ARC
  8
1
  6
________________
 62
     7
 10
141.9756350096
 20
146.514328208
 40
0.3
 50
270.0
 51
0.0
  0
LINE
  8
1
  6
________________
 62
     7
 10
138.2756350096
 20
148.914328208
 11
138.2756350096
 21
146.514328208
  0
LINE
  8
1
  6
________________
 62
     7
 10
135.5756350096
 20
143.214328208
 11
135.2756350096
 21
142.914328208
  0
LINE
  8
1
  6
________________
 62
     7
 10
134.2756350096
 20
146.514328208
 11
134.2756350096
 21
148.914328208
  0
LINE
  8
1
  6
________________
 62
     7
 10
141.2756350097
 20
141.5143282081
 11
140.9756350097
 21
141.2143282081
  0
LINE
  8
1
  6
________________
 62
     7
 10
135.275635009
 20
141.514328208
 11
135.2756350096
 21
142.914328208
  0
LINE
  8
1
  6
________________
 62
     7
 10
137.7756350096
 20
143.214328208
 11
137.7756350096
 21
141.214328208
  0
LINE
  8
1
  6
________________
 62
     7
 10
135.7756350096
 20
143.214328208
 11
136.7756350096
 21
144.214328208
  0
LINE
  8
1
  6
________________
 62
     7
 10
139.7756350096
 20
144.414328208
 11
136.7756350096
 21
144.414328208
  0
LINE
  8
1
  6
________________
 62
     7
 10
142.2756350096
 20
146.514328208
 11
142.2756350096
 21
148.914328208
  0
LINE
  8
1
  6
________________
 62
     7
 10
136.7756350096
 20
144.214328208
 11
136.7756350096
 21
144.414328208
  0
LINE
  8
1
  6
________________
 62
     7
 10
135.7756350096
 20
143.214328208
 11
135.7756350096
 21
141.214328208
  0
ARC
  8
1
  6
________________
 62
     7
 10
140.2756350096
 20
142.3976615414
 40
6.8166666667
 50
72.9384687801
 51
107.0615312199
  0
LINE
  8
1
  6
________________
 62
     7
 10
135.5756350088
 20
141.214328208
 11
135.275635009
 21
141.514328208
  0
LINE
  8
1
  6
________________
 62
     7
 10
104.6951639028
 20
146.514328208
 11
104.6951639028
 21
148.914328208
  0
LINE
  8
1
  6
________________
 62
     7
 10
140.2756350096
 20
143.214328208
 11
140.2756350096
 21
141.214328208
  0
LINE
  8
1
  6
________________
 62
     7
 10
136.7756350096
 20
144.414328208
 11
135.7756350096
 21
145.414328208
  0
ARC
  8
1
  6
________________
 62
     7
 10
134.5756350096
 20
146.514328208
 40
0.3
 50
180.0
 51
270.0
  0
LINE
  8
1
  6
________________
 62
     7
 10
96.3451639028
 20
149.214328208
 11
104.3951639028
 21
149.214328208
  0
LINE
  8
1
  6
________________
 62
     7
 10
96.3451639028
 20
146.214328208
 11
104.3951639028
 21
146.214328208
  0
ARC
  8
1
  6
________________
 62
     7
 10
134.5756350096
 20
148.914328208
 40
0.3
 50
90.0
 51
180.0
  0
LINE
  8
1
  6
________________
 62
     7
 10
104.1157237741
 20
149.214328208
 11
104.1157237741
 21
149.814328208
  0
LINE
  8
1
  6
________________
 62
     7
 10
141.2756350096
 20
142.9143282079
 11
140.9756350096
 21
143.2143282079
  0
ARC
  8
1
  6
________________
 62
     7
 10
136.2756350096
 20
142.3976615414
 40
6.8166666667
 50
72.9384687801
 51
107.0615312199
  0
LINE
  8
1
  6
________________
 62
     7
 10
104.0955371986
 20
150.0450618222
 11
104.1157237741
 21
149.814328208
  0
LINE
  8
1
  6
________________
 62
     7
 10
98.1390826541
 20
151.414328208
 11
99.8701639028
 21
151.414328208
  0
ARC
  8
1
  6
________________
 62
     7
 10
136.2756350096
 20
153.0309948747
 40
6.8166666667
 50
252.9384687801
 51
287.0615312199
  0
LINE
  8
1
  6
________________
 62
     7
 10
96.0451639028
 20
146.514328208
 11
96.0451639028
 21
148.914328208
  0
LINE
  8
1
  6
________________
 62
     7
 10
100.8701639028
 20
151.414328208
 11
102.6012451515
 21
151.414328208
  0
LINE
  8
1
  6
________________
 62
     7
 10
96.6447906069
 20
150.0450618222
 11
96.6246040314
 21
149.814328208
  0
LINE
  8
1
  6
________________
 62
     7
 10
96.6246040314
 20
149.814328208
 11
96.6246040314
 21
149.214328208
  0
LINE
  8
1
  6
________________
 62
     7
 10
138.7756350096
 20
150.414328208
 11
137.7756350096
 21
150.414328208
  0
LINE
  8
1
  6
________________
 62
     7
 10
137.7756350096
 20
150.414328208
 11
137.7756350096
 21
151.414328208
  0
LINE
  8
1
  6
________________
 62
     7
 10
140.9756350097
 20
141.2143282081
 11
135.5756350088
 21
141.214328208
  0
LINE
  8
1
  6
________________
 62
     7
 10
139.7756350096
 20
141.214328208
 11
139.7756350096
 21
143.214328208
  0
LINE
  8
1
  6
________________
 62
     7
 10
139.2756350096
 20
143.214328208
 11
139.2756350096
 21
141.214328208
  0
LINE
  8
1
  6
________________
 62
     7
 10
135.5756350096
 20
143.214328208
 11
140.9756350096
 21
143.2143282079
  0
LINE
  8
1
  6
________________
 62
     7
 10
140.7756350096
 20
141.214328208
 11
140.7756350096
 21
143.214328208
  0
LINE
  8
1
  6
________________
 62
     7
 10
138.7756350096
 20
141.214328208
 11
138.7756350096
 21
143.214328208
  0
LINE
  8
1
  6
________________
 62
     7
 10
137.2756350096
 20
141.214328208
 11
137.2756350096
 21
143.214328208
  0
LINE
  8
1
  6
________________
 62
     7
 10
136.2756350096
 20
141.214328208
 11
136.2756350096
 21
143.214328208
  0
LINE
  8
1
  6
________________
 62
     7
 10
140.7756350096
 20
146.214328208
 11
140.7756350096
 21
145.414328208
  0
LINE
  8
1
  6
________________
 62
     7
 10
140.7756350096
 20
145.414328208
 11
135.7756350096
 21
145.414328208
  0
LINE
  8
1
  6
________________
 62
     7
 10
140.7756350096
 20
143.214328208
 11
139.7756350096
 21
144.214328208
  0
CIRCLE
  8
1
  6
CONTINUOUS
 62
     7
 10
-11.4943164663
 20
123.2644192059
 40
13.0742857143
  0
LINE
  8
1
  6
CONTINUOUS
 62
     7
 10
-21.6143164663
 20
123.2644192059
 11
-23.1003234377
 21
123.2644192059
  0
ARC
  8
1
  6
CONTINUOUS
 62
     7
 10
-11.4943164663
 20
123.2644192059
 40
13.5142857143
 50
107.665882
 51
150.0
  0
ARC
  8
1
  6
CONTINUOUS
 62
     7
 10
-11.4943164663
 20
123.2644192059
 40
13.5142857143
 50
47.66588200000001
 51
102.334118
  0
LINE
  8
1
  6
CONTINUOUS
 62
     7
 10
-1.3743164663
 20
123.2644192059
 11
0.1116905051999999
 21
123.2644192059
  0
LINE
  8
1
  6
CONTINUOUS
 62
     7
 10
0.1111725623
 20
123.155300463
 11
0.1122059337
 21
123.373197263
  0
LINE
  8
1
  6
CONTINUOUS
 62
     7
 10
-23.0997564663
 20
123.3819960059
 11
-23.1010098377
 21
123.1217837773
  0
CIRCLE
  8
1
  6
CONTINUOUS
 62
     7
 10
138.2756350096
 20
123.2643282059
 40
16.45
  0
CIRCLE
  8
1
  6
CONTINUOUS
 62
     7
 10
-11.4940813806
 20
123.2644192059
 40
10.45
  0
LINE
  8
1
  6
________________
 62
     7
 10
-15.2398763377
 20
149.814419208
 11
-15.2398763377
 21
149.214419208
  0
LINE
  8
1
  6
CENTER
 62
     7
 10
-11.4940813806
 20
148.8269224984
 11
-11.4940813806
 21
96.419911694
  0
LINE
  8
1
  6
________________
 62
     7
 10
-15.4943164663
 20
146.514419208
 11
-15.4943164663
 21
148.914419208
  0
LINE
  8
1
  6
________________
 62
     7
 10
-13.7303850323
 20
145.150487774
 11
-13.9943164663
 21
145.414419208
  0
ARC
  8
1
  6
________________
 62
     7
 10
-7.7943164663
 20
148.914419208
 40
0.3
 50
0.0
 51
90.0
  0
ARC
  8
1
  6
CONTINUOUS
 62
     7
 10
133.56223946
 20
139.5458024141
 40
0.5
 50
286.1454337462
 51
337.9999999983
  0
LINE
  8
1
  6
CONTINUOUS
 62
     7
 10
-22.4632733314
 20
113.184396855
 11
-21.4844850377
 21
114.1631851488
  0
LINE
  8
1
  6
CONTINUOUS
 62
     7
 10
1.7080394194
 20
120.3776030916
 11
3.0450900797
 21
120.0193425353
  0
ARC
  8
1
  6
________________
 62
     7
 10
-13.4943164663
 20
153.0310858747
 40
6.8166666667
 50
252.9384687801
 51
287.0615312199
  0
ARC
  8
1
  6
CONTINUOUS
 62
     7
 10
95.9268703056
 20
140.2143282059
 40
0.5
 50
270.0
 51
338.0000000029
  0
LINE
  8
1
  6
________________
 62
     7
 10
-11.9943164663
 20
150.414419208
 11
-11.9943164663
 21
151.414419208
  0
LINE
  8
1
  6
________________
 62
     7
 10
-7.7689431705
 20
150.0451528222
 11
-7.748756595
 21
149.814419208
  0
ARC
  8
1
  6
________________
 62
     7
 10
-7.7943164663
 20
146.514419208
 40
0.3
 50
270.0
 51
0.0
  0
ARC
  8
1
  6
CONTINUOUS
 62
     7
 10
142.9890305591
 20
139.5458024142
 40
0.5
 50
201.9999999994
 51
253.8545662541
  0
LINE
  8
1
  6
________________
 62
     7
 10
-15.2196897622
 20
150.0451528222
 11
-15.2398763377
 21
149.814419208
  0
CIRCLE
  8
1
  6
CONTINUOUS
 62
     7
 10
-11.4943164663
 20
123.2644192059
 40
14.8971428571
  0
LINE
  8
1
  6
________________
 62
     7
 10
-15.1943164663
 20
149.214419208
 11
-7.7943164663
 21
149.214419208
  0
CIRCLE
  8
1
  6
CONTINUOUS
 62
     7
 10
-11.4943164663
 20
123.2644192059
 40
22.0
  0
LINE
  8
1
  6
________________
 62
     7
 10
-15.1943164663
 20
146.214419208
 11
-7.7943164663
 21
146.214419208
  0
LINE
  8
1
  6
________________
 62
     7
 10
-10.9943164663
 20
151.414419208
 11
-9.2632352176
 21
151.414419208
  0
LINE
  8
1
  6
________________
 62
     7
 10
-10.9943164663
 20
151.414419208
 11
-10.9943164663
 21
150.414419208
  0
LINE
  8
1
  6
________________
 62
     7
 10
-10.9943164663
 20
150.414419208
 11
-11.9943164663
 21
150.414419208
  0
ARC
  8
1
  6
________________
 62
     7
 10
-9.4943164663
 20
142.3977525414
 40
6.8166666667
 50
72.9384687801
 51
107.0615312199
  0
LINE
  8
1
  6
________________
 62
     7
 10
-13.725397715
 20
151.414419208
 11
-11.9943164663
 21
151.414419208
  0
ARC
  8
1
  6
CONTINUOUS
 62
     7
 10
104.8134574999
 20
140.2143282059
 40
0.5
 50
202.0000000007
 51
270.0
  0
ARC
  8
1
  6
________________
 62
     7
 10
-9.4943164663
 20
153.0310858747
 40
6.8166666667
 50
252.9384687801
 51
287.0615312199
  0
ARC
  8
1
  6
________________
 62
     7
 10
-13.4943164663
 20
142.3977525414
 40
6.8166666667
 50
72.9384687801
 51
107.0615312199
  0
LINE
  8
1
  6
CONTINUOUS
 62
     7
 10
-8.2492397956
 20
108.7250126599
 11
-8.607500352
 21
110.0620633202
  0
ARC
  8
1
  6
________________
 62
     7
 10
-9.2632352176
 20
149.914419208
 40
1.5
 50
5.0
 51
90.0
  0
LINE
  8
1
  6
________________
 62
     7
 10
-7.748756595
 20
149.214419208
 11
-7.748756595
 21
149.814419208
  0
LINE
  8
1
  6
________________
 62
     7
 10
-8.9943164663
 20
146.214419208
 11
-8.9943164663
 21
145.414419208
  0
LINE
  8
1
  6
________________
 62
     7
 10
-9.2582479003
 20
145.150487774
 11
-8.9943164663
 21
145.414419208
  0
LINE
  8
1
  6
________________
 62
     7
 10
-8.9943164663
 20
145.414419208
 11
-13.9943164663
 21
145.414419208
  0
LINE
  8
1
  6
CONTINUOUS
 62
     7
 10
-20.5955505234
 20
113.2742506345
 11
-21.5743388172
 21
112.2954623407
  0
LINE
  8
1
  6
________________
 62
     7
 10
-13.9943164663
 20
145.414419208
 11
-13.9943164663
 21
146.214419208
  0
LINE
  8
1
  6
________________
 62
     7
 10
-7.4943164663
 20
146.514419208
 11
-7.4943164663
 21
148.914419208
  0
LINE
  8
1
  6
CONTINUOUS
 62
     7
 10
-0.5253596011
 20
133.3444415568
 11
-1.5041478948
 21
132.365653263
  0
ARC
  8
1
  6
________________
 62
     7
 10
-15.1943164663
 20
148.914419208
 40
0.3
 50
90.0
 51
180.0
  0
LINE
  8
1
  6
CONTINUOUS
 62
     7
 10
-25.0086021806
 20
123.2644192059
 11
-26.3914593234
 21
123.2644192059
  0
LINE
  8
1
  6
CENTER
 62
     7
 10
14.2095010607
 20
123.2644192059
 11
-37.7495865743
 21
123.2644192059
  0
ARC
  8
1
  6
________________
 62
     7
 10
-13.725397715
 20
149.914419208
 40
1.5
 50
90.0
 51
175.0
  0
ARC
  8
1
  6
________________
 62
     7
 10
-15.1943164663
 20
146.514419208
 40
0.3
 50
180.0
 51
270.0
  0
CIRCLE
  8
1
  6
CONTINUOUS
 62
     7
 10
-11.4940813806
 20
123.2644192059
 40
15.75
  0
LINE
  8
1
  6
________________
 62
     7
 10
-11.4943164663
 20
148.914419208
 11
-11.4943164663
 21
146.514419208
  0
LINE
  8
1
  6
________________
 62
     7
 10
98.8701639028
 20
144.214328208
 11
98.8701639028
 21
144.414328208
  0
LINE
  8
1
  6
________________
 62
     7
 10
97.3701639024
 20
141.514328208
 11
97.3701639028
 21
142.914328208
  0
LINE
  8
1
  6
________________
 62
     7
 10
102.8701639028
 20
145.414328208
 11
97.8701639028
 21
145.414328208
  0
LINE
  8
1
  6
________________
 62
     7
 10
102.3701639028
 20
143.214328208
 11
102.3701639028
 21
141.214328208
  0
LINE
  8
1
  6
________________
 62
     7
 10
102.8701639028
 20
141.214328208
 11
102.8701639028
 21
143.214328208
  0
LINE
  8
1
  6
________________
 62
     7
 10
98.8701639028
 20
144.414328208
 11
97.8701639028
 21
145.414328208
  0
LINE
  8
1
  6
________________
 62
     7
 10
100.8701639028
 20
151.414328208
 11
100.8701639028
 21
150.414328208
  0
LINE
  8
1
  6
________________
 62
     7
 10
103.3701639028
 20
142.914328208
 11
103.3701639031
 21
141.5143282081
  0
LINE
  8
1
  6
________________
 62
     7
 10
100.8701639028
 20
150.414328208
 11
99.8701639028
 21
150.414328208
  0
ARC
  8
1
  6
________________
 62
     7
 10
102.6012451515
 20
149.914328208
 40
1.5
 50
5.0
 51
90.0
  0
LINE
  8
1
  6
________________
 62
     7
 10
103.0701639031
 20
141.2143282081
 11
97.6701639023
 21
141.214328208
  0
LINE
  8
1
  6
________________
 62
     7
 10
101.8701639028
 20
141.214328208
 11
101.8701639028
 21
143.214328208
  0
LINE
  8
1
  6
________________
 62
     7
 10
99.8701639028
 20
150.414328208
 11
99.8701639028
 21
151.414328208
  0
LINE
  8
1
  6
________________
 62
     7
 10
100.8701639028
 20
141.214328208
 11
100.8701639028
 21
143.214328208
  0
LINE
  8
1
  6
________________
 62
     7
 10
99.8701639028
 20
143.214328208
 11
99.8701639028
 21
141.214328208
  0
LINE
  8
1
  6
________________
 62
     7
 10
97.8701639028
 20
143.214328208
 11
97.8701639028
 21
141.214328208
  0
LINE
  8
1
  6
________________
 62
     7
 10
101.3701639028
 20
143.214328208
 11
101.3701639028
 21
141.214328208
  0
LINE
  8
1
  6
________________
 62
     7
 10
97.8701639028
 20
143.214328208
 11
98.8701639028
 21
144.214328208
  0
LINE
  8
1
  6
________________
 62
     7
 10
102.8701639028
 20
143.214328208
 11
101.8701639028
 21
144.214328208
  0
LINE
  8
1
  6
________________
 62
     7
 10
101.8701639028
 20
144.214328208
 11
101.8701639028
 21
144.414328208
  0
LINE
  8
1
  6
________________
 62
     7
 10
99.3701639028
 20
141.214328208
 11
99.3701639028
 21
143.214328208
  0
LINE
  8
1
  6
________________
 62
     7
 10
98.8701639028
 20
143.214328208
 11
98.8701639028
 21
141.214328208
  0
ARC
  8
1
  6
________________
 62
     7
 10
98.1390826541
 20
149.914328208
 40
1.5
 50
90.0
 51
175.0
  0
LINE
  8
1
  6
________________
 62
     7
 10
97.6701639028
 20
143.214328208
 11
103.0701639028
 21
143.214328208
  0
LINE
  8
1
  6
________________
 62
     7
 10
98.3701639028
 20
141.214328208
 11
98.3701639028
 21
143.214328208
  0
LINE
  8
1
  6
________________
 62
     7
 10
102.8701639028
 20
146.214328208
 11
102.8701639028
 21
145.414328208
  0
LINE
  8
1
  6
________________
 62
     7
 10
97.8701639028
 20
145.414328208
 11
97.8701639028
 21
146.214328208
  0
LINE
  8
1
  6
________________
 62
     7
 10
134.5300751382
 20
149.814328208
 11
134.5300751382
 21
149.214328208
  0
ARC
  8
1
  6
CONTINUOUS
 62
     7
 10
103.5329096443
 20
140.7143282059
 40
0.5
 50
22.0
 51
90.0
  0
LINE
  8
1
  6
CONTINUOUS
 62
     7
 10
56.0701638512
 20
119.9052372968
 11
45.07016385119999
 21
119.9052372968
  0
LINE
  8
1
  6
CONTINUOUS
 62
     7
 10
70.8701639028
 20
108.9143282059
 11
71.3701639028
 21
108.4143282059
  0
ARC
  8
1
  6
CONTINUOUS
 62
     7
 10
83.8701639028
 20
138.6143282059
 40
0.5
 50
270.0
 51
0.0
  0
LINE
  8
1
  6
CONTINUOUS
 62
     7
 10
84.8701639028
 20
106.8143282059
 11
107.8701639028
 21
106.8143282059
  0
LINE
  8
1
  6
CONTINUOUS
 62
     7
 10
71.3701639028
 20
138.1143282059
 11
70.8701639028
 21
137.6143282059
  0
ARC
  8
1
  6
CONTINUOUS
 62
     7
 10
84.8701639028
 20
139.2143282059
 40
0.5
 50
90.0
 51
180.0
  0
LINE
  8
1
  6
CONTINUOUS
 62
     7
 10
107.8701639028
 20
106.8143282059
 11
107.8701639028
 21
139.7143282059
  0
LINE
  8
1
  6
CONTINUOUS
 62
     7
 10
104.3498655726
 20
140.0270249092
 11
103.9965015716
 21
140.9016315026
  0
LINE
  8
1
  6
CONTINUOUS
 62
     7
 10
95.9268703056
 20
139.7143282059
 11
84.8701639028
 21
139.7143282059
  0
LINE
  8
1
  6
________________
 62
     7
 10
134.5756350096
 20
146.214328208
 11
141.9756350096
 21
146.214328208
  0
LINE
  8
1
  6
CONTINUOUS
 62
     7
 10
45.07016385119999
 20
122.8052372968
 11
56.0701638512
 21
122.8052372968
  0
LINE
  8
1
  6
________________
 62
     7
 10
134.5502617137
 20
150.0450618222
 11
134.5300751382
 21
149.814328208
  0
ARC
  8
1
  6
________________
 62
     7
 10
140.5067162583
 20
149.914328208
 40
1.5
 50
5.0
 51
90.0
  0
ARC
  8
1
  6
________________
 62
     7
 10
136.0445537609
 20
149.914328208
 40
1.5
 50
90.0
 51
175.0
  0
LINE
  8
1
  6
________________
 62
     7
 10
138.7756350096
 20
151.414328208
 11
138.7756350096
 21
150.414328208
  0
LINE
  8
1
  6
CONTINUOUS
 62
     7
 10
45.07016385119999
 20
145.2643282059
 11
45.07016385119999
 21
101.2643282059
  0
LINE
  8
1
  6
CONTINUOUS
 62
     7
 10
83.8701639028
 20
108.4143282059
 11
71.3701639028
 21
108.4143282059
  0
CIRCLE
  8
1
  6
CONTINUOUS
 62
     7
 10
138.2756350096
 20
123.2643282059
 40
12.95
  0
ARC
  8
1
  6
CONTINUOUS
 62
     7
 10
135.1128892681
 20
140.7143282059
 40
0.5
 50
90.0
 51
158.0
  0
LINE
  8
1
  6
CONTINUOUS
 62
     7
 10
141.438380751
 20
141.2143282059
 11
135.1128892681
 21
141.2143282059
  0
ARC
  8
1
  6
CONTINUOUS
 62
     7
 10
97.2074181612
 20
140.7143282059
 40
0.5
 50
90.0
 51
158.0
  0
ARC
  8
1
  6
CONTINUOUS
 62
     7
 10
141.438380751
 20
140.7143282059
 40
0.5
 50
22.0
 51
90.0
  0
LINE
  8
1
  6
CONTINUOUS
 62
     7
 10
96.3904622329
 20
140.0270249092
 11
96.7438262339
 21
140.9016315026
  0
LINE
  8
1
  6
CONTINUOUS
 62
     7
 10
45.07016385119999
 20
143.1309948726
 11
56.0701638512
 21
143.1309948726
  0
LINE
  8
1
  6
CONTINUOUS
 62
     7
 10
108.3701639028
 20
107.3143282059
 11
108.3701639028
 21
139.2143282059
  0
LINE
  8
1
  6
CONTINUOUS
 62
     7
 10
103.5329096443
 20
141.2143282059
 11
97.2074181612
 21
141.2143282059
  0
CIRCLE
  8
1
  6
CONTINUOUS
 62
     7
 10
138.2756350096
 20
123.2643282059
 40
11.15
  0
CIRCLE
  8
1
  6
CONTINUOUS
 62
     7
 10
138.2756350096
 20
123.2643282059
 40
13.95
  0
LINE
  8
1
  6
________________
 62
     7
 10
142.0211948809
 20
149.214328208
 11
142.0211948809
 21
149.814328208
  0
LINE
  8
1
  6
CONTINUOUS
 62
     7
 10
45.07016385119999
 20
143.7400857817
 11
56.0701638512
 21
143.7400857817
  0
ARC
  8
1
  6
CONTINUOUS
 62
     7
 10
84.8701639028
 20
107.3143282059
 40
0.5
 50
180.0
 51
270.0
  0
LINE
  8
1
  6
CONTINUOUS
 62
     7
 10
45.07016385119999
 20
144.3491766908
 11
56.0701638512
 21
144.3491766908
  0
LINE
  8
1
  6
CONTINUOUS
 62
     7
 10
142.5254386318
 20
139.3584991174
 11
141.9019726783
 21
140.9016315026
  0
LINE
  8
1
  6
CONTINUOUS
 62
     7
 10
59.0701638512
 20
145.2643282059
 11
59.0701638512
 21
101.2643282059
  0
LINE
  8
1
  6
CENTER
 62
     7
 10
119.3256350096
 20
123.2643282059
 11
157.2256350096
 21
123.2643282059
  0
LINE
  8
1
  6
CONTINUOUS
 62
     7
 10
104.8134574999
 20
139.7143282059
 11
107.8701639028
 21
139.7143282059
  0
LINE
  8
1
  6
CONTINUOUS
 62
     7
 10
71.3701639028
 20
138.1143282059
 11
71.3701639028
 21
108.4143282059
  0
LINE
  8
1
  6
CONTINUOUS
 62
     7
 10
84.3701639028
 20
139.2143282059
 11
84.3701639028
 21
107.3143282059
  0
LINE
  8
1
  6
CONTINUOUS
 62
     7
 10
45.07016385119999
 20
142.5219039635
 11
56.0701638512
 21
142.5219039635
  0
LINE
  8
1
  6
CONTINUOUS
 62
     7
 10
45.07016385119999
 20
145.2643282059
 11
26.90988624447425
 21
142.3155201163131
  0
ARC
  8
1
  6
CONTINUOUS
 62
     7
 10
27.07016385119999
 20
141.3284481388047
 40
1.000000000000001
 50
99.2230098697463
 51
180.0
  0
LINE
  8
1
  6
CONTINUOUS
 62
     7
 10
26.07016385119999
 20
141.3284481388047
 11
26.07016385119999
 21
105.2002082729954
  0
ARC
  8
1
  6
CONTINUOUS
 62
     7
 10
27.07016385119999
 20
105.2002082729954
 40
1.000000000000001
 50
180.0
 51
260.7769901302538
  0
LINE
  8
1
  6
CONTINUOUS
 62
     7
 10
26.90988624447423
 20
104.213136295487
 11
45.07016385119998
 21
101.2643282059
  0
LINE
  8
1
  6
CENTER
 62
     7
 10
138.2756350096
 20
154.414328208
 11
138.2756350096
 21
104.3143282059
  0
LINE
  8
1
  6
CONTINUOUS
 62
     7
 10
108.3701639028
 20
139.2143282059
 11
107.8701639028
 21
139.7143282059
  0
LINE
  8
1
  6
CONTINUOUS
 62
     7
 10
107.8701639028
 20
106.8143282059
 11
108.3701639028
 21
107.3143282059
  0
LINE
  8
1
  6
CONTINUOUS
 62
     7
 10
134.0258313873
 20
139.3584991174
 11
134.6492973409
 21
140.9016315026
  0
LINE
  8
1
  6
CONTINUOUS
 62
     7
 10
83.8701639028
 20
138.1143282059
 11
71.3701639028
 21
138.1143282059
  0
ARC
  8
1
  6
CONTINUOUS
 62
     7
 10
83.8701639028
 20
107.9143282059
 40
0.5
 50
0.0
 51
90.0
  0
LINE
  8
1
  6
________________
 62
     7
 10
142.0010083054
 20
150.0450618222
 11
142.0211948809
 21
149.814328208
  0
LINE
  8
1
  6
________________
 62
     7
 10
136.0445537609
 20
151.414328208
 11
137.7756350096
 21
151.414328208
  0
LINE
  8
1
  6
________________
 62
     7
 10
138.7756350096
 20
151.414328208
 11
140.5067162583
 21
151.414328208
  0
LINE
  8
1
  6
________________
 62
     7
 10
134.5756350096
 20
149.214328208
 11
141.9756350096
 21
149.214328208
  0
LINE
  8
1
  6
CONTINUOUS
 62
     7
 10
-7.3931946377
 20
110.3874357773
 11
-7.0349323858
 21
109.0503853333
  0
LINE
  8
1
  6
CONTINUOUS
 62
     7
 10
-14.7393931369
 20
137.8038257519
 11
-14.3811325806
 21
136.4667750916
  0
LINE
  8
1
  6
CONTINUOUS
 62
     7
 10
-23.1980310948
 20
130.021562063
 11
-24.3956205806
 21
130.7129906345
  0
LINE
  8
1
  6
CONTINUOUS
 62
     7
 10
-15.5954382948
 20
136.1414026345
 11
-15.9537005467
 21
137.4784530785
  0
LINE
  8
1
  6
CONTINUOUS
 62
     7
 10
2.7197174063
 20
118.8050351255
 11
1.3826669623
 21
119.1632973773
  0
LINE
  8
1
  6
CONTINUOUS
 62
     7
 10
-2.3930824091
 20
133.2545877773
 11
-1.4142941154
 21
134.2333760711
  0
LINE
  8
1
  6
CONTINUOUS
 62
     7
 10
45.07016385119999
 20
101.2643282059
 11
59.0701638512
 21
101.2643282059
  0
LINE
  8
1
  6
CONTINUOUS
 62
     7
 10
59.0701638512
 20
145.2643282059
 11
45.07016385119999
 21
145.2643282059
  0
LINE
  8
1
  6
CONTINUOUS
 62
     7
 10
56.0701638512
 20
145.2643282059
 11
56.0701638512
 21
101.2643282059
  0
LINE
  8
1
  6
CONTINUOUS
 62
     7
 10
68.8701638512
 20
145.2643282059
 11
68.8701638512
 21
101.2643282059
  0
LINE
  8
1
  6
CONTINUOUS
 62
     7
 10
70.87016388289015
 20
145.2643282059
 11
70.87016388890984
 21
101.2643282059
  0
LINE
  8
1
  6
CONTINUOUS
 62
     7
 10
59.0701638512
 20
101.2643282059
 11
59.0701638512
 21
145.2643282059
  0
LINE
  8
1
  6
CENTER
 62
     7
 10
111.3701639028
 20
123.2643282059
 11
19.1836377692
 21
123.2643282059
  0
LINE
  8
1
  6
CONTINUOUS
 62
     7
 10
45.07016385119999
 20
103.3976615392
 11
56.0701638512
 21
103.3976615392
  0
LINE
  8
1
  6
CONTINUOUS
 62
     7
 10
45.07016385119999
 20
101.570388812
 11
56.0701638512
 21
101.570388812
  0
LINE
  8
1
  6
CONTINUOUS
 62
     7
 10
45.07016385119999
 20
114.8688736604
 11
56.0701638512
 21
114.8688736604
  0
LINE
  8
1
  6
CONTINUOUS
 62
     7
 10
45.07016385119999
 20
107.9658433574
 11
56.0701638512
 21
107.9658433574
  0
LINE
  8
1
  6
CONTINUOUS
 62
     7
 10
45.07016385119999
 20
107.1537221453
 11
56.0701638512
 21
107.1537221453
  0
LINE
  8
1
  6
CONTINUOUS
 62
     7
 10
45.07016385119999
 20
129.223419115
 11
56.0701638512
 21
129.223419115
  0
LINE
  8
1
  6
CONTINUOUS
 62
     7
 10
56.0701638512
 20
140.6946312361999
 11
45.07016385119999
 21
140.6946312361999
  0
LINE
  8
1
  6
CONTINUOUS
 62
     7
 10
45.07016385119999
 20
110.4022069938
 11
56.0701638512
 21
110.4022069938
  0
LINE
  8
1
  6
CONTINUOUS
 62
     7
 10
45.07016385119999
 20
140.0855403271
 11
56.0701638512
 21
140.0855403271
  0
LINE
  8
1
  6
CONTINUOUS
 62
     7
 10
45.07016385119999
 20
131.6597827514
 11
56.0701638512
 21
131.6597827514
  0
LINE
  8
1
  6
CONTINUOUS
 62
     7
 10
56.0701638512
 20
126.623419115
 11
45.07016385119999
 21
126.623419115
  0
LINE
  8
1
  6
CONTINUOUS
 62
     7
 10
45.07016385119999
 20
109.5900857817
 11
56.0701638512
 21
109.5900857817
  0
LINE
  8
1
  6
CONTINUOUS
 62
     7
 10
56.0701638512
 20
105.8340251756
 11
45.07016385119999
 21
105.8340251756
  0
LINE
  8
1
  6
CONTINUOUS
 62
     7
 10
56.0701638512
 20
113.8537221453
 11
45.07016385119999
 21
113.8537221453
  0
LINE
  8
1
  6
CONTINUOUS
 62
     7
 10
45.07016385119999
 20
130.4416009332
 11
56.0701638512
 21
130.4416009332
  0
LINE
  8
1
  6
CONTINUOUS
 62
     7
 10
45.07016385119999
 20
141.9128130544
 11
56.0701638512
 21
141.9128130544
  0
LINE
  8
1
  6
CONTINUOUS
 62
     7
 10
45.07016385119999
 20
117.3052372968
 11
56.0701638512
 21
117.3052372968
  0
LINE
  8
1
  6
CONTINUOUS
 62
     7
 10
45.07016385119999
 20
104.0067524483
 11
56.0701638512
 21
104.0067524483
  0
LINE
  8
1
  6
CONTINUOUS
 62
     7
 10
45.07016385119999
 20
141.3037221453
 11
56.0701638512
 21
141.3037221453
  0
LINE
  8
1
  6
CONTINUOUS
 62
     7
 10
45.07016385119999
 20
102.7885706301
 11
56.0701638512
 21
102.7885706301
  0
LINE
  8
1
  6
CONTINUOUS
 62
     7
 10
45.07016385119999
 20
116.0870554786
 11
56.0701638512
 21
116.0870554786
  0
LINE
  8
1
  6
CONTINUOUS
 62
     7
 10
45.07016385119999
 20
112.026449418
 11
56.0701638512
 21
112.026449418
  0
LINE
  8
1
  6
CONTINUOUS
 62
     7
 10
59.0701638512
 20
133.2720043518
 11
67.0701638512
 21
133.2720043518
  0
LINE
  8
1
  6
CONTINUOUS
 62
     7
 10
45.07016385119999
 20
139.3749342665
 11
56.0701638512
 21
139.3749342665
  0
LINE
  8
1
  6
CONTINUOUS
 62
     7
 10
56.0701638512
 20
121.3052372968
 11
45.07016385119999
 21
121.3052372968
  0
LINE
  8
1
  6
CONTINUOUS
 62
     7
 10
56.0701638512
 20
118.5052372968
 11
45.07016385119999
 21
118.5052372968
  0
LINE
  8
1
  6
CONTINUOUS
 62
     7
 10
56.0701638512
 20
128.023419115
 11
45.07016385119999
 21
128.023419115
  0
LINE
  8
1
  6
CONTINUOUS
 62
     7
 10
70.8701638512
 20
145.2643282059
 11
59.0701638512
 21
145.2643282059
  0
LINE
  8
1
  6
CONTINUOUS
 62
     7
 10
45.07016385119999
 20
102.179479721
 11
56.0701638512
 21
102.179479721
  0
LINE
  8
1
  6
CONTINUOUS
 62
     7
 10
45.07016385119999
 20
144.9582675998
 11
56.0701638512
 21
144.9582675998
  0
LINE
  8
1
  6
CONTINUOUS
 62
     7
 10
45.07016385119999
 20
123.723419115
 11
56.0701638512
 21
123.723419115
  0
LINE
  8
1
  6
CONTINUOUS
 62
     7
 10
45.07016385119999
 20
134.5022069938
 11
56.0701638512
 21
134.5022069938
  0
LINE
  8
1
  6
CONTINUOUS
 62
     7
 10
56.0701638512
 20
133.6900857817
 11
45.07016385119999
 21
133.6900857817
  0
LINE
  8
1
  6
CONTINUOUS
 62
     7
 10
56.0701638512
 20
125.223419115
 11
45.07016385119999
 21
125.223419115
  0
LINE
  8
1
  6
CONTINUOUS
 62
     7
 10
45.07016385119999
 20
111.2143282059
 11
56.0701638512
 21
111.2143282059
  0
LINE
  8
1
  6
CONTINUOUS
 62
     7
 10
45.07016385119999
 20
138.5628130544
 11
56.0701638512
 21
138.5628130544
  0
LINE
  8
1
  6
CONTINUOUS
 62
     7
 10
70.8701638512
 20
101.2643282059
 11
59.0701638512
 21
101.2643282059
  0
LINE
  8
1
  6
CONTINUOUS
 62
     7
 10
56.0701638512
 20
112.8385706301
 11
45.07016385119999
 21
112.8385706301
  0
LINE
  8
1
  6
CONTINUOUS
 62
     7
 10
45.07016385119999
 20
136.9385706301
 11
56.0701638512
 21
136.9385706301
  0
LINE
  8
1
  6
CONTINUOUS
 62
     7
 10
45.07016385119999
 20
108.7779645695
 11
56.0701638512
 21
108.7779645695
  0
LINE
  8
1
  6
CONTINUOUS
 62
     7
 10
45.07016385119999
 20
135.3143282059
 11
56.0701638512
 21
135.3143282059
  0
LINE
  8
1
  6
CONTINUOUS
 62
     7
 10
45.07016385119999
 20
106.4431160847
 11
56.0701638512
 21
106.4431160847
  0
LINE
  8
1
  6
CONTINUOUS
 62
     7
 10
45.07016385119999
 20
105.2249342665
 11
56.0701638512
 21
105.2249342665
  0
LINE
  8
1
  6
CONTINUOUS
 62
     7
 10
45.07016385119999
 20
104.6158433574
 11
56.0701638512
 21
104.6158433574
  0
LINE
  8
1
  6
CONTINUOUS
 62
     7
 10
56.0701638512
 20
132.6749342665
 11
45.07016385119999
 21
132.6749342665
  0
LINE
  8
1
  6
CONTINUOUS
 62
     7
 10
67.0701638512
 20
113.25665206
 11
67.0701638512
 21
133.2720043518
  0
LINE
  8
1
  6
CONTINUOUS
 62
     7
 10
45.07016385119999
 20
136.126449418
 11
56.0701638512
 21
136.126449418
  0
LINE
  8
1
  6
CONTINUOUS
 62
     7
 10
45.07016385119999
 20
137.7506918423
 11
56.0701638512
 21
137.7506918423
  0
LINE
  8
1
  6
CONTINUOUS
 62
     7
 10
59.0701638512
 20
113.25665206
 11
67.0701638512
 21
113.25665206
  0
ARC
  8
1
  6
CONTINUOUS
 62
     7
 10
-11.4943164663
 20
123.2644192059
 40
13.5142857143
 50
180.0
 51
222.334118
  0
LINE
  8
1
  6
________________
 62
     7
 10
98.8701639028
 20
144.214328208
 11
101.8701639028
 21
144.214328208
  0
ARC
  8
1
  6
________________
 62
     7
 10
97.1998644411
 20
148.5865504303
 40
2.3722222222
 50
240.8722176851
 51
299.1277823149
  0
LINE
  8
1
  6
________________
 62
     7
 10
101.8701639028
 20
144.414328208
 11
98.8701639028
 21
144.414328208
  0
ARC
  8
1
  6
________________
 62
     7
 10
96.3451639028
 20
148.914328208
 40
0.3
 50
90.0
 51
180.0
  0
LINE
  8
1
  6
________________
 62
     7
 10
103.3701639028
 20
142.914328208
 11
103.0701639028
 21
143.214328208
  0
LINE
  8
1
  6
________________
 62
     7
 10
97.3701639024
 20
141.514328208
 11
97.6701639023
 21
141.214328208
  0
ARC
  8
1
  6
________________
 62
     7
 10
96.3451639028
 20
146.514328208
 40
0.3
 50
180.0
 51
270.0
  0
ARC
  8
1
  6
CONTINUOUS
 62
     7
 10
-11.4943164663
 20
123.2644192059
 40
13.5142857143
 50
347.665882
 51
42.33411799999999
  0
ARC
  8
1
  6
CONTINUOUS
 62
     7
 10
-11.4943164663
 20
123.2644192059
 40
13.5142857143
 50
287.665882
 51
342.334118
  0
LINE
  8
1
  6
________________
 62
     7
 10
101.8701639028
 20
144.414328208
 11
102.8701639028
 21
145.414328208
  0
ARC
  8
1
  6
________________
 62
     7
 10
103.5404633644
 20
146.8421059858
 40
2.3722222222
 50
60.8722176851
 51
119.1277823149
  0
ARC
  8
1
  6
________________
 62
     7
 10
104.3951639028
 20
146.514328208
 40
0.3
 50
270.0
 51
0.0
  0
LINE
  8
1
  6
________________
 62
     7
 10
98.3545649795
 20
146.514328208
 11
98.3545649795
 21
148.914328208
  0
ARC
  8
1
  6
________________
 62
     7
 10
104.3951639028
 20
148.914328208
 40
0.3
 50
0.0
 51
90.0
  0
LINE
  8
1
  6
________________
 62
     7
 10
103.3701639031
 20
141.5143282081
 11
103.0701639031
 21
141.2143282081
  0
ARC
  8
1
  6
________________
 62
     7
 10
97.1998644411
 20
146.8421059858
 40
2.3722222222
 50
60.8722176851
 51
119.1277823149
  0
ARC
  8
1
  6
CONTINUOUS
 62
     7
 10
138.2756350096
 20
123.2643282059
 40
21.9279661017
 50
95.68009597090001
 51
84.31990402910002
  0
ARC
  8
1
  6
________________
 62
     7
 10
103.5404633644
 20
148.5865504303
 40
2.3722222222
 50
240.8722176851
 51
299.1277823149
  0
ARC
  8
1
  6
________________
 62
     7
 10
100.3701639028
 20
153.1353932403
 40
6.9210650323
 50
253.0685890193
 51
286.9314109807
  0
LINE
  8
1
  6
________________
 62
     7
 10
97.6701639028
 20
143.214328208
 11
97.3701639028
 21
142.914328208
  0
ARC
  8
1
  6
________________
 62
     7
 10
100.3701639028
 20
142.2932631758
 40
6.9210650323
 50
73.0685890193
 51
106.9314109807
  0
LINE
  8
1
  6
________________
 62
     7
 10
100.3701639028
 20
141.214328208
 11
100.3701639028
 21
143.214328208
  0
LINE
  8
1
  6
________________
 62
     7
 10
102.385762826
 20
148.914328208
 11
102.385762826
 21
146.514328208
  0
ARC
  8
1
  6
CONTINUOUS
 62
     7
 10
-11.4943164663
 20
123.2644192059
 40
13.5142857143
 50
227.665882
 51
282.334118
  0
ENDSEC
  0
EOF
