  0
SECTION
  2
HEADER
  9
$ACADVER
  1
AC1004
  9
$INSBASE
 10
0.0
 20
0.0
  9
$EXTMIN
 10
-256.5901597091
 20
170.5410294767
  9
$EXTMAX
 10
75.7647270709589
 20
264.3306585763
  9
$LIMMIN
 10
0.0
 20
0.0
  9
$LIMMAX
 10
12.0
 20
9.0
  9
$ORTHOMODE
 70
     0
  9
$REGENMODE
 70
     1
  9
$FILLMODE
 70
     1
  9
$QTEXTMODE
 70
     0
  9
$DRAGMODE
 70
     2
  9
$LTSCALE
 40
1.0
  9
$OSMODE
 70
    37
  9
$ATTMODE
 70
     1
  9
$TEXTSIZE
 40
0.2
  9
$TRACEWID
 40
0.05
  9
$TEXTSTYLE
  7
STANDARD
  9
$CLAYER
  8
0
  9
$CELTYPE
  6
BYLAYER
  9
$CECOLOR
 62
   256
  9
$DIMSCALE
 40
1.0
  9
$DIMASZ
 40
1.5
  9
$DIMEXO
 40
0.0625
  9
$DIMDLI
 40
0.38
  9
$DIMRND
 40
0.0
  9
$DIMDLE
 40
0.0
  9
$DIMEXE
 40
0.75
  9
$DIMTP
 40
0.0
  9
$DIMTM
 40
0.0
  9
$DIMTXT
 40
3.5
  9
$DIMCEN
 40
0.09
  9
$DIMTSZ
 40
0.0
  9
$DIMTOL
 70
     0
  9
$DIMLIM
 70
     0
  9
$DIMTIH
 70
     1
  9
$DIMTOH
 70
     1
  9
$DIMSE1
 70
     0
  9
$DIMSE2
 70
     0
  9
$DIMTAD
 70
     1
  9
$DIMZIN
 70
     0
  9
$DIMBLK
  1

  9
$DIMASO
 70
     1
  9
$DIMSHO
 70
     1
  9
$DIMPOST
  1

  9
$DIMAPOST
  1

  9
$DIMALT
 70
     0
  9
$DIMALTD
 70
     2
  9
$DIMALTF
 40
25.4
  9
$DIMLFAC
 40
1.0
  9
$DIMTOFL
 70
     0
  9
$DIMTVP
 40
0.0
  9
$DIMTIX
 70
     0
  9
$DIMSOXD
 70
     0
  9
$DIMSAH
 70
     0
  9
$DIMBLK1
  1

  9
$DIMBLK2
  1

  9
$LUNITS
 70
     2
  9
$LUPREC
 70
     4
  9
$SKETCHINC
 40
0.1
  9
$FILLETRAD
 40
0.5
  9
$AUNITS
 70
     0
  9
$AUPREC
 70
     0
  9
$MENU
  1
.
  9
$ELEVATION
 40
0.0
  9
$THICKNESS
 40
0.0
  9
$LIMCHECK
 70
     0
  9
$CHAMFERA
 40
0.0
  9
$CHAMFERB
 40
0.0
  9
$SKPOLY
 70
     0
  9
$TDCREATE
 40
2459499.39445706
  9
$TDUPDATE
 40
2459499.394457245
  9
$TDINDWG
 40
0.0000000116
  9
$TDUSRTIMER
 40
0.0000000116
  9
$USRTIMER
 70
     1
  9
$ANGBASE
 50
0.0
  9
$ANGDIR
 70
     0
  9
$PDMODE
 70
     0
  9
$PDSIZE
 40
0.0
  9
$PLINEWID
 40
0.0
  9
$COORDS
 70
     1
  9
$SPLFRAME
 70
     0
  9
$SPLINETYPE
 70
     6
  9
$SPLINESEGS
 70
     8
  9
$ATTDIA
 70
     0
  9
$ATTREQ
 70
     1
  9
$SURFTAB1
 70
     6
  9
$SURFTAB2
 70
     6
  9
$SURFTYPE
 70
     6
  9
$SURFU
 70
     6
  9
$SURFV
 70
     6
  9
$UCSNAME
  2

  9
$UCSORG
 10
0.0
 20
0.0
 30
0.0
  9
$UCSXDIR
 10
1.0
 20
0.0
 30
0.0
  9
$UCSYDIR
 10
0.0
 20
1.0
 30
0.0
  9
$USERI1
 70
     0
  9
$USERI2
 70
     0
  9
$USERI3
 70
     0
  9
$USERI4
 70
     0
  9
$USERI5
 70
     0
  9
$USERR1
 40
0.0
  9
$USERR2
 40
0.0
  9
$USERR3
 40
0.0
  9
$USERR4
 40
0.0
  9
$USERR5
 40
0.0
  9
$WORLDVIEW
 70
     1
  0
ENDSEC
  0
SECTION
  2
TABLES
  0
TABLE
  2
LTYPE
 70
     3
  0
LTYPE
  2
CONTINUOUS
 70
     0
  3
Solid line
 72
    65
 73
     0
 40
0.0
  0
LTYPE
  2
________________
 70
     0
  3

 72
    65
 73
     6
 40
6.000000030000298
 49
1.714285714285714
 49
-0.857142857142857
 49
1.714285714285714
 49
-0.857142857142857
 49
0.0000000300003
 49
-0.857142857142857
  0
LTYPE
  2
CENTER
 70
     0
  3

 72
    65
 73
     0
 40
0.0
  0
ENDTAB
  0
TABLE
  2
LAYER
 70
     2
  0
LAYER
  2
0
 70
     0
 62
     7
  6
CONTINUOUS
  0
LAYER
  2
1
 70
     0
 62
     7
  6
CONTINUOUS
  0
ENDTAB
  0
TABLE
  2
STYLE
 70
     2
  0
STYLE
  2
STANDARD
 70
     0
 40
0.0
 41
1.0
 50
0.0
 71
     0
 42
0.2
  3
txt
  4

  0
STYLE
  2
ＭＳ_ゴシック
 70
     0
 40
0.0
 41
1.0
 50
0.0
 71
     0
 42
0.2
  3
ＭＳ ゴシック.shx
  4

  0
ENDTAB
  0
TABLE
  2
VIEW
 70
     0
  0
ENDTAB
  0
ENDSEC
  0
SECTION
  2
BLOCKS
  0
ENDSEC
  0
SECTION
  2
ENTITIES
  0
LINE
  8
1
  6
________________
 62
     7
 10
-47.9358440276
 20
250.0169050051
 11
-46.9358440276
 21
251.0169050051
  0
ARC
  8
1
  6
________________
 62
     7
 10
-45.4108440276
 20
252.1169050051
 40
0.2999999999999947
 50
270.0
 51
0.0
  0
LINE
  8
1
  6
________________
 62
     7
 10
-47.9358440276
 20
250.0169050051
 11
-50.9358440276
 21
250.0169050051
  0
ARC
  8
1
  6
________________
 62
     7
 10
-46.265544566
 20
254.1891272273
 40
2.372222222200002
 50
240.8722176851
 51
299.1277823149
  0
ARC
  8
1
  6
________________
 62
     7
 10
-52.60614348919999
 20
254.1891272273
 40
2.372222222200002
 50
240.8722176851
 51
299.1277823149
  0
ARC
  8
1
  6
________________
 62
     7
 10
-46.265544566
 20
252.4446827829
 40
2.372222222200002
 50
60.8722176851
 51
119.1277823149
  0
ARC
  8
1
  6
________________
 62
     7
 10
-52.60614348919999
 20
252.4446827829
 40
2.372222222200002
 50
60.8722176851
 51
119.1277823149
  0
LINE
  8
1
  6
________________
 62
     7
 10
-50.9358440276
 20
249.8169050051
 11
-47.9358440276
 21
249.8169050051
  0
ARC
  8
1
  6
________________
 62
     7
 10
-45.4108440276
 20
254.5169050051
 40
0.2999999999999947
 50
0.0
 51
90.0
  0
ARC
  8
1
  6
________________
 62
     7
 10
-53.46084402759998
 20
254.5169050051
 40
0.2999999999999947
 50
90.0
 51
180.0
  0
ARC
  8
1
  6
________________
 62
     7
 10
-53.46084402759998
 20
252.1169050051
 40
0.2999999999999947
 50
180.0
 51
270.0
  0
LINE
  8
1
  6
________________
 62
     7
 10
-46.9358440276
 20
246.8169050051
 11
-46.9358440276
 21
248.8169050051
  0
LINE
  8
1
  6
________________
 62
     7
 10
-47.9358440276
 20
246.8169050051
 11
-47.9358440276
 21
248.8169050051
  0
LINE
  8
1
  6
________________
 62
     7
 10
-48.4358440276
 20
248.8169050051
 11
-48.4358440276
 21
246.8169050051
  0
LINE
  8
1
  6
________________
 62
     7
 10
-49.9358440276
 20
248.8169050051
 11
-49.9358440276
 21
246.8169050051
  0
LINE
  8
1
  6
________________
 62
     7
 10
-46.9358440276
 20
251.8169050051
 11
-46.9358440276
 21
251.0169050051
  0
LINE
  8
1
  6
________________
 62
     7
 10
-50.9358440276
 20
250.0169050051
 11
-51.9358440276
 21
251.0169050051
  0
LINE
  8
1
  6
________________
 62
     7
 10
-51.4358440276
 20
246.8169050051
 11
-51.4358440276
 21
248.8169050051
  0
LINE
  8
1
  6
________________
 62
     7
 10
-46.9358440276
 20
248.8169050051
 11
-47.9358440276
 21
249.8169050051
  0
LINE
  8
1
  6
________________
 62
     7
 10
-51.9358440276
 20
248.8169050051
 11
-50.9358440276
 21
249.8169050051
  0
LINE
  8
1
  6
________________
 62
     7
 10
-52.13584402760001
 20
248.8169050051
 11
-46.73584402759999
 21
248.816905005
  0
LINE
  8
1
  6
________________
 62
     7
 10
-51.9358440276
 20
251.0169050051
 11
-51.9358440276
 21
251.8169050051
  0
LINE
  8
1
  6
________________
 62
     7
 10
-47.9358440276
 20
249.8169050051
 11
-47.9358440276
 21
250.0169050051
  0
LINE
  8
1
  6
________________
 62
     7
 10
-50.4358440276
 20
246.8169050051
 11
-50.4358440276
 21
248.8169050051
  0
LINE
  8
1
  6
________________
 62
     7
 10
-49.9358440276
 20
256.0169050051
 11
-49.9358440276
 21
257.0169050051
  0
LINE
  8
1
  6
________________
 62
     7
 10
-50.9358440276
 20
248.8169050051
 11
-50.9358440276
 21
246.8169050051
  0
LINE
  8
1
  6
________________
 62
     7
 10
-52.43584402799998
 20
247.1169050051
 11
-52.4358440276
 21
248.5169050051
  0
LINE
  8
1
  6
________________
 62
     7
 10
-47.4358440276
 20
248.8169050051
 11
-47.4358440276
 21
246.8169050051
  0
LINE
  8
1
  6
________________
 62
     7
 10
-51.9358440276
 20
248.8169050051
 11
-51.9358440276
 21
246.8169050051
  0
LINE
  8
1
  6
________________
 62
     7
 10
-46.7358440272
 20
246.8169050052
 11
-52.1358440281
 21
246.8169050051
  0
LINE
  8
1
  6
________________
 62
     7
 10
-46.9358440276
 20
251.0169050051
 11
-51.9358440276
 21
251.0169050051
  0
LINE
  8
1
  6
________________
 62
     7
 10
-50.9358440276
 20
249.8169050051
 11
-50.9358440276
 21
250.0169050051
  0
LINE
  8
1
  6
________________
 62
     7
 10
-48.9358440276
 20
246.8169050051
 11
-48.9358440276
 21
248.8169050051
  0
LINE
  8
1
  6
________________
 62
     7
 10
-46.4358440276
 20
248.516905005
 11
-46.43584402729999
 21
247.1169050052
  0
LINE
  8
1
  6
________________
 62
     7
 10
29.7242111882
 20
247.1169050051
 11
30.0242111881
 21
246.8169050051
  0
ARC
  8
1
  6
________________
 62
     7
 10
36.7492111886
 20
252.1169050051
 40
0.3
 50
270.0
 51
0.0
  0
ARC
  8
1
  6
________________
 62
     7
 10
14.9552924373
 20
255.5169050051
 40
1.5
 50
5.0
 51
90.0
  0
ARC
  8
1
  6
________________
 62
     7
 10
10.4931299399
 20
255.5169050051
 40
1.5
 50
90.0
 51
175.0
  0
LINE
  8
1
  6
________________
 62
     7
 10
10.4931299399
 20
257.0169050051
 11
12.2242111886
 21
257.0169050051
  0
LINE
  8
1
  6
________________
 62
     7
 10
9.7242111882
 20
247.1169050051
 11
9.7242111886
 21
248.5169050051
  0
LINE
  8
1
  6
________________
 62
     7
 10
12.2242111886
 20
256.0169050051
 11
12.2242111886
 21
257.0169050051
  0
LINE
  8
1
  6
________________
 62
     7
 10
30.2242111886
 20
251.0169050051
 11
30.2242111886
 21
251.8169050051
  0
LINE
  8
1
  6
________________
 62
     7
 10
34.2242111886
 20
250.0169050051
 11
31.2242111886
 21
250.0169050051
  0
LINE
  8
1
  6
________________
 62
     7
 10
35.2242111886
 20
248.8169050051
 11
34.2242111886
 21
249.8169050051
  0
ARC
  8
1
  6
________________
 62
     7
 10
28.6992111886
 20
254.5169050051
 40
0.3
 50
90.0
 51
180.0
  0
LINE
  8
1
  6
________________
 62
     7
 10
13.2242111886
 20
257.0169050051
 11
14.9552924373
 21
257.0169050051
  0
LINE
  8
1
  6
________________
 62
     7
 10
8.9786513172
 20
255.4169050051
 11
8.9786513172
 21
254.8169050051
  0
LINE
  8
1
  6
________________
 62
     7
 10
35.7242111886
 20
248.516905005
 11
35.4242111886
 21
248.816905005
  0
LINE
  8
1
  6
________________
 62
     7
 10
13.2242111886
 20
246.8169050051
 11
13.2242111886
 21
248.8169050051
  0
LINE
  8
1
  6
________________
 62
     7
 10
10.0242111886
 20
248.8169050051
 11
15.4242111886
 21
248.816905005
  0
LINE
  8
1
  6
________________
 62
     7
 10
11.2242111886
 20
248.8169050051
 11
11.2242111886
 21
246.8169050051
  0
ARC
  8
1
  6
________________
 62
     7
 10
29.5539117269
 20
254.1891272273
 40
2.3722222222
 50
240.8722176851
 51
299.1277823149
  0
LINE
  8
1
  6
________________
 62
     7
 10
30.7086122653
 20
252.1169050051
 11
30.7086122653
 21
254.5169050051
  0
LINE
  8
1
  6
________________
 62
     7
 10
17.0492111886
 20
252.1169050051
 11
17.0492111886
 21
254.5169050051
  0
LINE
  8
1
  6
________________
 62
     7
 10
8.3992111886
 20
252.1169050051
 11
8.3992111886
 21
254.5169050051
  0
ARC
  8
1
  6
________________
 62
     7
 10
32.7242111886
 20
258.7379700374
 40
6.9210650323
 50
253.0685890193
 51
286.9314109807
  0
LINE
  8
1
  6
________________
 62
     7
 10
14.7242111886
 20
248.8169050051
 11
14.7242111886
 21
246.8169050051
  0
LINE
  8
1
  6
________________
 62
     7
 10
13.7242111886
 20
248.8169050051
 11
13.7242111886
 21
246.8169050051
  0
LINE
  8
1
  6
________________
 62
     7
 10
34.2242111886
 20
250.0169050051
 11
35.2242111886
 21
251.0169050051
  0
LINE
  8
1
  6
________________
 62
     7
 10
32.7242111886
 20
246.8169050051
 11
32.7242111886
 21
248.8169050051
  0
LINE
  8
1
  6
________________
 62
     7
 10
30.2242111886
 20
248.8169050051
 11
31.2242111886
 21
249.8169050051
  0
LINE
  8
1
  6
________________
 62
     7
 10
8.6992111886
 20
251.8169050051
 11
16.7492111886
 21
251.8169050051
  0
LINE
  8
1
  6
________________
 62
     7
 10
13.2242111886
 20
256.0169050051
 11
12.2242111886
 21
256.0169050051
  0
ARC
  8
1
  6
________________
 62
     7
 10
32.7242111886
 20
247.8958399728
 40
6.9210650323
 50
73.0685890193
 51
106.9314109807
  0
LINE
  8
1
  6
________________
 62
     7
 10
34.7398101118
 20
254.5169050051
 11
34.7398101118
 21
252.1169050051
  0
LINE
  8
1
  6
________________
 62
     7
 10
31.2242111886
 20
249.8169050051
 11
31.2242111886
 21
250.0169050051
  0
ARC
  8
1
  6
________________
 62
     7
 10
35.8945106502
 20
254.1891272273
 40
2.3722222222
 50
240.8722176851
 51
299.1277823149
  0
LINE
  8
1
  6
________________
 62
     7
 10
35.7242111889
 20
247.1169050052
 11
35.424211189
 21
246.8169050052
  0
LINE
  8
1
  6
________________
 62
     7
 10
31.2242111886
 20
250.0169050051
 11
30.2242111886
 21
251.0169050051
  0
LINE
  8
1
  6
________________
 62
     7
 10
8.6992111886
 20
254.8169050051
 11
16.7492111886
 21
254.8169050051
  0
LINE
  8
1
  6
________________
 62
     7
 10
16.4495844844
 20
255.6476386192
 11
16.4697710599
 21
255.4169050051
  0
LINE
  8
1
  6
________________
 62
     7
 10
15.7242111886
 20
248.516905005
 11
15.7242111889
 21
247.1169050052
  0
ARC
  8
1
  6
________________
 62
     7
 10
35.8945106502
 20
252.4446827829
 40
2.3722222222
 50
60.8722176851
 51
119.1277823149
  0
LINE
  8
1
  6
________________
 62
     7
 10
30.0242111886
 20
248.8169050051
 11
29.7242111886
 21
248.5169050051
  0
LINE
  8
1
  6
________________
 62
     7
 10
15.424211189
 20
246.8169050052
 11
10.0242111881
 21
246.8169050051
  0
LINE
  8
1
  6
________________
 62
     7
 10
10.7242111886
 20
246.8169050051
 11
10.7242111886
 21
248.8169050051
  0
LINE
  8
1
  6
________________
 62
     7
 10
8.9988378927
 20
255.6476386192
 11
8.9786513172
 21
255.4169050051
  0
LINE
  8
1
  6
________________
 62
     7
 10
12.2242111886
 20
248.8169050051
 11
12.2242111886
 21
246.8169050051
  0
LINE
  8
1
  6
________________
 62
     7
 10
15.2242111886
 20
246.8169050051
 11
15.2242111886
 21
248.8169050051
  0
ARC
  8
1
  6
________________
 62
     7
 10
29.5539117269
 20
252.4446827829
 40
2.3722222222
 50
60.8722176851
 51
119.1277823149
  0
LINE
  8
1
  6
________________
 62
     7
 10
14.2242111886
 20
246.8169050051
 11
14.2242111886
 21
248.8169050051
  0
ARC
  8
1
  6
________________
 62
     7
 10
36.7492111886
 20
254.5169050051
 40
0.3
 50
0.0
 51
90.0
  0
LINE
  8
1
  6
________________
 62
     7
 10
31.2242111886
 20
249.8169050051
 11
34.2242111886
 21
249.8169050051
  0
LINE
  8
1
  6
________________
 62
     7
 10
34.2242111886
 20
249.8169050051
 11
34.2242111886
 21
250.0169050051
  0
ARC
  8
1
  6
________________
 62
     7
 10
28.6992111886
 20
252.1169050051
 40
0.3
 50
180.0
 51
270.0
  0
LINE
  8
1
  6
________________
 62
     7
 10
11.7242111886
 20
246.8169050051
 11
11.7242111886
 21
248.8169050051
  0
LINE
  8
1
  6
________________
 62
     7
 10
16.4697710599
 20
254.8169050051
 11
16.4697710599
 21
255.4169050051
  0
LINE
  8
1
  6
________________
 62
     7
 10
13.2242111886
 20
257.0169050051
 11
13.2242111886
 21
256.0169050051
  0
LINE
  8
1
  6
________________
 62
     7
 10
10.2242111886
 20
248.8169050051
 11
10.2242111886
 21
246.8169050051
  0
LINE
  8
1
  6
________________
 62
     7
 10
15.2242111886
 20
251.8169050051
 11
15.2242111886
 21
251.0169050051
  0
ARC
  8
1
  6
________________
 62
     7
 10
-226.7972899029
 20
254.1891272273
 40
2.3722222222
 50
240.8722176851
 51
299.1277823149
  0
LINE
  8
1
  6
________________
 62
     7
 10
-227.9519904413
 20
252.1169050051
 11
-227.9519904413
 21
254.5169050051
  0
LINE
  8
1
  6
________________
 62
     7
 10
15.2242111886
 20
251.0169050051
 11
10.2242111886
 21
251.0169050051
  0
LINE
  8
1
  6
________________
 62
     7
 10
15.2242111886
 20
248.8169050051
 11
14.2242111886
 21
249.8169050051
  0
LINE
  8
1
  6
________________
 62
     7
 10
-219.6019904413
 20
254.8169050051
 11
-227.6519904413
 21
254.8169050051
  0
LINE
  8
1
  6
________________
 62
     7
 10
-221.3959091926
 20
257.0169050051
 11
-223.1269904413
 21
257.0169050051
  0
ARC
  8
1
  6
________________
 62
     7
 10
-221.3959091926
 20
255.5169050051
 40
1.5
 50
5.0
 51
90.0
  0
LINE
  8
1
  6
________________
 62
     7
 10
10.2242111886
 20
251.0169050051
 11
10.2242111886
 21
251.8169050051
  0
ARC
  8
1
  6
________________
 62
     7
 10
12.7242111886
 20
247.8958399728
 40
6.9210650323
 50
73.0685890193
 51
106.9314109807
  0
LINE
  8
1
  6
________________
 62
     7
 10
-224.1269904413
 20
256.0169050051
 11
-223.1269904413
 21
256.0169050051
  0
LINE
  8
1
  6
________________
 62
     7
 10
12.7242111886
 20
246.8169050051
 11
12.7242111886
 21
248.8169050051
  0
LINE
  8
1
  6
________________
 62
     7
 10
-219.3019904413
 20
252.9857297506
 11
-219.3019904413
 21
254.5169050051
  0
ARC
  8
1
  6
________________
 62
     7
 10
15.8945106502
 20
252.4446827829
 40
2.3722222222
 50
60.8722176851
 51
119.1277823149
  0
ARC
  8
1
  6
________________
 62
     7
 10
16.7492111886
 20
254.5169050051
 40
0.3
 50
0.0
 51
90.0
  0
LINE
  8
1
  6
________________
 62
     7
 10
11.2242111886
 20
249.8169050051
 11
11.2242111886
 21
250.0169050051
  0
LINE
  8
1
  6
________________
 62
     7
 10
14.2242111886
 20
249.8169050051
 11
14.2242111886
 21
250.0169050051
  0
LINE
  8
1
  6
________________
 62
     7
 10
14.7398101118
 20
254.5169050051
 11
14.7398101118
 21
252.1169050051
  0
ARC
  8
1
  6
________________
 62
     7
 10
8.6992111886
 20
254.5169050051
 40
0.3
 50
90.0
 51
180.0
  0
ARC
  8
1
  6
________________
 62
     7
 10
8.6992111886
 20
252.1169050051
 40
0.3
 50
180.0
 51
270.0
  0
LINE
  8
1
  6
________________
 62
     7
 10
11.2242111886
 20
249.8169050051
 11
14.2242111886
 21
249.8169050051
  0
LINE
  8
1
  6
________________
 62
     7
 10
10.7086122653
 20
252.1169050051
 11
10.7086122653
 21
254.5169050051
  0
LINE
  8
1
  6
________________
 62
     7
 10
15.7242111886
 20
248.516905005
 11
15.4242111886
 21
248.816905005
  0
LINE
  8
1
  6
________________
 62
     7
 10
15.7242111889
 20
247.1169050052
 11
15.424211189
 21
246.8169050052
  0
LINE
  8
1
  6
________________
 62
     7
 10
-224.3013825076
 20
251.8169050051
 11
-227.6519904413
 21
251.8169050051
  0
ARC
  8
1
  6
________________
 62
     7
 10
15.8945106502
 20
254.1891272273
 40
2.3722222222
 50
240.8722176851
 51
299.1277823149
  0
LINE
  8
1
  6
________________
 62
     7
 10
11.2242111886
 20
250.0169050051
 11
10.2242111886
 21
251.0169050051
  0
LINE
  8
1
  6
________________
 62
     7
 10
-224.1269904413
 20
257.0169050051
 11
-225.85807169
 21
257.0169050051
  0
LINE
  8
1
  6
________________
 62
     7
 10
-219.9016171455
 20
255.6476386192
 11
-219.8814305699
 21
255.4169050051
  0
LINE
  8
1
  6
________________
 62
     7
 10
-219.8814305699
 20
255.4169050051
 11
-219.8814305699
 21
254.8169050051
  0
LINE
  8
1
  6
________________
 62
     7
 10
-223.1269904413
 20
256.0169050051
 11
-223.1269904413
 21
257.0169050051
  0
ARC
  8
1
  6
________________
 62
     7
 10
-220.4566909797
 20
252.4446827829
 40
2.3722222222
 50
60.8722176851
 51
119.1277823149
  0
ARC
  8
1
  6
________________
 62
     7
 10
-227.6519904413
 20
252.1169050051
 40
0.3
 50
180.0
 51
270.0
  0
LINE
  8
1
  6
________________
 62
     7
 10
14.2242111886
 20
250.0169050051
 11
11.2242111886
 21
250.0169050051
  0
ARC
  8
1
  6
________________
 62
     7
 10
-219.6019904413
 20
254.5169050051
 40
0.3
 50
0.0
 51
90.0
  0
ARC
  8
1
  6
________________
 62
     7
 10
-223.6269904413
 20
258.7379700374
 40
6.9210650323
 50
253.0685890193
 51
265.0908912858
  0
LINE
  8
1
  6
________________
 62
     7
 10
14.2242111886
 20
250.0169050051
 11
15.2242111886
 21
251.0169050051
  0
ARC
  8
1
  6
________________
 62
     7
 10
9.5539117269
 20
252.4446827829
 40
2.3722222222
 50
60.8722176851
 51
119.1277823149
  0
ARC
  8
1
  6
________________
 62
     7
 10
9.5539117269
 20
254.1891272273
 40
2.3722222222
 50
240.8722176851
 51
299.1277823149
  0
LINE
  8
1
  6
________________
 62
     7
 10
10.0242111886
 20
248.8169050051
 11
9.7242111886
 21
248.5169050051
  0
ARC
  8
1
  6
________________
 62
     7
 10
-225.85807169
 20
255.5169050051
 40
1.5
 50
90.0
 51
175.0
  0
LINE
  8
1
  6
________________
 62
     7
 10
-226.1269904413
 20
251.8169050051
 11
-226.1269904413
 21
251.1960276753
  0
LINE
  8
1
  6
________________
 62
     7
 10
-225.6425893645
 20
254.5169050051
 11
-225.6425893645
 21
252.1169050051
  0
ARC
  8
1
  6
________________
 62
     7
 10
-227.6519904413
 20
254.5169050051
 40
0.3
 50
90.0
 51
180.0
  0
LINE
  8
1
  6
________________
 62
     7
 10
10.2242111886
 20
248.8169050051
 11
11.2242111886
 21
249.8169050051
  0
LINE
  8
1
  6
________________
 62
     7
 10
-224.1269904413
 20
257.0169050051
 11
-224.1269904413
 21
256.0169050051
  0
LINE
  8
1
  6
________________
 62
     7
 10
9.7242111882
 20
247.1169050051
 11
10.0242111881
 21
246.8169050051
  0
ARC
  8
1
  6
________________
 62
     7
 10
16.7492111886
 20
252.1169050051
 40
0.3
 50
270.0
 51
0.0
  0
LINE
  8
1
  6
________________
 62
     7
 10
-227.3725503127
 20
254.8169050051
 11
-227.3725503127
 21
255.4169050051
  0
LINE
  8
1
  6
________________
 62
     7
 10
-227.3523637371
 20
255.6476386192
 11
-227.3725503127
 21
255.4169050051
  0
ARC
  8
1
  6
________________
 62
     7
 10
12.7242111886
 20
258.7379700374
 40
6.9210650323
 50
253.0685890193
 51
286.9314109807
  0
ARC
  8
1
  6
________________
 62
     7
 10
-226.7972899029
 20
252.4446827829
 40
2.3722222222
 50
60.8722176851
 51
119.1277823149
  0
ARC
  8
1
  6
________________
 62
     7
 10
-223.6269904413
 20
247.8958399728
 40
6.9210650323
 50
73.0685890193
 51
106.9314109807
  0
ARC
  8
1
  6
CONTINUOUS
 62
     7
 10
28.4156778459
 20
246.3306481838
 40
0.3
 50
258.8569844659
 51
358.9999999999999
  0
LINE
  8
1
  6
________________
 62
     7
 10
-46.43584402729999
 20
247.1169050052
 11
-46.7358440272
 21
246.8169050052
  0
LINE
  8
1
  6
________________
 62
     7
 10
-46.4358440276
 20
248.516905005
 11
-46.73584402759999
 21
248.816905005
  0
ARC
  8
1
  6
CONTINUOUS
 62
     7
 10
9.2155598201
 20
246.3169049994
 40
0.5
 50
90.0
 51
179.0
  0
LINE
  8
1
  6
________________
 62
     7
 10
28.6992111886
 20
251.8169050051
 11
36.7492111886
 21
251.8169050051
  0
ARC
  8
1
  6
CONTINUOUS
 62
     7
 10
8.3600767124
 20
243.1452613818
 40
0.3
 50
299.1925729834001
 51
358.9999999999999
  0
ARC
  8
1
  6
CONTINUOUS
 62
     7
 10
16.232862557
 20
246.3169049994
 40
0.5
 50
1.0
 51
90.0
  0
LINE
  8
1
  6
________________
 62
     7
 10
36.4495844844
 20
255.6476386192
 11
36.4697710599
 21
255.4169050051
  0
LINE
  8
1
  6
________________
 62
     7
 10
-52.13584402760001
 20
248.8169050051
 11
-52.4358440276
 21
248.5169050051
  0
LINE
  8
1
  6
________________
 62
     7
 10
28.9988378927
 20
255.6476386192
 11
28.9786513172
 21
255.4169050051
  0
ARC
  8
1
  6
________________
 62
     7
 10
-49.4358440276
 20
258.7379700374
 40
6.9210650323
 50
253.0685890193
 51
286.9314109807
  0
ARC
  8
1
  6
CONTINUOUS
 62
     7
 10
37.0883456647
 20
243.1452613818
 40
0.3
 50
181.0
 51
240.8074270166
  0
ARC
  8
1
  6
CONTINUOUS
 62
     7
 10
17.0327445313
 20
246.3306481838
 40
0.3
 50
181.0
 51
281.143015534
  0
ARC
  8
1
  6
________________
 62
     7
 10
-49.4358440276
 20
247.8958399728
 40
6.9210650323
 50
73.06858901930002
 51
106.9314109807
  0
LINE
  8
1
  6
________________
 62
     7
 10
-49.4358440276
 20
246.8169050051
 11
-49.4358440276
 21
248.8169050051
  0
LINE
  8
1
  6
CONTINUOUS
 62
     7
 10
8.660031021
 20
243.1400256599
 11
8.7156359726
 21
246.3256312026
  0
LINE
  8
1
  6
CONTINUOUS
 62
     7
 10
36.7883913562
 20
243.1400256599
 11
36.7327864046
 21
246.3256312026
  0
LINE
  8
1
  6
________________
 62
     7
 10
37.0492111886
 20
252.1169050051
 11
37.0492111886
 21
254.5169050051
  0
LINE
  8
1
  6
________________
 62
     7
 10
28.9786513172
 20
255.4169050051
 11
28.9786513172
 21
254.8169050051
  0
LINE
  8
1
  6
________________
 62
     7
 10
33.2242111886
 20
256.0169050051
 11
32.2242111886
 21
256.0169050051
  0
ARC
  8
1
  6
________________
 62
     7
 10
30.4931299399
 20
255.5169050051
 40
1.5
 50
90.0
 51
175.0
  0
CIRCLE
  8
1
  6
CONTINUOUS
 62
     7
 10
22.7242111886
 20
217.4358440265
 40
29.15
  0
LINE
  8
1
  6
________________
 62
     7
 10
32.2242111886
 20
256.0169050051
 11
32.2242111886
 21
257.0169050051
  0
LINE
  8
1
  6
________________
 62
     7
 10
30.0242111886
 20
248.8169050051
 11
35.4242111886
 21
248.816905005
  0
LINE
  8
1
  6
________________
 62
     7
 10
35.7242111886
 20
248.516905005
 11
35.7242111889
 21
247.1169050052
  0
LINE
  8
1
  6
________________
 62
     7
 10
34.7242111886
 20
248.8169050051
 11
34.7242111886
 21
246.8169050051
  0
LINE
  8
1
  6
________________
 62
     7
 10
28.3992111886
 20
252.1169050051
 11
28.3992111886
 21
254.5169050051
  0
LINE
  8
1
  6
________________
 62
     7
 10
34.2242111886
 20
246.8169050051
 11
34.2242111886
 21
248.8169050051
  0
LINE
  8
1
  6
________________
 62
     7
 10
33.2242111886
 20
257.0169050051
 11
33.2242111886
 21
256.0169050051
  0
LINE
  8
1
  6
________________
 62
     7
 10
32.2242111886
 20
248.8169050051
 11
32.2242111886
 21
246.8169050051
  0
LINE
  8
1
  6
CONTINUOUS
 62
     7
 10
36.232862557
 20
246.8169049994
 11
29.2155598201
 21
246.8169049994
  0
LINE
  8
1
  6
________________
 62
     7
 10
-47.42024510439999
 20
254.5169050051
 11
-47.42024510439999
 21
252.1169050051
  0
LINE
  8
1
  6
________________
 62
     7
 10
-52.43584402799998
 20
247.1169050051
 11
-52.1358440281
 21
246.8169050051
  0
LINE
  8
1
  6
CONTINUOUS
 62
     7
 10
16.7327902227
 20
246.3254124618
 11
16.7327864046
 21
246.3256312026
  0
LINE
  8
1
  6
CONTINUOUS
 62
     7
 10
9.2155598201
 20
246.8169049994
 11
16.232862557
 21
246.8169049994
  0
LINE
  8
1
  6
________________
 62
     7
 10
28.6992111886
 20
254.8169050051
 11
36.7492111886
 21
254.8169050051
  0
LINE
  8
1
  6
________________
 62
     7
 10
36.4697710599
 20
254.8169050051
 11
36.4697710599
 21
255.4169050051
  0
LINE
  8
1
  6
________________
 62
     7
 10
30.4931299399
 20
257.0169050051
 11
32.2242111886
 21
257.0169050051
  0
LINE
  8
1
  6
________________
 62
     7
 10
33.2242111886
 20
257.0169050051
 11
34.9552924373
 21
257.0169050051
  0
LINE
  8
1
  6
________________
 62
     7
 10
30.2242111886
 20
248.8169050051
 11
30.2242111886
 21
246.8169050051
  0
ARC
  8
1
  6
________________
 62
     7
 10
34.9552924373
 20
255.5169050051
 40
1.5
 50
5.0
 51
90.0
  0
LINE
  8
1
  6
________________
 62
     7
 10
35.2242111886
 20
251.8169050051
 11
35.2242111886
 21
251.0169050051
  0
LINE
  8
1
  6
________________
 62
     7
 10
31.2242111886
 20
248.8169050051
 11
31.2242111886
 21
246.8169050051
  0
LINE
  8
1
  6
________________
 62
     7
 10
30.7242111886
 20
246.8169050051
 11
30.7242111886
 21
248.8169050051
  0
LINE
  8
1
  6
CONTINUOUS
 62
     7
 10
28.7156321544
 20
246.3254124618
 11
28.7156359726
 21
246.3256312026
  0
LINE
  8
1
  6
________________
 62
     7
 10
35.2242111886
 20
251.0169050051
 11
30.2242111886
 21
251.0169050051
  0
ARC
  8
1
  6
CONTINUOUS
 62
     7
 10
29.2155598201
 20
246.3169049994
 40
0.5
 50
90.0
 51
179.0
  0
LINE
  8
1
  6
________________
 62
     7
 10
35.424211189
 20
246.8169050052
 11
30.0242111881
 21
246.8169050051
  0
LINE
  8
1
  6
________________
 62
     7
 10
29.7242111882
 20
247.1169050051
 11
29.7242111886
 21
248.5169050051
  0
LINE
  8
1
  6
________________
 62
     7
 10
35.2242111886
 20
246.8169050051
 11
35.2242111886
 21
248.8169050051
  0
LINE
  8
1
  6
________________
 62
     7
 10
33.2242111886
 20
246.8169050051
 11
33.2242111886
 21
248.8169050051
  0
LINE
  8
1
  6
________________
 62
     7
 10
31.72421118860001
 20
246.8169050051
 11
31.72421118860001
 21
248.8169050051
  0
ARC
  8
1
  6
CONTINUOUS
 62
     7
 10
36.232862557
 20
246.3169049994
 40
0.5
 50
1.0
 51
90.0
  0
LINE
  8
1
  6
________________
 62
     7
 10
-51.45144295079999
 20
252.1169050051
 11
-51.45144295079999
 21
254.5169050051
  0
LINE
  8
1
  6
________________
 62
     7
 10
33.7242111886
 20
248.8169050051
 11
33.7242111886
 21
246.8169050051
  0
LINE
  8
1
  6
________________
 62
     7
 10
-204.1269904413
 20
257.0169050051
 11
-205.85807169
 21
257.0169050051
  0
LINE
  8
1
  6
________________
 62
     7
 10
-205.6425893645
 20
254.5169050051
 11
-205.6425893645
 21
252.5392532547
  0
ARC
  8
1
  6
________________
 62
     7
 10
-201.3959091926
 20
255.5169050051
 40
1.5
 50
5.0
 51
90.0
  0
ARC
  8
1
  6
________________
 62
     7
 10
-203.6269904413
 20
258.7379700374
 40
6.9210650323
 50
274.9091087142
 51
286.9314109807
  0
ARC
  8
1
  6
________________
 62
     7
 10
-199.6019904413
 20
252.1169050051
 40
0.3
 50
270.0
 51
0.0
  0
ARC
  8
1
  6
________________
 62
     7
 10
-203.6269904413
 20
247.8958399728
 40
6.9210650323
 50
73.0685890193
 51
106.9314109807
  0
LINE
  8
1
  6
________________
 62
     7
 10
-221.6113915181
 20
252.5392532547
 11
-221.6113915181
 21
254.5169050051
  0
LINE
  8
1
  6
________________
 62
     7
 10
-204.1269904413
 20
257.0169050051
 11
-204.1269904413
 21
256.0169050051
  0
ARC
  8
1
  6
________________
 62
     7
 10
-206.7972899029
 20
252.4446827829
 40
2.3722222222
 50
60.8722176851
 51
119.1277823149
  0
ARC
  8
1
  6
________________
 62
     7
 10
-200.4566909797
 20
254.1891272273
 40
2.3722222222
 50
240.8722176851
 51
299.1277823149
  0
LINE
  8
1
  6
________________
 62
     7
 10
-199.6019904413
 20
251.8169050051
 11
-202.952598375
 21
251.8169050051
  0
LINE
  8
1
  6
________________
 62
     7
 10
-207.3523637371
 20
255.6476386192
 11
-207.3725503127
 21
255.4169050051
  0
ARC
  8
1
  6
________________
 62
     7
 10
-200.4566909797
 20
252.4446827829
 40
2.3722222222
 50
60.8722176851
 51
119.1277823149
  0
LINE
  8
1
  6
________________
 62
     7
 10
-199.6019904413
 20
254.8169050051
 11
-207.6519904413
 21
254.8169050051
  0
ARC
  8
1
  6
________________
 62
     7
 10
-199.6019904413
 20
254.5169050051
 40
0.3
 50
0.0
 51
90.0
  0
LINE
  8
1
  6
________________
 62
     7
 10
-203.1269904413
 20
256.0169050051
 11
-203.1269904413
 21
257.0169050051
  0
LINE
  8
1
  6
________________
 62
     7
 10
-199.9016171455
 20
255.6476386192
 11
-199.8814305699
 21
255.4169050051
  0
LINE
  8
1
  6
________________
 62
     7
 10
-199.8814305699
 20
255.4169050051
 11
-199.8814305699
 21
254.8169050051
  0
LINE
  8
1
  6
________________
 62
     7
 10
-201.6113915181
 20
252.1169050051
 11
-201.6113915181
 21
254.5169050051
  0
LINE
  8
1
  6
________________
 62
     7
 10
-207.3725503127
 20
254.8169050051
 11
-207.3725503127
 21
255.4169050051
  0
ARC
  8
1
  6
________________
 62
     7
 10
-205.85807169
 20
255.5169050051
 40
1.5
 50
90.0
 51
175.0
  0
LINE
  8
1
  6
________________
 62
     7
 10
-204.1269904413
 20
256.0169050051
 11
-203.1269904413
 21
256.0169050051
  0
LINE
  8
1
  6
________________
 62
     7
 10
-201.1269904413
 20
251.1960276753
 11
-201.1269904413
 21
251.8169050051
  0
ARC
  8
1
  6
________________
 62
     7
 10
-207.6519904413
 20
254.5169050051
 40
0.3
 50
90.0
 51
180.0
  0
LINE
  8
1
  6
________________
 62
     7
 10
-201.3959091926
 20
257.0169050051
 11
-203.1269904413
 21
257.0169050051
  0
LINE
  8
1
  6
________________
 62
     7
 10
-199.3019904413
 20
252.1169050051
 11
-199.3019904413
 21
254.5169050051
  0
LINE
  8
1
  6
________________
 62
     7
 10
-207.9519904413
 20
252.9857297506
 11
-207.9519904413
 21
254.5169050051
  0
CIRCLE
  8
1
  6
CONTINUOUS
 62
     7
 10
-213.6269904413
 20
217.4358440265
 40
32.7272727296
  0
ARC
  8
1
  6
CONTINUOUS
 62
     7
 10
22.7242111886
 20
217.4358440265
 40
36.0
 50
80.9301246325
 51
99.0698753675
  0
LINE
  8
1
  6
CONTINUOUS
 62
     7
 10
-70.4358440276
 20
246.5858440265
 11
-39.93584402760001
 21
246.5858440265
  0
LINE
  8
1
  6
CONTINUOUS
 62
     7
 10
-70.4358440276
 20
188.2858440265
 11
-39.93584402760001
 21
188.2858440265
  0
LINE
  8
1
  6
CONTINUOUS
 62
     7
 10
-73.43584402799999
 20
243.4358440265
 11
-90.4358440276
 21
243.4358440265
  0
LINE
  8
1
  6
CONTINUOUS
 62
     7
 10
-71.4358440276
 20
189.2858440265
 11
-71.4358440276
 21
245.5858440265
  0
LINE
  8
1
  6
CONTINUOUS
 62
     7
 10
-73.4358440276
 20
191.4358440265
 11
-90.4358440276
 21
191.4358440265
  0
LINE
  8
1
  6
CONTINUOUS
 62
     7
 10
-90.4358440276
 20
243.4358440265
 11
-90.4358440276
 21
191.4358440265
  0
LINE
  8
1
  6
________________
 62
     7
 10
-53.76084402759999
 20
252.1169050051
 11
-53.76084402759999
 21
254.5169050051
  0
LINE
  8
1
  6
________________
 62
     7
 10
-51.66692527629998
 20
257.0169050051
 11
-49.9358440276
 21
257.0169050051
  0
ARC
  8
1
  6
CONTINUOUS
 62
     7
 10
-73.43584402799999
 20
245.4358440265
 40
2.000000000000002
 50
270.0
 51
0.0000000000999876
  0
LINE
  8
1
  6
CENTER
 62
     7
 10
-171.5661981244
 20
217.4358440265
 11
-256.5901597091
 21
217.4358440265
  0
LINE
  8
1
  6
________________
 62
     7
 10
-53.46084402759998
 20
251.8169050051
 11
-45.4108440276
 21
251.8169050051
  0
LINE
  8
1
  6
________________
 62
     7
 10
-53.1612173234
 20
255.6476386192
 11
-53.181403899
 21
255.4169050051
  0
LINE
  8
1
  6
________________
 62
     7
 10
-53.181403899
 20
255.4169050051
 11
-53.181403899
 21
254.8169050051
  0
ARC
  8
1
  6
________________
 62
     7
 10
-47.20476277889998
 20
255.5169050051
 40
1.500000000000001
 50
5.0
 51
90.0
  0
LINE
  8
1
  6
________________
 62
     7
 10
-48.9358440276
 20
256.0169050051
 11
-49.9358440276
 21
256.0169050051
  0
LINE
  8
1
  6
CONTINUOUS
 62
     7
 10
-208.3168649803
 20
193.6440878604
 11
-208.9031095271
 21
195.8319889408
  0
CIRCLE
  8
1
  6
CONTINUOUS
 62
     7
 10
-213.6269904413
 20
217.4358440265
 40
24.3771428571
  0
CIRCLE
  8
1
  6
CONTINUOUS
 62
     7
 10
22.7242111886
 20
217.4358440265
 40
19.2
  0
LINE
  8
1
  6
CONTINUOUS
 62
     7
 10
-39.93584402759999
 20
188.2858440265
 11
-39.43584402760001
 21
188.7858440265
  0
LINE
  8
1
  6
CONTINUOUS
 62
     7
 10
-195.6777882983
 20
233.9304260552
 11
-197.2794418699
 21
232.3287724836
  0
LINE
  8
1
  6
________________
 62
     7
 10
-48.9358440276
 20
257.0169050051
 11
-47.20476277889998
 21
257.0169050051
  0
ARC
  8
1
  6
________________
 62
     7
 10
-51.66692527629998
 20
255.5169050051
 40
1.500000000000001
 50
90.0
 51
175.0
  0
LINE
  8
1
  6
CONTINUOUS
 62
     7
 10
-235.7412761556
 20
217.4358440265
 11
-238.0041332985
 21
217.4358440265
  0
LINE
  8
1
  6
CONTINUOUS
 62
     7
 10
-39.43584402760001
 20
246.0858440265
 11
-39.93584402759999
 21
246.5858440265
  0
ARC
  8
1
  6
CONTINUOUS
 62
     7
 10
22.7242111886
 20
217.4358440265
 40
36.0
 50
110.3175076348
 51
69.68249236519999
  0
ARC
  8
1
  6
CONTINUOUS
 62
     7
 10
-70.4358440276
 20
245.5858440265
 40
1.000000000000001
 50
90.0
 51
180.0
  0
ARC
  8
1
  6
CONTINUOUS
 62
     7
 10
-70.4358440276
 20
189.2858440265
 40
1.000000000000001
 50
180.0
 51
270.0
  0
ARC
  8
1
  6
CONTINUOUS
 62
     7
 10
-45.91868841499999
 20
246.3169049994
 40
0.5000000000000004
 50
32.53930530260003
 51
90.0
  0
LINE
  8
1
  6
________________
 62
     7
 10
-53.46084402759998
 20
254.8169050051
 11
-45.4108440276
 21
254.8169050051
  0
CIRCLE
  8
1
  6
CONTINUOUS
 62
     7
 10
-213.6266057556
 20
217.4358440265
 40
19.2
  0
LINE
  8
1
  6
________________
 62
     7
 10
-48.9358440276
 20
257.0169050051
 11
-48.9358440276
 21
256.0169050051
  0
ARC
  8
1
  6
CONTINUOUS
 62
     7
 10
-52.95299964019999
 20
246.3169049994
 40
0.5000000000000004
 50
90.0
 51
147.4606946974
  0
CIRCLE
  8
1
  6
CONTINUOUS
 62
     7
 10
-213.6269904413
 20
217.4358440265
 40
36.0
  0
LINE
  8
1
  6
________________
 62
     7
 10
-45.69028415619999
 20
254.8169050051
 11
-45.69028415619999
 21
255.4169050051
  0
LINE
  8
1
  6
CONTINUOUS
 62
     7
 10
-39.93584402759999
 20
246.5858440265
 11
-39.93584402759999
 21
188.2858440265
  0
LINE
  8
1
  6
CONTINUOUS
 62
     7
 10
-90.9358440276
 20
242.9358440265
 11
-90.4358440276
 21
243.4358440265
  0
LINE
  8
1
  6
CONTINUOUS
 62
     7
 10
-90.9358440276
 20
191.9358440265
 11
-90.4358440276
 21
191.4358440265
  0
LINE
  8
1
  6
CONTINUOUS
 62
     7
 10
-52.95299964019999
 20
246.8169049994
 11
-45.91868841499999
 21
246.8169049994
  0
LINE
  8
1
  6
CONTINUOUS
 62
     7
 10
-228.5199188985
 20
201.0882954551
 11
-230.12157247
 21
199.4866418834
  0
LINE
  8
1
  6
CONTINUOUS
 62
     7
 10
-90.9358440276
 20
242.9358440265
 11
-90.9358440276
 21
191.9358440265
  0
LINE
  8
1
  6
________________
 62
     7
 10
-45.11084402759999
 20
252.1169050051
 11
-45.11084402759999
 21
254.5169050051
  0
LINE
  8
1
  6
________________
 62
     7
 10
-45.7104707318
 20
255.6476386192
 11
-45.69028415619999
 21
255.4169050051
  0
ARC
  8
1
  6
CONTINUOUS
 62
     7
 10
-73.4358440276
 20
189.4358440265
 40
2.000000000000002
 50
0.0
 51
90.0
  0
LINE
  8
1
  6
CONTINUOUS
 62
     7
 10
-206.9160638127
 20
196.3644165979
 11
-206.3298164916
 21
194.1765158713
  0
LINE
  8
1
  6
CONTINUOUS
 62
     7
 10
-190.3676622862
 20
210.1386700768
 11
-192.5555630127
 21
210.7249173979
  0
LINE
  8
1
  6
CONTINUOUS
 62
     7
 10
-231.5761925844
 20
200.9412619978
 11
-229.9745390127
 21
202.5429155694
  0
LINE
  8
1
  6
CENTER
 62
     7
 10
-213.6266057556
 20
259.2653948687
 11
-213.6266057556
 21
173.508468098
  0
LINE
  8
1
  6
CONTINUOUS
 62
     7
 10
-192.0231353556
 20
212.7119631122
 11
-189.8352342753
 21
212.1257185655
  0
LINE
  8
0
  6
CONTINUOUS
 62
     7
 10
-39.43584402760001
 20
246.0858440265
 11
-39.43584402760001
 21
188.7858440265
  0
TEXT
  8
1
  6
CONTINUOUS
 62
     7
 10
51.17247072369626
 20
177.1268279090909
 40
3.5
  1
ＭＰＥＰ－４２
 41
0.88608
 51
15.0
  0
LINE
  8
1
  6
CONTINUOUS
 62
     7
 10
-128.9358440276
 20
237.9358440265
 11
-111.9358440276
 21
237.9358440265
  0
LINE
  8
1
  6
CONTINUOUS
 62
     7
 10
-128.9358440276
 20
240.9358440265
 11
-111.9358440276
 21
240.9358440265
  0
LINE
  8
1
  6
CONTINUOUS
 62
     7
 10
-128.9358440276
 20
239.9358440265
 11
-111.9358440276
 21
239.9358440265
  0
LINE
  8
1
  6
CONTINUOUS
 62
     7
 10
-128.9358440276
 20
249.8358440265
 11
-111.9358440276
 21
249.8358440265
  0
LINE
  8
1
  6
CONTINUOUS
 62
     7
 10
-128.9358440276
 20
252.2358440265
 11
-111.9358440276
 21
252.2358440265
  0
LINE
  8
1
  6
CONTINUOUS
 62
     7
 10
-90.9358440276
 20
253.4358440265
 11
-90.9358440276
 21
181.4358440265
  0
ARC
  8
1
  6
CONTINUOUS
 62
     7
 10
-213.6269904413
 20
217.4358440265
 40
22.1142857143
 50
287.665882
 51
342.334118
  0
LINE
  8
1
  6
CONTINUOUS
 62
     7
 10
-218.9371159023
 20
241.2276001926
 11
-218.3508713556
 21
239.0396991122
  0
LINE
  8
1
  6
CONTINUOUS
 62
     7
 10
-128.9358440276
 20
218.9358440265
 11
-111.9358440276
 21
218.9358440265
  0
LINE
  8
1
  6
CONTINUOUS
 62
     7
 10
-128.9358440276
 20
181.4358440265
 11
-130.3792197006
 21
183.9358440265
  0
ARC
  8
1
  6
CONTINUOUS
 62
     7
 10
-160.9358440276
 20
187.6130220883
 40
1.0
 50
180.0
 51
265.0
  0
LINE
  8
1
  6
CONTINUOUS
 62
     7
 10
-128.9358440276
 20
241.9358440265
 11
-111.9358440276
 21
241.9358440265
  0
LINE
  8
1
  6
CONTINUOUS
 62
     7
 10
-128.9358440276
 20
251.2358440265
 11
-111.9358440276
 21
251.2358440265
  0
LINE
  8
1
  6
CONTINUOUS
 62
     7
 10
-128.9358440276
 20
242.9358440265
 11
-111.9358440276
 21
242.9358440265
  0
ARC
  8
1
  6
CONTINUOUS
 62
     7
 10
-213.6269904413
 20
217.4358440265
 40
22.1142857143
 50
180.0
 51
222.334118
  0
LINE
  8
1
  6
CONTINUOUS
 62
     7
 10
-128.9358440276
 20
181.6358440265
 11
-111.9358440276
 21
181.6358440265
  0
LINE
  8
1
  6
CONTINUOUS
 62
     7
 10
-128.9358440276
 20
227.9358440265
 11
-111.9358440276
 21
227.9358440265
  0
LINE
  8
1
  6
CONTINUOUS
 62
     7
 10
-128.9358440276
 20
248.4358440265
 11
-111.9358440276
 21
248.4358440265
  0
ARC
  8
1
  6
CONTINUOUS
 62
     7
 10
-213.6269904413
 20
217.4358440265
 40
22.1142857143
 50
47.66588200000001
 51
102.334118
  0
LINE
  8
1
  6
CONTINUOUS
 62
     7
 10
-128.9358440276
 20
253.4358440265
 11
-130.3792197006
 21
250.9358440265
  0
LINE
  8
1
  6
CONTINUOUS
 62
     7
 10
-128.9358440276
 20
245.6358440265
 11
-111.9358440276
 21
245.6358440265
  0
ARC
  8
1
  6
CONTINUOUS
 62
     7
 10
-160.9358440276
 20
247.2586659647
 40
1.0
 50
95.0
 51
180.0
  0
LINE
  8
1
  6
CONTINUOUS
 62
     7
 10
-128.9358440276
 20
182.1358440265
 11
-111.9358440276
 21
182.1358440265
  0
LINE
  8
1
  6
CONTINUOUS
 62
     7
 10
-161.0229997704
 20
186.6168273902
 11
-130.3792197006
 21
183.9358440265
  0
LINE
  8
1
  6
CONTINUOUS
 62
     7
 10
-128.9358440276
 20
224.9358440265
 11
-111.9358440276
 21
224.9358440265
  0
LINE
  8
1
  6
CONTINUOUS
 62
     7
 10
-194.6361902127
 20
217.2572860836
 11
-194.6344992413
 21
217.6138444836
  0
LINE
  8
1
  6
CONTINUOUS
 62
     7
 10
-128.9358440276
 20
249.1358440265
 11
-111.9358440276
 21
249.1358440265
  0
LINE
  8
1
  6
CONTINUOUS
 62
     7
 10
-128.9358440276
 20
247.7358440265
 11
-111.9358440276
 21
247.7358440265
  0
LINE
  8
1
  6
CONTINUOUS
 62
     7
 10
-128.9358440276
 20
220.4358440265
 11
-111.9358440276
 21
220.4358440265
  0
LINE
  8
1
  6
CONTINUOUS
 62
     7
 10
-232.6177104413
 20
217.6282424265
 11
-232.6197614127
 21
217.2024405979
  0
LINE
  8
1
  6
CONTINUOUS
 62
     7
 10
-128.9358440276
 20
229.4358440265
 11
-111.9358440276
 21
229.4358440265
  0
LINE
  8
1
  6
CONTINUOUS
 62
     7
 10
-128.9358440276
 20
233.9358440265
 11
-111.9358440276
 21
233.9358440265
  0
LINE
  8
1
  6
CONTINUOUS
 62
     7
 10
-198.7340619842
 20
233.7833925979
 11
-197.1324084126
 21
235.3850461696
  0
LINE
  8
1
  6
CONTINUOUS
 62
     7
 10
-232.7785234699
 20
228.4929868836
 11
-234.7382153556
 21
229.6244154551
  0
LINE
  8
1
  6
CONTINUOUS
 62
     7
 10
-128.9358440276
 20
230.9358440265
 11
-111.9358440276
 21
230.9358440265
  0
LINE
  8
1
  6
CONTINUOUS
 62
     7
 10
-130.3792197006
 20
250.9358440265
 11
-130.3792197006
 21
183.9358440265
  0
LINE
  8
1
  6
CONTINUOUS
 62
     7
 10
-220.3379170699
 20
238.5072714551
 11
-220.9241643911
 21
240.6951721817
  0
CIRCLE
  8
1
  6
CONTINUOUS
 62
     7
 10
-213.6269904413
 20
217.4358440265
 40
21.3942857143
  0
ARC
  8
1
  6
CONTINUOUS
 62
     7
 10
-213.6269904413
 20
217.4358440265
 40
22.1142857143
 50
347.665882
 51
42.33411799999999
  0
LINE
  8
1
  6
CONTINUOUS
 62
     7
 10
-128.9358440276
 20
221.9358440265
 11
-111.9358440276
 21
221.9358440265
  0
LINE
  8
1
  6
CONTINUOUS
 62
     7
 10
-128.9358440276
 20
250.5358440265
 11
-111.9358440276
 21
250.5358440265
  0
LINE
  8
1
  6
CONTINUOUS
 62
     7
 10
-128.9358440276
 20
252.7358440265
 11
-111.9358440276
 21
252.7358440265
  0
LINE
  8
1
  6
CONTINUOUS
 62
     7
 10
-161.0229997704
 20
248.2548606628
 11
-130.3792197006
 21
250.9358440265
  0
LINE
  8
1
  6
CONTINUOUS
 62
     7
 10
-128.9358440276
 20
243.9358440265
 11
-111.9358440276
 21
243.9358440265
  0
LINE
  8
1
  6
CONTINUOUS
 62
     7
 10
-161.9358440276
 20
187.6130220883
 11
-161.9358440276
 21
247.2586659647
  0
LINE
  8
1
  6
CENTER
 62
     7
 10
-18.3664963724
 20
217.4358440265
 11
69.8670384679
 21
217.4358440265
  0
LINE
  8
1
  6
CONTINUOUS
 62
     7
 10
-128.9358440276
 20
235.9358440265
 11
-111.9358440276
 21
235.9358440265
  0
LINE
  8
1
  6
CONTINUOUS
 62
     7
 10
-128.9358440276
 20
232.4358440265
 11
-111.9358440276
 21
232.4358440265
  0
LINE
  8
1
  6
CONTINUOUS
 62
     7
 10
-128.9358440276
 20
244.9358440265
 11
-111.9358440276
 21
244.9358440265
  0
LINE
  8
1
  6
CONTINUOUS
 62
     7
 10
-128.9358440276
 20
251.7358440265
 11
-111.9358440276
 21
251.7358440265
  0
LINE
  8
1
  6
CONTINUOUS
 62
     7
 10
-128.9358440276
 20
253.2358440265
 11
-111.9358440276
 21
253.2358440265
  0
LINE
  8
1
  6
CONTINUOUS
 62
     7
 10
-128.9358440276
 20
246.3358440265
 11
-111.9358440276
 21
246.3358440265
  0
ARC
  8
1
  6
CONTINUOUS
 62
     7
 10
-213.6269904413
 20
217.4358440265
 40
22.1142857143
 50
227.665882
 51
282.334118
  0
CIRCLE
  8
1
  6
CONTINUOUS
 62
     7
 10
-213.6269904413
 20
217.4358440265
 40
26.4342857143
  0
LINE
  8
1
  6
CONTINUOUS
 62
     7
 10
-128.9358440276
 20
238.9358440265
 11
-111.9358440276
 21
238.9358440265
  0
LINE
  8
1
  6
CONTINUOUS
 62
     7
 10
-128.9358440276
 20
247.0358440265
 11
-111.9358440276
 21
247.0358440265
  0
LINE
  8
1
  6
CONTINUOUS
 62
     7
 10
-128.9358440276
 20
236.9358440265
 11
-111.9358440276
 21
236.9358440265
  0
LINE
  8
1
  6
CENTER
 62
     7
 10
22.7242111886
 20
170.5410294767
 11
22.7242111886
 21
264.3306585763
  0
ARC
  8
1
  6
CONTINUOUS
 62
     7
 10
-213.6269904413
 20
217.4358440265
 40
22.1142857143
 50
107.665882
 51
150.0
  0
LINE
  8
1
  6
CONTINUOUS
 62
     7
 10
-128.9358440276
 20
226.4358440265
 11
-111.9358440276
 21
226.4358440265
  0
LINE
  8
1
  6
CONTINUOUS
 62
     7
 10
-128.9358440276
 20
234.9358440265
 11
-111.9358440276
 21
234.9358440265
  0
LINE
  8
1
  6
CONTINUOUS
 62
     7
 10
-230.1869904413
 20
217.4358440265
 11
-232.6186382127
 21
217.4358440265
  0
LINE
  8
1
  6
CONTINUOUS
 62
     7
 10
-197.0669904413
 20
217.4358440265
 11
-194.6353426699
 21
217.4358440265
  0
LINE
  8
1
  6
CONTINUOUS
 62
     7
 10
-128.9358440276
 20
223.4358440265
 11
-111.9358440276
 21
223.4358440265
  0
LINE
  8
1
  6
CONTINUOUS
 62
     7
 10
-128.9358440276
 20
186.4358440265
 11
-111.9358440276
 21
186.4358440265
  0
LINE
  8
1
  6
CONTINUOUS
 62
     7
 10
-128.9358440276
 20
181.4358440265
 11
-90.9358440276
 21
181.4358440265
  0
LINE
  8
1
  6
CONTINUOUS
 62
     7
 10
-128.9358440276
 20
214.4358440265
 11
-111.9358440276
 21
214.4358440265
  0
LINE
  8
1
  6
CONTINUOUS
 62
     7
 10
-128.9358440276
 20
198.9358440265
 11
-111.9358440276
 21
198.9358440265
  0
LINE
  8
1
  6
CONTINUOUS
 62
     7
 10
-128.9358440276
 20
192.9358440265
 11
-111.9358440276
 21
192.9358440265
  0
LINE
  8
1
  6
CONTINUOUS
 62
     7
 10
-128.9358440276
 20
189.2358440265
 11
-111.9358440276
 21
189.2358440265
  0
LINE
  8
1
  6
CONTINUOUS
 62
     7
 10
-96.9358440275
 20
205.6036844603
 11
-96.9358440275
 21
229.2680035927
  0
LINE
  8
1
  6
CONTINUOUS
 62
     7
 10
-128.9358440276
 20
190.9358440265
 11
-111.9358440276
 21
190.9358440265
  0
LINE
  8
1
  6
CONTINUOUS
 62
     7
 10
-92.9358440276
 20
181.4358440265
 11
-92.9358440276
 21
253.4358440265
  0
LINE
  8
1
  6
CONTINUOUS
 62
     7
 10
-111.9358440276
 20
253.4358440265
 11
-111.9358440276
 21
181.4358440265
  0
LINE
  8
1
  6
CONTINUOUS
 62
     7
 10
-128.9358440276
 20
212.9358440265
 11
-111.9358440276
 21
212.9358440265
  0
LINE
  8
1
  6
CONTINUOUS
 62
     7
 10
-128.9358440276
 20
202.4358440265
 11
-111.9358440276
 21
202.4358440265
  0
LINE
  8
1
  6
CONTINUOUS
 62
     7
 10
-128.9358440276
 20
200.9358440265
 11
-111.9358440276
 21
200.9358440265
  0
LINE
  8
1
  6
CONTINUOUS
 62
     7
 10
-128.9358440276
 20
194.9358440265
 11
-111.9358440276
 21
194.9358440265
  0
LINE
  8
1
  6
CONTINUOUS
 62
     7
 10
-128.9358440276
 20
189.9358440265
 11
-111.9358440276
 21
189.9358440265
  0
LINE
  8
1
  6
CONTINUOUS
 62
     7
 10
-128.9358440276
 20
185.7358440265
 11
-111.9358440276
 21
185.7358440265
  0
LINE
  8
1
  6
CONTINUOUS
 62
     7
 10
-128.9358440276
 20
205.4358440265
 11
-111.9358440276
 21
205.4358440265
  0
LINE
  8
1
  6
CONTINUOUS
 62
     7
 10
-128.9358440276
 20
253.4358440265
 11
-90.9358440276
 21
253.4358440265
  0
LINE
  8
1
  6
CONTINUOUS
 62
     7
 10
-128.9358440276
 20
197.9358440265
 11
-111.9358440276
 21
197.9358440265
  0
LINE
  8
1
  6
CONTINUOUS
 62
     7
 10
-128.9358440276
 20
195.9358440265
 11
-111.9358440276
 21
195.9358440265
  0
LINE
  8
1
  6
CONTINUOUS
 62
     7
 10
-128.9358440276
 20
211.4358440265
 11
-111.9358440276
 21
211.4358440265
  0
LINE
  8
1
  6
CONTINUOUS
 62
     7
 10
-128.9358440276
 20
193.9358440265
 11
-111.9358440276
 21
193.9358440265
  0
LINE
  8
1
  6
CONTINUOUS
 62
     7
 10
-106.9358440275
 20
205.6036844603
 11
-96.9358440275
 21
205.6036844603
  0
LINE
  8
1
  6
CONTINUOUS
 62
     7
 10
-128.9358440276
 20
187.1358440265
 11
-111.9358440276
 21
187.1358440265
  0
LINE
  8
1
  6
CONTINUOUS
 62
     7
 10
-128.9358440276
 20
185.0358440265
 11
-111.9358440276
 21
185.0358440265
  0
LINE
  8
1
  6
CONTINUOUS
 62
     7
 10
-128.9358440276
 20
191.9358440265
 11
-111.9358440276
 21
191.9358440265
  0
LINE
  8
1
  6
CONTINUOUS
 62
     7
 10
-106.9358440275
 20
229.2680035927
 11
-96.9358440275
 21
229.2680035927
  0
LINE
  8
1
  6
CONTINUOUS
 62
     7
 10
-128.9358440276
 20
184.3358440265
 11
-111.9358440276
 21
184.3358440265
  0
LINE
  8
1
  6
CONTINUOUS
 62
     7
 10
-128.9358440276
 20
183.6358440265
 11
-111.9358440276
 21
183.6358440265
  0
LINE
  8
1
  6
CENTER
 62
     7
 10
-33.1251742819
 20
217.4358440265
 11
-164.4699639408
 21
217.4358440265
  0
LINE
  8
1
  6
CONTINUOUS
 62
     7
 10
-128.9358440276
 20
215.9358440265
 11
-111.9358440276
 21
215.9358440265
  0
LINE
  8
1
  6
CONTINUOUS
 62
     7
 10
-128.9358440276
 20
206.9358440265
 11
-111.9358440276
 21
206.9358440265
  0
LINE
  8
1
  6
CONTINUOUS
 62
     7
 10
-106.9358440276
 20
253.4358440265
 11
-106.9358440276
 21
181.4358440265
  0
LINE
  8
1
  6
CONTINUOUS
 62
     7
 10
-128.9358440276
 20
203.9358440265
 11
-111.9358440276
 21
203.9358440265
  0
LINE
  8
1
  6
CONTINUOUS
 62
     7
 10
-128.9358440276
 20
199.9358440265
 11
-111.9358440276
 21
199.9358440265
  0
LINE
  8
1
  6
CONTINUOUS
 62
     7
 10
-128.9358440276
 20
183.1358440265
 11
-111.9358440276
 21
183.1358440265
  0
LINE
  8
1
  6
CONTINUOUS
 62
     7
 10
-128.9358440276
 20
182.6358440265
 11
-111.9358440276
 21
182.6358440265
  0
LINE
  8
1
  6
CONTINUOUS
 62
     7
 10
-128.9358440276
 20
196.9358440265
 11
-111.9358440276
 21
196.9358440265
  0
LINE
  8
1
  6
CONTINUOUS
 62
     7
 10
-128.9358440276
 20
188.5358440265
 11
-111.9358440276
 21
188.5358440265
  0
LINE
  8
1
  6
CONTINUOUS
 62
     7
 10
-128.9358440276
 20
253.4358440265
 11
-128.9358440276
 21
181.4358440265
  0
LINE
  8
1
  6
CONTINUOUS
 62
     7
 10
-128.9358440276
 20
208.4358440265
 11
-111.9358440276
 21
208.4358440265
  0
LINE
  8
1
  6
CONTINUOUS
 62
     7
 10
-128.9358440276
 20
187.8358440265
 11
-111.9358440276
 21
187.8358440265
  0
LINE
  8
1
  6
CONTINUOUS
 62
     7
 10
-128.9358440276
 20
209.9358440265
 11
-111.9358440276
 21
209.9358440265
  0
ENDSEC
  0
EOF
