  0
SECTION
  2
HEADER
  9
$ACADVER
  1
AC1004
  9
$INSBASE
 10
0.0
 20
0.0
  9
$EXTMIN
 10
-305.0231366279
 20
-123.183206
  9
$EXTMAX
 10
61.7459801993
 20
-22.0630710312
  9
$LIMMIN
 10
0.0
 20
0.0
  9
$LIMMAX
 10
12.0
 20
9.0
  9
$ORTHOMODE
 70
     0
  9
$REGENMODE
 70
     1
  9
$FILLMODE
 70
     1
  9
$QTEXTMODE
 70
     0
  9
$DRAGMODE
 70
     2
  9
$LTSCALE
 40
1.0
  9
$OSMODE
 70
    37
  9
$ATTMODE
 70
     1
  9
$TEXTSIZE
 40
0.2
  9
$TRACEWID
 40
0.05
  9
$TEXTSTYLE
  7
STANDARD
  9
$CLAYER
  8
0
  9
$CELTYPE
  6
BYLAYER
  9
$CECOLOR
 62
   256
  9
$DIMSCALE
 40
1.0
  9
$DIMASZ
 40
1.5
  9
$DIMEXO
 40
0.0625
  9
$DIMDLI
 40
0.38
  9
$DIMRND
 40
0.0
  9
$DIMDLE
 40
0.0
  9
$DIMEXE
 40
0.75
  9
$DIMTP
 40
0.0
  9
$DIMTM
 40
0.0
  9
$DIMTXT
 40
3.5
  9
$DIMCEN
 40
0.09
  9
$DIMTSZ
 40
0.0
  9
$DIMTOL
 70
     0
  9
$DIMLIM
 70
     0
  9
$DIMTIH
 70
     1
  9
$DIMTOH
 70
     1
  9
$DIMSE1
 70
     0
  9
$DIMSE2
 70
     0
  9
$DIMTAD
 70
     1
  9
$DIMZIN
 70
     0
  9
$DIMBLK
  1

  9
$DIMASO
 70
     1
  9
$DIMSHO
 70
     1
  9
$DIMPOST
  1

  9
$DIMAPOST
  1

  9
$DIMALT
 70
     0
  9
$DIMALTD
 70
     2
  9
$DIMALTF
 40
25.4
  9
$DIMLFAC
 40
1.0
  9
$DIMTOFL
 70
     0
  9
$DIMTVP
 40
0.0
  9
$DIMTIX
 70
     0
  9
$DIMSOXD
 70
     0
  9
$DIMSAH
 70
     0
  9
$DIMBLK1
  1

  9
$DIMBLK2
  1

  9
$LUNITS
 70
     2
  9
$LUPREC
 70
     4
  9
$SKETCHINC
 40
0.1
  9
$FILLETRAD
 40
0.5
  9
$AUNITS
 70
     0
  9
$AUPREC
 70
     0
  9
$MENU
  1
.
  9
$ELEVATION
 40
0.0
  9
$THICKNESS
 40
0.0
  9
$LIMCHECK
 70
     0
  9
$CHAMFERA
 40
0.0
  9
$CHAMFERB
 40
0.0
  9
$SKPOLY
 70
     0
  9
$TDCREATE
 40
2459499.394569063
  9
$TDUPDATE
 40
2459499.394569421
  9
$TDINDWG
 40
0.0000000116
  9
$TDUSRTIMER
 40
0.0000000116
  9
$USRTIMER
 70
     1
  9
$ANGBASE
 50
0.0
  9
$ANGDIR
 70
     0
  9
$PDMODE
 70
     0
  9
$PDSIZE
 40
0.0
  9
$PLINEWID
 40
0.0
  9
$COORDS
 70
     1
  9
$SPLFRAME
 70
     0
  9
$SPLINETYPE
 70
     6
  9
$SPLINESEGS
 70
     8
  9
$ATTDIA
 70
     0
  9
$ATTREQ
 70
     1
  9
$SURFTAB1
 70
     6
  9
$SURFTAB2
 70
     6
  9
$SURFTYPE
 70
     6
  9
$SURFU
 70
     6
  9
$SURFV
 70
     6
  9
$UCSNAME
  2

  9
$UCSORG
 10
0.0
 20
0.0
 30
0.0
  9
$UCSXDIR
 10
1.0
 20
0.0
 30
0.0
  9
$UCSYDIR
 10
0.0
 20
1.0
 30
0.0
  9
$USERI1
 70
     0
  9
$USERI2
 70
     0
  9
$USERI3
 70
     0
  9
$USERI4
 70
     0
  9
$USERI5
 70
     0
  9
$USERR1
 40
0.0
  9
$USERR2
 40
0.0
  9
$USERR3
 40
0.0
  9
$USERR4
 40
0.0
  9
$USERR5
 40
0.0
  9
$WORLDVIEW
 70
     1
  0
ENDSEC
  0
SECTION
  2
TABLES
  0
TABLE
  2
LTYPE
 70
     3
  0
LTYPE
  2
CONTINUOUS
 70
     0
  3
Solid line
 72
    65
 73
     0
 40
0.0
  0
LTYPE
  2
________________
 70
     0
  3

 72
    65
 73
     6
 40
6.000000030000298
 49
1.714285714285714
 49
-0.857142857142857
 49
1.714285714285714
 49
-0.857142857142857
 49
0.0000000300003
 49
-0.857142857142857
  0
LTYPE
  2
CENTER
 70
     0
  3

 72
    65
 73
     0
 40
0.0
  0
ENDTAB
  0
TABLE
  2
LAYER
 70
     2
  0
LAYER
  2
0
 70
     0
 62
     7
  6
CONTINUOUS
  0
LAYER
  2
1
 70
     0
 62
     7
  6
CONTINUOUS
  0
ENDTAB
  0
TABLE
  2
STYLE
 70
     2
  0
STYLE
  2
STANDARD
 70
     0
 40
0.0
 41
1.0
 50
0.0
 71
     0
 42
0.2
  3
txt
  4

  0
STYLE
  2
ＭＳ_ゴシック
 70
     0
 40
0.0
 41
1.0
 50
0.0
 71
     0
 42
0.2
  3
ＭＳ ゴシック.shx
  4

  0
ENDTAB
  0
TABLE
  2
VIEW
 70
     0
  0
ENDTAB
  0
ENDSEC
  0
SECTION
  2
BLOCKS
  0
ENDSEC
  0
SECTION
  2
ENTITIES
  0
TEXT
  8
1
  6
CONTINUOUS
 62
     7
 10
28.87988072369627
 20
-123.5491150909091
 40
3.5
  1
ＭＰＥＰ－５４
 41
0.88608
 51
15.0
  0
CIRCLE
  8
1
  6
CONTINUOUS
 62
     7
 10
-254.8994391488
 20
-70.7727946497
 40
31.2839999999
  0
LINE
  8
1
  6
________________
 62
     7
 10
28.9019321993
 20
-30.1394779958
 11
28.9019321993
 21
-27.7394779958
  0
LINE
  8
1
  6
________________
 62
     7
 10
20.5519321993
 20
-30.4394779958
 11
28.6019321993
 21
-30.4394779958
  0
LINE
  8
1
  6
________________
 62
     7
 10
-66.00722521440001
 20
-33.7394779959
 11
-66.0072252141
 21
-35.1394779958
  0
LINE
  8
1
  6
________________
 62
     7
 10
-70.50722521440002
 20
-32.4394779958
 11
-67.50722521440001
 21
-32.4394779958
  0
LINE
  8
1
  6
________________
 62
     7
 10
-71.0228241377
 20
-30.1394779958
 11
-71.0228241376
 21
-27.7394779958
  0
LINE
  8
1
  6
________________
 62
     7
 10
28.3224920707
 20
-27.4394779958
 11
28.3224920707
 21
-26.8394779958
  0
LINE
  8
1
  6
________________
 62
     7
 10
-71.50722521440002
 20
-31.2394779958
 11
-71.50722521440002
 21
-30.4394779958
  0
LINE
  8
1
  6
________________
 62
     7
 10
-70.50722521440002
 20
-32.4394779958
 11
-70.50722521440002
 21
-32.2394779958
  0
LINE
  8
1
  6
________________
 62
     7
 10
-66.50722521440001
 20
-35.4394779958
 11
-66.50722521440001
 21
-33.4394779958
  0
ARC
  8
1
  6
CONTINUOUS
 62
     7
 10
21.0682808309
 20
-35.9394779834
 40
0.5
 50
90.0
 51
179.0
  0
ARC
  8
1
  6
________________
 62
     7
 10
-65.8369257528
 20
-29.811700218
 40
2.372222222200002
 50
60.8722176851
 51
119.1277823149
  0
LINE
  8
1
  6
________________
 62
     7
 10
-71.00722521440002
 20
-35.4394779958
 11
-71.00722521440002
 21
-33.4394779958
  0
LINE
  8
1
  6
________________
 62
     7
 10
-67.50722521440001
 20
-35.4394779958
 11
-67.50722521440001
 21
-33.4394779958
  0
LINE
  8
1
  6
________________
 62
     7
 10
-69.50722521440001
 20
-26.2394779958
 11
-69.50722521440001
 21
-25.2394779958
  0
LINE
  8
1
  6
________________
 62
     7
 10
-66.50722521440001
 20
-33.4394779958
 11
-67.50722521440001
 21
-32.4394779958
  0
LINE
  8
1
  6
________________
 62
     7
 10
-72.0072252148
 20
-35.1394779958
 11
-72.00722521440002
 21
-33.7394779958
  0
LINE
  8
1
  6
________________
 62
     7
 10
-71.50722521440002
 20
-33.4394779958
 11
-70.50722521440002
 21
-32.4394779958
  0
LINE
  8
1
  6
________________
 62
     7
 10
-70.00722521440002
 20
-35.4394779958
 11
-70.00722521440002
 21
-33.4394779958
  0
ARC
  8
1
  6
________________
 62
     7
 10
-73.0322252144
 20
-30.1394779958
 40
0.2999999999999947
 50
180.0
 51
270.0
  0
ARC
  8
1
  6
________________
 62
     7
 10
-65.8369257528
 20
-28.0672557736
 40
2.372222222200002
 50
240.8722176851
 51
299.1277823149
  0
CIRCLE
  8
1
  6
CONTINUOUS
 62
     7
 10
12.0769321993
 20
-70.7727946497
 40
35.6
  0
ARC
  8
1
  6
CONTINUOUS
 62
     7
 10
3.0855835677
 20
-35.9394779834
 40
0.5
 50
1.0
 51
90.0
  0
ARC
  8
1
  6
CONTINUOUS
 62
     7
 10
3.7858061438
 20
-35.9461205516
 40
0.2
 50
181.0
 51
283.3910354864
  0
ARC
  8
1
  6
________________
 62
     7
 10
-72.177524676
 20
-29.811700218
 40
2.372222222200002
 50
60.8722176851
 51
119.1277823149
  0
LINE
  8
1
  6
________________
 62
     7
 10
-68.50722521440001
 20
-35.4394779958
 11
-68.50722521440001
 21
-33.4394779958
  0
ARC
  8
1
  6
________________
 62
     7
 10
-64.9822252144
 20
-27.7394779958
 40
0.2999999999999947
 50
0.0
 51
90.0
  0
LINE
  8
1
  6
________________
 62
     7
 10
-70.50722521440002
 20
-32.2394779958
 11
-71.50722521440002
 21
-31.2394779958
  0
ARC
  8
1
  6
________________
 62
     7
 10
-64.9822252144
 20
-30.1394779958
 40
0.2999999999999947
 50
270.0
 51
0.0
  0
ARC
  8
1
  6
________________
 62
     7
 10
-73.0322252144
 20
-27.7394779958
 40
0.2999999999999947
 50
90.0
 51
180.0
  0
ARC
  8
1
  6
________________
 62
     7
 10
-69.00722521440001
 20
-34.3605430281
 40
6.9210650323
 50
73.06858901930002
 51
106.9314109807
  0
ARC
  8
1
  6
________________
 62
     7
 10
-69.00722521440001
 20
-23.5184129635
 40
6.9210650323
 50
253.0685890193
 51
286.9314109807
  0
LINE
  8
1
  6
________________
 62
     7
 10
-69.50722521440001
 20
-33.4394779958
 11
-69.50722521440001
 21
-35.4394779958
  0
LINE
  8
1
  6
________________
 62
     7
 10
-71.7072252144
 20
-33.4394779958
 11
-66.3072252144
 21
-33.4394779959
  0
LINE
  8
1
  6
________________
 62
     7
 10
-67.50722521440001
 20
-32.4394779958
 11
-67.50722521440001
 21
-32.2394779958
  0
LINE
  8
1
  6
________________
 62
     7
 10
-66.50722521440001
 20
-30.4394779958
 11
-66.50722521440001
 21
-31.2394779958
  0
LINE
  8
1
  6
________________
 62
     7
 10
-66.9916262912
 20
-27.7394779958
 11
-66.9916262912
 21
-30.1394779958
  0
LINE
  8
1
  6
________________
 62
     7
 10
-67.00722521440001
 20
-33.4394779958
 11
-67.00722521440001
 21
-35.4394779958
  0
LINE
  8
1
  6
________________
 62
     7
 10
-68.00722521440001
 20
-33.4394779958
 11
-68.00722521440001
 21
-35.4394779958
  0
LINE
  8
1
  6
________________
 62
     7
 10
-70.50722521440002
 20
-33.4394779958
 11
-70.50722521440002
 21
-35.4394779958
  0
LINE
  8
1
  6
________________
 62
     7
 10
-71.50722521440002
 20
-33.4394779958
 11
-71.50722521440002
 21
-35.4394779958
  0
ARC
  8
1
  6
________________
 62
     7
 10
-72.177524676
 20
-28.0672557736
 40
2.372222222200002
 50
240.8722176851
 51
299.1277823149
  0
LINE
  8
1
  6
________________
 62
     7
 10
-71.7072252144
 20
-33.4394779958
 11
-72.00722521440002
 21
-33.7394779958
  0
LINE
  8
1
  6
________________
 62
     7
 10
-66.00722521440001
 20
-33.7394779959
 11
-66.3072252144
 21
-33.4394779959
  0
LINE
  8
1
  6
CONTINUOUS
 62
     7
 10
28.0855835677
 20
-35.4394779831
 11
21.0682808309
 21
-35.4394779831
  0
LINE
  8
1
  6
CONTINUOUS
 62
     7
 10
28.6415988695
 20
-39.1442290364
 11
28.5855074153
 21
-35.9307517798
  0
ARC
  8
1
  6
CONTINUOUS
 62
     7
 10
20.3680582548
 20
-35.9461205516
 40
0.2
 50
256.6089645136
 51
358.9999999999999
  0
ARC
  8
1
  6
CONTINUOUS
 62
     7
 10
28.8415684085
 20
-39.1407385551
 40
0.2
 50
181.0
 51
242.076910201
  0
LINE
  8
1
  6
________________
 62
     7
 10
-67.50722521440001
 20
-32.2394779958
 11
-66.50722521440001
 21
-31.2394779958
  0
LINE
  8
1
  6
________________
 62
     7
 10
-69.00722521440001
 20
-35.4394779831
 11
-69.00722521440001
 21
-33.4394779831
  0
LINE
  8
1
  6
CONTINUOUS
 62
     7
 10
3.5858366048
 20
-35.9496110329
 11
3.5855074153
 21
-35.9307517802
  0
LINE
  8
1
  6
CONTINUOUS
 62
     7
 10
-4.4877344709
 20
-39.1442290364
 11
-4.4316430167
 21
-35.9307517798
  0
LINE
  8
1
  6
________________
 62
     7
 10
-66.50722521440001
 20
-31.2394779958
 11
-71.50722521440002
 21
-31.2394779958
  0
LINE
  8
1
  6
________________
 62
     7
 10
-67.50722521440001
 20
-32.2394779958
 11
-70.50722521440002
 21
-32.2394779958
  0
ARC
  8
1
  6
CONTINUOUS
 62
     7
 10
-3.9317191691
 20
-35.9394779831
 40
0.5
 50
90.0
 51
179.0
  0
ARC
  8
1
  6
CONTINUOUS
 62
     7
 10
-4.6877040099
 20
-39.1407385551
 40
0.2
 50
297.923089799
 51
358.9999999999999
  0
LINE
  8
1
  6
________________
 62
     7
 10
-66.0072252141
 20
-35.1394779958
 11
-66.30722521400001
 21
-35.4394779958
  0
ARC
  8
1
  6
CONTINUOUS
 62
     7
 10
28.0855835677
 20
-35.9394779831
 40
0.5
 50
1.0
 51
90.0
  0
LINE
  8
1
  6
CONTINUOUS
 62
     7
 10
20.5680277938
 20
-35.9496110329
 11
20.5683569833
 21
-35.9307517802
  0
LINE
  8
1
  6
________________
 62
     7
 10
20.5519321993
 20
-27.4394779958
 11
28.6019321993
 21
-27.4394779958
  0
LINE
  8
1
  6
________________
 62
     7
 10
20.2519321993
 20
-30.1394779958
 11
20.2519321993
 21
-27.7394779958
  0
LINE
  8
1
  6
________________
 62
     7
 10
-72.0072252148
 20
-35.1394779958
 11
-71.7072252149
 21
-35.4394779958
  0
LINE
  8
1
  6
CONTINUOUS
 62
     7
 10
-3.9317191691
 20
-35.4394779831
 11
3.0855835677
 21
-35.4394779831
  0
LINE
  8
1
  6
________________
 62
     7
 10
-66.30722521400001
 20
-35.4394779958
 11
-71.7072252149
 21
-35.4394779958
  0
LINE
  8
1
  6
________________
 62
     7
 10
23.0769321993
 20
-32.4394779958
 11
26.0769321993
 21
-32.4394779958
  0
ARC
  8
1
  6
________________
 62
     7
 10
27.7472316609
 20
-29.811700218
 40
2.3722222222
 50
60.8722176851
 51
119.1277823149
  0
LINE
  8
1
  6
________________
 62
     7
 10
27.0769321993
 20
-30.4394779958
 11
27.0769321993
 21
-31.2394779958
  0
LINE
  8
1
  6
________________
 62
     7
 10
26.0769321993
 20
-32.2394779958
 11
27.0769321993
 21
-31.2394779958
  0
ARC
  8
1
  6
________________
 62
     7
 10
21.4066327377
 20
-28.0672557736
 40
2.3722222222
 50
240.8722176851
 51
299.1277823149
  0
LINE
  8
1
  6
________________
 62
     7
 10
23.5769321993
 20
-35.4394779958
 11
23.5769321993
 21
-33.4394779958
  0
LINE
  8
1
  6
________________
 62
     7
 10
27.0769321993
 20
-35.4394779958
 11
27.0769321993
 21
-33.4394779958
  0
LINE
  8
1
  6
________________
 62
     7
 10
22.3458509506
 20
-25.2394779958
 11
24.0769321993
 21
-25.2394779958
  0
LINE
  8
1
  6
________________
 62
     7
 10
25.0769321993
 20
-25.2394779958
 11
26.808013448
 21
-25.2394779958
  0
LINE
  8
1
  6
________________
 62
     7
 10
24.0769321993
 20
-33.4394779958
 11
24.0769321993
 21
-35.4394779958
  0
LINE
  8
1
  6
________________
 62
     7
 10
22.5769321993
 20
-35.4394779958
 11
22.5769321993
 21
-33.4394779958
  0
LINE
  8
1
  6
________________
 62
     7
 10
27.5769321993
 20
-33.7394779959
 11
27.5769321996
 21
-35.1394779958
  0
LINE
  8
1
  6
________________
 62
     7
 10
26.0769321993
 20
-32.2394779958
 11
23.0769321993
 21
-32.2394779958
  0
LINE
  8
1
  6
________________
 62
     7
 10
25.0769321993
 20
-26.2394779958
 11
24.0769321993
 21
-26.2394779958
  0
ARC
  8
1
  6
________________
 62
     7
 10
22.3458509506
 20
-26.7394779958
 40
1.5
 50
90.0
 51
175.0
  0
LINE
  8
1
  6
________________
 62
     7
 10
27.0769321993
 20
-31.2394779958
 11
22.0769321993
 21
-31.2394779958
  0
LINE
  8
1
  6
________________
 62
     7
 10
20.8313723279
 20
-26.8394779958
 11
20.8313723279
 21
-27.4394779958
  0
LINE
  8
1
  6
________________
 62
     7
 10
25.5769321993
 20
-33.4394779958
 11
25.5769321993
 21
-35.4394779958
  0
ARC
  8
1
  6
________________
 62
     7
 10
21.4066327377
 20
-29.811700218
 40
2.3722222222
 50
60.8722176851
 51
119.1277823149
  0
ARC
  8
1
  6
________________
 62
     7
 10
28.6019321993
 20
-27.7394779958
 40
0.3
 50
0.0
 51
90.0
  0
ARC
  8
1
  6
________________
 62
     7
 10
28.6019321993
 20
-30.1394779958
 40
0.3
 50
270.0
 51
0.0
  0
ARC
  8
1
  6
________________
 62
     7
 10
27.7472316609
 20
-28.0672557736
 40
2.3722222222
 50
240.8722176851
 51
299.1277823149
  0
LINE
  8
1
  6
________________
 62
     7
 10
22.0769321993
 20
-33.4394779958
 11
22.0769321993
 21
-35.4394779958
  0
LINE
  8
1
  6
________________
 62
     7
 10
26.0769321993
 20
-35.4394779958
 11
26.0769321993
 21
-33.4394779958
  0
LINE
  8
1
  6
________________
 62
     7
 10
25.0769321993
 20
-35.4394779958
 11
25.0769321993
 21
-33.4394779958
  0
LINE
  8
1
  6
________________
 62
     7
 10
22.0769321993
 20
-31.2394779958
 11
22.0769321993
 21
-30.4394779958
  0
LINE
  8
1
  6
________________
 62
     7
 10
26.0769321993
 20
-32.4394779958
 11
26.0769321993
 21
-32.2394779958
  0
ARC
  8
1
  6
________________
 62
     7
 10
20.5519321993
 20
-27.7394779958
 40
0.3
 50
90.0
 51
180.0
  0
ARC
  8
1
  6
________________
 62
     7
 10
20.5519321993
 20
-30.1394779958
 40
0.3
 50
180.0
 51
270.0
  0
ARC
  8
1
  6
________________
 62
     7
 10
24.5769321993
 20
-34.3605430281
 40
6.9210650323
 50
73.0685890193
 51
106.9314109807
  0
ARC
  8
1
  6
________________
 62
     7
 10
24.5769321993
 20
-23.5184129635
 40
6.9210650323
 50
253.0685890193
 51
286.9314109807
  0
LINE
  8
1
  6
________________
 62
     7
 10
27.0769321993
 20
-33.4394779958
 11
26.0769321993
 21
-32.4394779958
  0
LINE
  8
1
  6
________________
 62
     7
 10
24.0769321993
 20
-26.2394779958
 11
24.0769321993
 21
-25.2394779958
  0
LINE
  8
1
  6
________________
 62
     7
 10
26.5925311225
 20
-27.7394779958
 11
26.5925311225
 21
-30.1394779958
  0
LINE
  8
1
  6
________________
 62
     7
 10
23.0769321993
 20
-33.4394779958
 11
23.0769321993
 21
-35.4394779958
  0
LINE
  8
1
  6
________________
 62
     7
 10
22.561333276
 20
-30.1394779958
 11
22.5613332761
 21
-27.7394779958
  0
LINE
  8
1
  6
________________
 62
     7
 10
28.3023054951
 20
-26.6087443817
 11
28.3224920707
 21
-26.8394779958
  0
LINE
  8
1
  6
________________
 62
     7
 10
20.8515589035
 20
-26.6087443817
 11
20.8313723279
 21
-26.8394779958
  0
LINE
  8
1
  6
________________
 62
     7
 10
22.0769321993
 20
-33.4394779958
 11
23.0769321993
 21
-32.4394779958
  0
LINE
  8
1
  6
________________
 62
     7
 10
21.8769321993
 20
-33.4394779958
 11
21.5769321993
 21
-33.7394779958
  0
LINE
  8
1
  6
________________
 62
     7
 10
21.5769321989
 20
-35.1394779958
 11
21.8769321988
 21
-35.4394779958
  0
LINE
  8
1
  6
________________
 62
     7
 10
26.5769321993
 20
-33.4394779958
 11
26.5769321993
 21
-35.4394779958
  0
LINE
  8
1
  6
________________
 62
     7
 10
21.5769321989
 20
-35.1394779958
 11
21.5769321993
 21
-33.7394779958
  0
ARC
  8
1
  6
________________
 62
     7
 10
26.808013448
 20
-26.7394779958
 40
1.5
 50
5.0
 51
90.0
  0
LINE
  8
1
  6
________________
 62
     7
 10
25.0769321993
 20
-25.2394779958
 11
25.0769321993
 21
-26.2394779958
  0
LINE
  8
1
  6
________________
 62
     7
 10
27.2769321997
 20
-35.4394779958
 11
21.8769321988
 21
-35.4394779958
  0
LINE
  8
1
  6
________________
 62
     7
 10
21.8769321993
 20
-33.4394779958
 11
27.2769321993
 21
-33.4394779959
  0
LINE
  8
1
  6
________________
 62
     7
 10
23.0769321993
 20
-32.4394779958
 11
23.0769321993
 21
-32.2394779958
  0
LINE
  8
1
  6
________________
 62
     7
 10
23.0769321993
 20
-32.2394779958
 11
22.0769321993
 21
-31.2394779958
  0
ARC
  8
1
  6
CONTINUOUS
 62
     7
 10
-254.8994391488
 20
-70.7727946497
 40
28.38
 50
347.665882
 51
42.33411799999999
  0
ARC
  8
1
  6
CONTINUOUS
 62
     7
 10
-254.8994391488
 20
-70.7727946497
 40
28.38
 50
287.665882
 51
342.334118
  0
ARC
  8
1
  6
CONTINUOUS
 62
     7
 10
-254.8994391488
 20
-70.7727946497
 40
28.38
 50
47.66588200000001
 51
102.334118
  0
LINE
  8
1
  6
CONTINUOUS
 62
     7
 10
-263.5117949889
 20
-43.7311294497
 11
-264.2641457177
 21
-40.9233235172
  0
LINE
  8
1
  6
CONTINUOUS
 62
     7
 10
-200.1379588285
 20
-34.1763122419
 11
-166.9506008872
 21
-31.2727946497
  0
LINE
  8
1
  6
CONTINUOUS
 62
     7
 10
-261.7141001571
 20
-40.2400409032
 11
-260.9617529889
 21
-43.0478472897
  0
LINE
  8
1
  6
CONTINUOUS
 62
     7
 10
-115.5072252144
 20
-110.2727946497
 11
-115.5072252144
 21
-31.27279464969999
  0
LINE
  8
1
  6
CONTINUOUS
 62
     7
 10
-165.5072252142
 20
-42.2727946497
 11
-146.5072252142
 21
-42.2727946497
  0
ARC
  8
1
  6
CONTINUOUS
 62
     7
 10
-200.0072252144
 20
-35.6706042891
 40
1.5
 50
95.0
 51
180.0
  0
ARC
  8
1
  6
CONTINUOUS
 62
     7
 10
-254.8994391488
 20
-70.7727946497
 40
28.38
 50
180.0
 51
222.334118
  0
LINE
  8
1
  6
CONTINUOUS
 62
     7
 10
-235.7868476289
 20
-49.7934406497
 11
-233.731392212
 21
-47.7379852327
  0
LINE
  8
1
  6
CONTINUOUS
 62
     7
 10
-279.4772398689
 20
-56.5827946498
 11
-281.9921777889
 21
-55.1307946497
  0
LINE
  8
1
  6
CONTINUOUS
 62
     7
 10
-246.2870833088
 20
-97.8144598497
 11
-245.5347325801
 21
-100.6222657822
  0
ARC
  8
1
  6
CONTINUOUS
 62
     7
 10
-254.8994391488
 20
-70.7727946497
 40
28.38
 50
107.665882
 51
150.0
  0
LINE
  8
1
  6
CONTINUOUS
 62
     7
 10
-225.0499680165
 20
-80.1375012185
 11
-227.8577739488
 21
-79.3851504897
  0
LINE
  8
1
  6
CONTINUOUS
 62
     7
 10
-283.2794391489
 20
-70.7727946497
 11
-286.1834391489
 21
-70.7727946497
  0
LINE
  8
1
  6
CONTINUOUS
 62
     7
 10
-277.9342485658
 20
-91.9408415865
 11
-275.8787931488
 21
-89.8853861696
  0
LINE
  8
1
  6
CONTINUOUS
 62
     7
 10
-227.1744917889
 20
-76.8351084897
 11
-224.3666854025
 21
-77.587455658
  0
ARC
  8
1
  6
CONTINUOUS
 62
     7
 10
-254.8994391488
 20
-70.7727946497
 40
28.38
 50
227.665882
 51
282.334118
  0
LINE
  8
0
  6
CONTINUOUS
 62
     7
 10
-58.00722521440001
 20
-35.6727946497
 11
-58.00722521440001
 21
-105.8727946497
  0
LINE
  8
1
  6
________________
 62
     7
 10
-0.9230678007
 20
-26.2394779958
 11
-0.9230678007
 21
-25.2394779958
  0
LINE
  8
1
  6
________________
 62
     7
 10
-3.4230678011
 20
-35.1394779958
 11
-3.4230678007
 21
-33.7394779958
  0
LINE
  8
1
  6
________________
 62
     7
 10
1.0769321993
 20
-35.4394779958
 11
1.0769321993
 21
-33.4394779958
  0
LINE
  8
1
  6
________________
 62
     7
 10
-0.9230678007
 20
-33.4394779958
 11
-0.9230678007
 21
-35.4394779958
  0
LINE
  8
1
  6
________________
 62
     7
 10
2.0769321993
 20
-35.4394779958
 11
2.0769321993
 21
-33.4394779958
  0
LINE
  8
1
  6
________________
 62
     7
 10
-1.9230678007
 20
-32.2394779958
 11
-2.9230678007
 21
-31.2394779958
  0
ARC
  8
1
  6
________________
 62
     7
 10
2.7472316609
 20
-29.811700218
 40
2.3722222222
 50
60.8722176851
 51
119.1277823149
  0
LINE
  8
1
  6
________________
 62
     7
 10
-1.4230678007
 20
-35.4394779958
 11
-1.4230678007
 21
-33.4394779958
  0
LINE
  8
1
  6
________________
 62
     7
 10
-4.1686276721
 20
-26.8394779958
 11
-4.1686276721
 21
-27.4394779958
  0
ARC
  8
1
  6
________________
 62
     7
 10
2.7472316609
 20
-28.0672557736
 40
2.3722222222
 50
240.8722176851
 51
299.1277823149
  0
ARC
  8
1
  6
________________
 62
     7
 10
-3.5933672623
 20
-29.811700218
 40
2.3722222222
 50
60.8722176851
 51
119.1277823149
  0
ARC
  8
1
  6
________________
 62
     7
 10
-3.5933672623
 20
-28.0672557736
 40
2.3722222222
 50
240.8722176851
 51
299.1277823149
  0
ARC
  8
1
  6
________________
 62
     7
 10
3.6019321993
 20
-30.1394779958
 40
0.3
 50
270.0
 51
0.0
  0
LINE
  8
1
  6
________________
 62
     7
 10
-4.4480678007
 20
-27.4394779958
 11
3.601932199300001
 21
-27.4394779958
  0
ARC
  8
1
  6
________________
 62
     7
 10
-4.4480678007
 20
-30.1394779958
 40
0.3
 50
180.0
 51
270.0
  0
LINE
  8
1
  6
________________
 62
     7
 10
2.0769321993
 20
-31.2394779958
 11
-2.9230678007
 21
-31.2394779958
  0
ARC
  8
1
  6
________________
 62
     7
 10
-0.4230678007
 20
-34.3605430281
 40
6.9210650323
 50
73.0685890193
 51
106.9314109807
  0
LINE
  8
1
  6
________________
 62
     7
 10
27.5769321993
 20
-33.7394779959
 11
27.2769321993
 21
-33.4394779959
  0
ARC
  8
1
  6
________________
 62
     7
 10
3.6019321993
 20
-27.7394779958
 40
0.3
 50
0.0
 51
90.0
  0
ARC
  8
1
  6
________________
 62
     7
 10
-4.4480678007
 20
-27.7394779958
 40
0.3
 50
90.0
 51
180.0
  0
ARC
  8
1
  6
________________
 62
     7
 10
-0.4230678007
 20
-23.5184129635
 40
6.9210650323
 50
253.0685890193
 51
286.9314109807
  0
LINE
  8
1
  6
________________
 62
     7
 10
-4.4480678007
 20
-30.4394779958
 11
3.601932199300001
 21
-30.4394779958
  0
LINE
  8
1
  6
________________
 62
     7
 10
0.0769321993
 20
-26.2394779958
 11
-0.9230678006999999
 21
-26.2394779958
  0
LINE
  8
1
  6
________________
 62
     7
 10
0.0769321993
 20
-25.2394779958
 11
0.0769321993
 21
-26.2394779958
  0
LINE
  8
1
  6
________________
 62
     7
 10
0.5769321993
 20
-33.4394779958
 11
0.5769321993
 21
-35.4394779958
  0
LINE
  8
1
  6
________________
 62
     7
 10
-1.9230678007
 20
-32.4394779958
 11
-1.9230678007
 21
-32.2394779958
  0
LINE
  8
1
  6
________________
 62
     7
 10
0.0769321993
 20
-25.2394779958
 11
1.808013448
 21
-25.2394779958
  0
LINE
  8
1
  6
________________
 62
     7
 10
-4.7480678007
 20
-30.1394779958
 11
-4.7480678007
 21
-27.7394779958
  0
LINE
  8
1
  6
________________
 62
     7
 10
2.0769321993
 20
-33.4394779958
 11
1.0769321993
 21
-32.4394779958
  0
LINE
  8
1
  6
________________
 62
     7
 10
1.0769321993
 20
-32.2394779958
 11
2.076932199299999
 21
-31.2394779958
  0
LINE
  8
1
  6
________________
 62
     7
 10
1.5925311225
 20
-27.7394779958
 11
1.5925311225
 21
-30.1394779958
  0
LINE
  8
1
  6
________________
 62
     7
 10
-2.438666724
 20
-30.1394779958
 11
-2.4386667239
 21
-27.7394779958
  0
LINE
  8
1
  6
________________
 62
     7
 10
2.5769321996
 20
-35.1394779958
 11
2.2769321997
 21
-35.4394779958
  0
LINE
  8
1
  6
________________
 62
     7
 10
-4.1484410965
 20
-26.6087443817
 11
-4.1686276721
 21
-26.8394779958
  0
LINE
  8
1
  6
________________
 62
     7
 10
2.5769321993
 20
-33.7394779959
 11
2.5769321996
 21
-35.1394779958
  0
LINE
  8
1
  6
________________
 62
     7
 10
-3.1230678007
 20
-33.4394779958
 11
-3.4230678007
 21
-33.7394779958
  0
ARC
  8
1
  6
________________
 62
     7
 10
-2.6541490494
 20
-26.7394779958
 40
1.5
 50
90.0
 51
175.0
  0
LINE
  8
1
  6
________________
 62
     7
 10
27.5769321996
 20
-35.1394779958
 11
27.2769321997
 21
-35.4394779958
  0
LINE
  8
1
  6
________________
 62
     7
 10
1.5769321993
 20
-33.4394779958
 11
1.5769321993
 21
-35.4394779958
  0
LINE
  8
1
  6
________________
 62
     7
 10
-2.9230678007
 20
-33.4394779958
 11
-2.9230678007
 21
-35.4394779958
  0
LINE
  8
1
  6
________________
 62
     7
 10
2.0769321993
 20
-30.4394779958
 11
2.0769321993
 21
-31.2394779958
  0
LINE
  8
1
  6
________________
 62
     7
 10
-0.4230678007
 20
-35.4394779831
 11
-0.4230678007
 21
-33.4394779831
  0
LINE
  8
1
  6
________________
 62
     7
 10
-2.9230678007
 20
-31.2394779958
 11
-2.9230678007
 21
-30.4394779958
  0
ARC
  8
1
  6
________________
 62
     7
 10
1.808013448
 20
-26.7394779958
 40
1.5
 50
5.0
 51
90.0
  0
LINE
  8
1
  6
________________
 62
     7
 10
-3.1230678007
 20
-33.4394779958
 11
2.2769321993
 21
-33.4394779959
  0
LINE
  8
1
  6
________________
 62
     7
 10
1.0769321993
 20
-32.4394779958
 11
1.0769321993
 21
-32.2394779958
  0
LINE
  8
1
  6
________________
 62
     7
 10
-3.4230678011
 20
-35.1394779958
 11
-3.1230678012
 21
-35.4394779958
  0
LINE
  8
1
  6
________________
 62
     7
 10
-1.9230678007
 20
-33.4394779958
 11
-1.9230678007
 21
-35.4394779958
  0
LINE
  8
1
  6
________________
 62
     7
 10
-2.9230678007
 20
-33.4394779958
 11
-1.9230678007
 21
-32.4394779958
  0
LINE
  8
1
  6
________________
 62
     7
 10
-1.9230678007
 20
-32.4394779958
 11
1.0769321993
 21
-32.4394779958
  0
LINE
  8
1
  6
________________
 62
     7
 10
2.5769321993
 20
-33.7394779959
 11
2.2769321993
 21
-33.4394779959
  0
LINE
  8
1
  6
________________
 62
     7
 10
1.0769321993
 20
-32.2394779958
 11
-1.9230678007
 21
-32.2394779958
  0
LINE
  8
1
  6
________________
 62
     7
 10
24.5769321993
 20
-35.4394779831
 11
24.5769321993
 21
-33.4394779831
  0
LINE
  8
1
  6
________________
 62
     7
 10
0.0769321993
 20
-35.4394779958
 11
0.0769321993
 21
-33.4394779958
  0
LINE
  8
1
  6
________________
 62
     7
 10
-2.4230678007
 20
-35.4394779958
 11
-2.4230678007
 21
-33.4394779958
  0
LINE
  8
1
  6
________________
 62
     7
 10
3.3023054951
 20
-26.6087443817
 11
3.3224920707
 21
-26.8394779958
  0
LINE
  8
1
  6
________________
 62
     7
 10
2.2769321997
 20
-35.4394779958
 11
-3.123067801199999
 21
-35.4394779958
  0
LINE
  8
1
  6
________________
 62
     7
 10
3.3224920707
 20
-27.4394779958
 11
3.3224920707
 21
-26.8394779958
  0
LINE
  8
1
  6
________________
 62
     7
 10
3.9019321993
 20
-30.1394779958
 11
3.9019321993
 21
-27.7394779958
  0
LINE
  8
1
  6
________________
 62
     7
 10
-2.6541490494
 20
-25.2394779958
 11
-0.9230678007000003
 21
-25.2394779958
  0
LINE
  8
1
  6
________________
 62
     7
 10
-242.8994391488
 20
-26.2394779958
 11
-241.8994391488
 21
-26.2394779958
  0
LINE
  8
1
  6
________________
 62
     7
 10
-240.7178710288
 20
-31.2394779958
 11
-239.8994391488
 21
-31.2394779958
  0
ARC
  8
1
  6
________________
 62
     7
 10
-239.2291396872
 20
-29.811700218
 40
2.3722222222
 50
60.8722176851
 51
119.1277823149
  0
ARC
  8
1
  6
________________
 62
     7
 10
-264.2291396872
 20
-29.811700218
 40
2.3722222222
 50
60.8722176851
 51
119.1277823149
  0
ARC
  8
1
  6
________________
 62
     7
 10
-245.5697386104
 20
-29.811700218
 40
2.3722222222
 50
60.8722176851
 51
119.1277823149
  0
ARC
  8
1
  6
________________
 62
     7
 10
-239.2291396872
 20
-28.0672557736
 40
2.3722222222
 50
240.8722176851
 51
299.1277823149
  0
LINE
  8
1
  6
________________
 62
     7
 10
-266.6136855051
 20
-30.4394779958
 11
-271.4244391488
 21
-30.4394779958
  0
ARC
  8
1
  6
________________
 62
     7
 10
-270.5697386104
 20
-29.811700218
 40
2.3722222222
 50
60.8722176851
 51
119.1277823149
  0
ARC
  8
1
  6
________________
 62
     7
 10
-271.4244391488
 20
-27.7394779958
 40
0.3
 50
90.0
 51
180.0
  0
ARC
  8
1
  6
________________
 62
     7
 10
-267.3994391488
 20
-34.3605430281
 40
6.9210650323
 50
73.0685890193
 51
106.9314109807
  0
LINE
  8
1
  6
________________
 62
     7
 10
-271.1248124446
 20
-26.6087443817
 11
-271.1449990202
 21
-26.8394779958
  0
LINE
  8
1
  6
________________
 62
     7
 10
-263.0744391488
 20
-29.5760790646
 11
-263.0744391488
 21
-27.7394779958
  0
LINE
  8
1
  6
________________
 62
     7
 10
-267.8994391488
 20
-25.2394779958
 11
-267.8994391488
 21
-26.2394779958
  0
LINE
  8
1
  6
________________
 62
     7
 10
-269.8994391488
 20
-30.4394779958
 11
-269.8994391488
 21
-31.2394779958
  0
LINE
  8
1
  6
________________
 62
     7
 10
-265.1683579001
 20
-25.2394779958
 11
-266.8994391488
 21
-25.2394779958
  0
LINE
  8
1
  6
________________
 62
     7
 10
-238.3744391488
 20
-27.4394779958
 11
-246.4244391488
 21
-27.4394779958
  0
LINE
  8
1
  6
________________
 62
     7
 10
-238.3744391488
 20
-30.4394779958
 11
-243.1851927925
 21
-30.4394779958
  0
LINE
  8
1
  6
________________
 62
     7
 10
-269.415038072
 20
-27.7394779958
 11
-269.415038072
 21
-30.1394779958
  0
LINE
  8
1
  6
________________
 62
     7
 10
-263.674065853
 20
-26.6087443817
 11
-263.6538792774
 21
-26.8394779958
  0
ARC
  8
1
  6
________________
 62
     7
 10
-267.3994391488
 20
-23.5184129635
 40
6.9210650323
 50
253.0685890193
 51
279.0101834363
  0
LINE
  8
1
  6
________________
 62
     7
 10
-265.3838402272
 20
-30.1024450742
 11
-265.3838402256
 21
-27.7394779958
  0
LINE
  8
1
  6
________________
 62
     7
 10
-269.679575336
 20
-31.4593418086
 11
-269.8994391488
 21
-31.2394779958
  0
LINE
  8
1
  6
________________
 62
     7
 10
-246.1449990202
 20
-27.4394779958
 11
-246.1449990202
 21
-26.8394779958
  0
LINE
  8
1
  6
________________
 62
     7
 10
-242.8994391488
 20
-25.2394779958
 11
-244.6305203975
 21
-25.2394779958
  0
ARC
  8
1
  6
________________
 62
     7
 10
-240.1683579001
 20
-26.7394779958
 40
1.5
 50
5.0
 51
90.0
  0
LINE
  8
1
  6
________________
 62
     7
 10
-246.7244391488
 20
-29.5760790646
 11
-246.7244391488
 21
-27.7394779958
  0
LINE
  8
1
  6
________________
 62
     7
 10
-241.8994391488
 20
-26.2394779958
 11
-241.8994391488
 21
-25.2394779958
  0
ARC
  8
1
  6
________________
 62
     7
 10
-244.6305203975
 20
-26.7394779958
 40
1.5
 50
90.0
 51
175.0
  0
LINE
  8
1
  6
________________
 62
     7
 10
-239.8994391488
 20
-31.2394779958
 11
-239.8994391488
 21
-30.4394779958
  0
LINE
  8
1
  6
________________
 62
     7
 10
-240.1193029616
 20
-31.4593418086
 11
-239.8994391488
 21
-31.2394779958
  0
LINE
  8
1
  6
________________
 62
     7
 10
-269.8994391488
 20
-31.2394779958
 11
-269.0810072688
 21
-31.2394779958
  0
ARC
  8
1
  6
________________
 62
     7
 10
-263.3744391488
 20
-27.7394779958
 40
0.3
 50
0.0
 51
90.0
  0
ARC
  8
1
  6
________________
 62
     7
 10
-271.4244391488
 20
-30.1394779958
 40
0.3
 50
180.0
 51
270.0
  0
LINE
  8
1
  6
________________
 62
     7
 10
-238.0744391488
 20
-30.1394779958
 11
-238.0744391488
 21
-27.7394779958
  0
ARC
  8
1
  6
________________
 62
     7
 10
-265.1683579001
 20
-26.7394779958
 40
1.5
 50
5.0
 51
90.0
  0
ARC
  8
1
  6
________________
 62
     7
 10
-270.5697386104
 20
-28.0672557736
 40
2.3722222222
 50
240.8722176851
 51
299.1277823149
  0
LINE
  8
1
  6
________________
 62
     7
 10
-267.8994391488
 20
-25.2394779958
 11
-269.6305203975
 21
-25.2394779958
  0
LINE
  8
1
  6
________________
 62
     7
 10
-263.6538792774
 20
-26.8394779958
 11
-263.6538792774
 21
-27.4394779958
  0
LINE
  8
1
  6
________________
 62
     7
 10
-246.1248124446
 20
-26.6087443817
 11
-246.1449990202
 21
-26.8394779958
  0
LINE
  8
1
  6
________________
 62
     7
 10
-240.1683579001
 20
-25.2394779958
 11
-241.8994391488
 21
-25.2394779958
  0
LINE
  8
1
  6
________________
 62
     7
 10
-238.674065853
 20
-26.6087443817
 11
-238.6538792774
 21
-26.8394779958
  0
LINE
  8
1
  6
________________
 62
     7
 10
-271.1449990202
 20
-27.4394779958
 11
-271.1449990202
 21
-26.8394779958
  0
LINE
  8
1
  6
________________
 62
     7
 10
-271.7244391488
 20
-30.1394779958
 11
-271.7244391488
 21
-27.7394779958
  0
ARC
  8
1
  6
________________
 62
     7
 10
-269.6305203975
 20
-26.7394779958
 40
1.5
 50
90.0
 51
175.0
  0
LINE
  8
1
  6
________________
 62
     7
 10
-267.8994391488
 20
-26.2394779958
 11
-266.8994391488
 21
-26.2394779958
  0
LINE
  8
1
  6
________________
 62
     7
 10
-263.3744391488
 20
-27.4394779958
 11
-271.4244391488
 21
-27.4394779958
  0
LINE
  8
1
  6
________________
 62
     7
 10
-266.8994391488
 20
-26.2394779958
 11
-266.8994391488
 21
-25.2394779958
  0
LINE
  8
1
  6
________________
 62
     7
 10
-238.6538792774
 20
-26.8394779958
 11
-238.6538792774
 21
-27.4394779958
  0
LINE
  8
1
  6
________________
 62
     7
 10
-242.8994391488
 20
-25.2394779958
 11
-242.8994391488
 21
-26.2394779958
  0
LINE
  8
1
  6
CONTINUOUS
 62
     7
 10
-165.5072252142
 20
-109.5727946497
 11
-146.5072252142
 21
-109.5727946497
  0
LINE
  8
1
  6
CONTINUOUS
 62
     7
 10
-165.5072252142
 20
-93.2727946497
 11
-146.5072252142
 21
-93.2727946497
  0
LINE
  8
1
  6
CONTINUOUS
 62
     7
 10
-165.5072252142
 20
-78.2727946497
 11
-146.5072252142
 21
-78.2727946497
  0
LINE
  8
1
  6
CONTINUOUS
 62
     7
 10
-165.5072252142
 20
-109.0727946497
 11
-146.5072252142
 21
-109.0727946497
  0
LINE
  8
1
  6
CONTINUOUS
 62
     7
 10
-165.5072252142
 20
-76.7727946497
 11
-146.5072252142
 21
-76.7727946497
  0
LINE
  8
1
  6
CONTINUOUS
 62
     7
 10
-165.5072252142
 20
-102.2727946497
 11
-146.5072252142
 21
-102.2727946497
  0
LINE
  8
1
  6
CONTINUOUS
 62
     7
 10
-165.5072252142
 20
-85.7727946497
 11
-146.5072252142
 21
-85.7727946497
  0
LINE
  8
1
  6
CONTINUOUS
 62
     7
 10
-165.5072252142
 20
-73.7727946497
 11
-146.5072252142
 21
-73.7727946497
  0
LINE
  8
1
  6
CONTINUOUS
 62
     7
 10
-165.5072252142
 20
-96.2727946497
 11
-146.5072252142
 21
-96.2727946497
  0
ARC
  8
1
  6
CONTINUOUS
 62
     7
 10
-138.7498659014
 20
-109.7727946497
 40
3.0
 50
270.0
 51
315.0
  0
ARC
  8
1
  6
CONTINUOUS
 62
     7
 10
-134.1787980895
 20
-112.2727946497
 40
2.0
 50
90.0
 51
135.0
  0
LINE
  8
1
  6
CONTINUOUS
 62
     7
 10
-141.5072252142
 20
-28.7727946497
 11
-141.5072252142
 21
-112.7727946497
  0
LINE
  8
1
  6
CONTINUOUS
 62
     7
 10
-165.5072252142
 20
-97.2727946497
 11
-146.5072252142
 21
-97.2727946497
  0
LINE
  8
1
  6
CONTINUOUS
 62
     7
 10
-165.5072252142
 20
-110.0727946497
 11
-146.5072252142
 21
-110.0727946497
  0
LINE
  8
1
  6
CONTINUOUS
 62
     7
 10
-165.5072252142
 20
-95.2727946497
 11
-146.5072252142
 21
-95.2727946497
  0
LINE
  8
1
  6
CONTINUOUS
 62
     7
 10
-165.5072252142
 20
-102.9727946497
 11
-146.5072252142
 21
-102.9727946497
  0
LINE
  8
1
  6
CONTINUOUS
 62
     7
 10
-165.5072252142
 20
-105.0727946497
 11
-146.5072252142
 21
-105.0727946497
  0
LINE
  8
1
  6
CONTINUOUS
 62
     7
 10
-134.1787980895
 20
-110.2727946497
 11
-115.5072252144
 21
-110.2727946497
  0
LINE
  8
1
  6
CONTINUOUS
 62
     7
 10
-134.9441649542
 20
-31.1205537147
 11
-134.9441649542
 21
-110.4250355847
  0
LINE
  8
1
  6
CONTINUOUS
 62
     7
 10
-165.5072252142
 20
-94.2727946497
 11
-146.5072252142
 21
-94.2727946497
  0
LINE
  8
1
  6
CONTINUOUS
 62
     7
 10
-165.5072252142
 20
-111.0727946497
 11
-146.5072252142
 21
-111.0727946497
  0
LINE
  8
1
  6
CONTINUOUS
 62
     7
 10
-165.5072252142
 20
-106.4727946497
 11
-146.5072252142
 21
-106.4727946497
  0
LINE
  8
1
  6
CONTINUOUS
 62
     7
 10
-165.5072252142
 20
-72.2727946497
 11
-146.5072252142
 21
-72.2727946497
  0
LINE
  8
1
  6
CONTINUOUS
 62
     7
 10
-165.5072252142
 20
-79.7727946497
 11
-146.5072252142
 21
-79.7727946497
  0
LINE
  8
1
  6
CONTINUOUS
 62
     7
 10
-165.5072252142
 20
-107.1727946497
 11
-146.5072252142
 21
-107.1727946497
  0
LINE
  8
1
  6
CONTINUOUS
 62
     7
 10
-165.5072252142
 20
-107.8727946497
 11
-146.5072252142
 21
-107.8727946497
  0
LINE
  8
1
  6
CONTINUOUS
 62
     7
 10
-165.5072252142
 20
-75.2727946497
 11
-146.5072252142
 21
-75.2727946497
  0
LINE
  8
1
  6
CONTINUOUS
 62
     7
 10
-165.5072252142
 20
-108.5727946497
 11
-146.5072252142
 21
-108.5727946497
  0
LINE
  8
1
  6
CENTER
 62
     7
 10
-48.1723938399
 20
-70.7727946497
 11
-204.0413451273
 21
-70.7727946497
  0
LINE
  8
1
  6
CONTINUOUS
 62
     7
 10
-165.5072252142
 20
-90.2727946497
 11
-146.5072252142
 21
-90.2727946497
  0
LINE
  8
1
  6
CONTINUOUS
 62
     7
 10
-165.5072252142
 20
-105.7727946497
 11
-146.5072252142
 21
-105.7727946497
  0
LINE
  8
1
  6
CONTINUOUS
 62
     7
 10
-165.5072252142
 20
-110.5727946497
 11
-146.5072252142
 21
-110.5727946497
  0
LINE
  8
1
  6
CONTINUOUS
 62
     7
 10
-165.5072252142
 20
-100.1727946497
 11
-146.5072252142
 21
-100.1727946497
  0
LINE
  8
1
  6
CONTINUOUS
 62
     7
 10
-135.5930116519
 20
-30.6870082121
 11
-136.6285455578
 21
-29.6514743061
  0
LINE
  8
1
  6
CONTINUOUS
 62
     7
 10
-138.7498659014
 20
-28.7727946497
 11
-165.5072252142
 21
-28.7727946497
  0
LINE
  8
1
  6
CONTINUOUS
 62
     7
 10
-165.5072252142
 20
-81.2727946497
 11
-146.5072252142
 21
-81.2727946497
  0
LINE
  8
1
  6
CONTINUOUS
 62
     7
 10
-165.5072252142
 20
-88.2727946497
 11
-146.5072252142
 21
-88.2727946497
  0
ARC
  8
1
  6
CONTINUOUS
 62
     7
 10
-138.7498659014
 20
-31.7727946497
 40
3.0
 50
45.0
 51
90.0
  0
LINE
  8
1
  6
CONTINUOUS
 62
     7
 10
-165.5072252142
 20
-112.7727946497
 11
-166.9506008872
 21
-110.2727946497
  0
LINE
  8
1
  6
CONTINUOUS
 62
     7
 10
-165.5072252142
 20
-89.2727946497
 11
-146.5072252142
 21
-89.2727946497
  0
LINE
  8
1
  6
CONTINUOUS
 62
     7
 10
-117.5072252144
 20
-110.2727946497
 11
-117.5072252144
 21
-31.27279464969999
  0
LINE
  8
1
  6
CONTINUOUS
 62
     7
 10
-165.5072252142
 20
-87.2727946497
 11
-146.5072252142
 21
-87.2727946497
  0
LINE
  8
1
  6
CONTINUOUS
 62
     7
 10
-165.5072252142
 20
-111.5727946497
 11
-146.5072252142
 21
-111.5727946497
  0
LINE
  8
1
  6
CONTINUOUS
 62
     7
 10
-146.5072252142
 20
-28.7727946497
 11
-146.5072252142
 21
-112.7727946497
  0
LINE
  8
1
  6
CONTINUOUS
 62
     7
 10
-165.5072252142
 20
-112.0727946497
 11
-146.5072252142
 21
-112.0727946497
  0
LINE
  8
1
  6
CONTINUOUS
 62
     7
 10
-166.9506008872
 20
-31.2727946497
 11
-166.9506008872
 21
-110.2727946497
  0
LINE
  8
1
  6
CONTINUOUS
 62
     7
 10
-165.5072252142
 20
-103.6727946497
 11
-146.5072252142
 21
-103.6727946497
  0
LINE
  8
1
  6
CONTINUOUS
 62
     7
 10
-165.5072252142
 20
-104.3727946497
 11
-146.5072252142
 21
-104.3727946497
  0
LINE
  8
1
  6
CONTINUOUS
 62
     7
 10
-165.5072252142
 20
-82.7727946497
 11
-146.5072252142
 21
-82.7727946497
  0
ARC
  8
1
  6
CONTINUOUS
 62
     7
 10
-134.1787980895
 20
-29.2727946497
 40
2.0
 50
225.0
 51
270.0
  0
LINE
  8
1
  6
CONTINUOUS
 62
     7
 10
-165.5072252142
 20
-92.2727946497
 11
-146.5072252142
 21
-92.2727946497
  0
LINE
  8
1
  6
CONTINUOUS
 62
     7
 10
-201.5072252142
 20
-106.3331505973
 11
-201.507225214
 21
-35.2124387021
  0
LINE
  8
1
  6
CONTINUOUS
 62
     7
 10
-138.7498659014
 20
-112.7727946497
 11
-165.5072252142
 21
-112.7727946497
  0
LINE
  8
1
  6
CONTINUOUS
 62
     7
 10
-134.1787980895
 20
-31.2727946497
 11
-115.5072252144
 21
-31.2727946497
  0
LINE
  8
1
  6
CONTINUOUS
 62
     7
 10
-165.5072252142
 20
-84.2727946497
 11
-146.5072252142
 21
-84.2727946497
  0
LINE
  8
1
  6
CONTINUOUS
 62
     7
 10
-135.5930116519
 20
-110.8585810873
 11
-136.6285455578
 21
-111.8941149933
  0
LINE
  8
1
  6
CONTINUOUS
 62
     7
 10
-165.5072252142
 20
-91.2727946497
 11
-146.5072252142
 21
-91.2727946497
  0
LINE
  8
1
  6
CONTINUOUS
 62
     7
 10
-165.5072252142
 20
-28.7727946497
 11
-165.5072252142
 21
-112.7727946497
  0
LINE
  8
1
  6
CONTINUOUS
 62
     7
 10
-165.5072252142
 20
-44.2727946497
 11
-146.5072252142
 21
-44.2727946497
  0
LINE
  8
1
  6
CONTINUOUS
 62
     7
 10
-165.5072252142
 20
-30.9727946497
 11
-146.5072252142
 21
-30.9727946497
  0
LINE
  8
1
  6
CONTINUOUS
 62
     7
 10
-165.5072252142
 20
-100.8727946497
 11
-146.5072252142
 21
-100.8727946497
  0
LINE
  8
1
  6
CONTINUOUS
 62
     7
 10
-165.5072252142
 20
-38.5727946497
 11
-146.5072252142
 21
-38.5727946497
  0
LINE
  8
1
  6
CONTINUOUS
 62
     7
 10
-165.5072252142
 20
-54.2727946497
 11
-146.5072252142
 21
-54.2727946497
  0
LINE
  8
1
  6
CONTINUOUS
 62
     7
 10
-165.5072252142
 20
-37.1727946497
 11
-146.5072252142
 21
-37.1727946497
  0
LINE
  8
1
  6
CONTINUOUS
 62
     7
 10
-165.5072252142
 20
-60.2727946497
 11
-146.5072252142
 21
-60.2727946497
  0
LINE
  8
1
  6
CONTINUOUS
 62
     7
 10
-165.5072252142
 20
-55.7727946497
 11
-146.5072252142
 21
-55.7727946497
  0
LINE
  8
1
  6
CONTINUOUS
 62
     7
 10
-165.5072252142
 20
-48.2727946497
 11
-146.5072252142
 21
-48.2727946497
  0
LINE
  8
1
  6
CONTINUOUS
 62
     7
 10
-165.5072252142
 20
-46.2727946497
 11
-146.5072252142
 21
-46.2727946497
  0
LINE
  8
1
  6
CONTINUOUS
 62
     7
 10
-165.5072252142
 20
-49.2727946497
 11
-146.5072252142
 21
-49.2727946497
  0
LINE
  8
1
  6
CONTINUOUS
 62
     7
 10
-165.5072252142
 20
-36.4727946497
 11
-146.5072252142
 21
-36.4727946497
  0
LINE
  8
1
  6
CONTINUOUS
 62
     7
 10
-165.5072252142
 20
-29.4727946497
 11
-146.5072252142
 21
-29.4727946497
  0
LINE
  8
1
  6
CONTINUOUS
 62
     7
 10
-165.5072252142
 20
-34.3727946497
 11
-146.5072252142
 21
-34.3727946497
  0
LINE
  8
1
  6
CONTINUOUS
 62
     7
 10
-165.5072252142
 20
-101.5727946497
 11
-146.5072252142
 21
-101.5727946497
  0
LINE
  8
1
  6
CONTINUOUS
 62
     7
 10
-165.5072252142
 20
-98.2727946497
 11
-146.5072252142
 21
-98.2727946497
  0
LINE
  8
1
  6
CONTINUOUS
 62
     7
 10
-165.5072252142
 20
-33.6727946497
 11
-146.5072252142
 21
-33.6727946497
  0
LINE
  8
1
  6
CONTINUOUS
 62
     7
 10
-165.5072252142
 20
-35.7727946497
 11
-146.5072252142
 21
-35.7727946497
  0
LINE
  8
1
  6
CONTINUOUS
 62
     7
 10
-165.5072252142
 20
-31.9727946497
 11
-146.5072252142
 21
-31.9727946497
  0
LINE
  8
1
  6
CONTINUOUS
 62
     7
 10
-165.5072252142
 20
-40.6727946497
 11
-146.5072252142
 21
-40.6727946497
  0
LINE
  8
1
  6
CONTINUOUS
 62
     7
 10
-165.5072252142
 20
-32.4727946497
 11
-146.5072252142
 21
-32.4727946497
  0
LINE
  8
1
  6
CONTINUOUS
 62
     7
 10
-165.5072252142
 20
-64.7727946497
 11
-146.5072252142
 21
-64.7727946497
  0
LINE
  8
1
  6
CONTINUOUS
 62
     7
 10
-165.5072252142
 20
-39.2727946497
 11
-146.5072252142
 21
-39.2727946497
  0
LINE
  8
1
  6
CONTINUOUS
 62
     7
 10
-165.5072252142
 20
-35.0727946497
 11
-146.5072252142
 21
-35.0727946497
  0
LINE
  8
1
  6
CONTINUOUS
 62
     7
 10
-165.5072252142
 20
-41.3727946497
 11
-146.5072252142
 21
-41.3727946497
  0
LINE
  8
1
  6
CONTINUOUS
 62
     7
 10
-165.5072252142
 20
-45.2727946497
 11
-146.5072252142
 21
-45.2727946497
  0
LINE
  8
1
  6
CONTINUOUS
 62
     7
 10
-165.5072252142
 20
-39.9727946497
 11
-146.5072252142
 21
-39.9727946497
  0
LINE
  8
1
  6
CONTINUOUS
 62
     7
 10
-165.5072252142
 20
-43.2727946497
 11
-146.5072252142
 21
-43.2727946497
  0
LINE
  8
1
  6
CONTINUOUS
 62
     7
 10
-165.5072252142
 20
-58.7727946497
 11
-146.5072252142
 21
-58.7727946497
  0
LINE
  8
1
  6
CONTINUOUS
 62
     7
 10
-165.5072252142
 20
-99.2727946497
 11
-146.5072252142
 21
-99.2727946497
  0
LINE
  8
1
  6
CONTINUOUS
 62
     7
 10
-165.5072252142
 20
-28.7727946497
 11
-166.9506008872
 21
-31.2727946497
  0
LINE
  8
1
  6
CONTINUOUS
 62
     7
 10
-165.5072252142
 20
-66.2727946497
 11
-146.5072252142
 21
-66.2727946497
  0
LINE
  8
1
  6
CONTINUOUS
 62
     7
 10
-165.5072252142
 20
-32.9727946497
 11
-146.5072252142
 21
-32.9727946497
  0
LINE
  8
1
  6
CONTINUOUS
 62
     7
 10
-165.5072252142
 20
-69.2727946497
 11
-146.5072252142
 21
-69.2727946497
  0
LINE
  8
1
  6
CONTINUOUS
 62
     7
 10
-165.5072252142
 20
-53.2727946497
 11
-146.5072252142
 21
-53.2727946497
  0
LINE
  8
1
  6
CONTINUOUS
 62
     7
 10
-165.5072252142
 20
-51.2727946497
 11
-146.5072252142
 21
-51.2727946497
  0
LINE
  8
1
  6
CONTINUOUS
 62
     7
 10
-165.5072252142
 20
-37.8727946497
 11
-146.5072252142
 21
-37.8727946497
  0
LINE
  8
1
  6
CONTINUOUS
 62
     7
 10
-165.5072252142
 20
-67.7727946497
 11
-146.5072252142
 21
-67.7727946497
  0
ARC
  8
1
  6
CONTINUOUS
 62
     7
 10
-200.0072252144
 20
-105.8749850103
 40
1.5
 50
180.0
 51
265.0
  0
LINE
  8
1
  6
CONTINUOUS
 62
     7
 10
-165.5072252142
 20
-57.2727946497
 11
-146.5072252142
 21
-57.2727946497
  0
LINE
  8
1
  6
CONTINUOUS
 62
     7
 10
-165.5072252142
 20
-52.2727946497
 11
-146.5072252142
 21
-52.2727946497
  0
LINE
  8
1
  6
CONTINUOUS
 62
     7
 10
-165.5072252142
 20
-30.4727946497
 11
-146.5072252142
 21
-30.4727946497
  0
LINE
  8
1
  6
CONTINUOUS
 62
     7
 10
-165.5072252142
 20
-29.9727946497
 11
-146.5072252142
 21
-29.9727946497
  0
LINE
  8
1
  6
CONTINUOUS
 62
     7
 10
-165.5072252142
 20
-31.4727946497
 11
-146.5072252142
 21
-31.4727946497
  0
LINE
  8
1
  6
CONTINUOUS
 62
     7
 10
-165.5072252142
 20
-63.27279464970001
 11
-146.5072252142
 21
-63.27279464970001
  0
LINE
  8
1
  6
CONTINUOUS
 62
     7
 10
-165.5072252142
 20
-47.2727946497
 11
-146.5072252142
 21
-47.2727946497
  0
LINE
  8
1
  6
CONTINUOUS
 62
     7
 10
-165.5072252142
 20
-50.2727946497
 11
-146.5072252142
 21
-50.2727946497
  0
LINE
  8
1
  6
CONTINUOUS
 62
     7
 10
-200.1379588285
 20
-107.3692770575
 11
-166.9506008872
 21
-110.2727946497
  0
LINE
  8
1
  6
CONTINUOUS
 62
     7
 10
-165.5072252142
 20
-61.7727946497
 11
-146.5072252142
 21
-61.7727946497
  0
LINE
  8
1
  6
________________
 62
     7
 10
-240.3838402255
 20
-30.1394779958
 11
-240.3838402256
 21
-27.7394779958
  0
ARC
  8
1
  6
________________
 62
     7
 10
-242.3994391488
 20
-23.5184129635
 40
6.9210650323
 50
260.9898165637
 51
286.9314109807
  0
ARC
  8
1
  6
________________
 62
     7
 10
-238.3744391488
 20
-27.7394779958
 40
0.3
 50
0.0
 51
90.0
  0
ARC
  8
1
  6
________________
 62
     7
 10
-242.3994391488
 20
-34.3605430281
 40
6.9210650323
 50
73.0685890193
 51
106.9314109807
  0
ARC
  8
1
  6
________________
 62
     7
 10
-238.3744391488
 20
-30.1394779958
 40
0.3
 50
270.0
 51
0.0
  0
LINE
  8
1
  6
________________
 62
     7
 10
-244.415038072
 20
-27.7394779958
 11
-244.415038072
 21
-30.1024450807
  0
ARC
  8
1
  6
________________
 62
     7
 10
-246.4244391488
 20
-27.7394779958
 40
0.3
 50
90.0
 51
180.0
  0
ARC
  8
1
  6
________________
 62
     7
 10
-71.2383064631
 20
-26.7394779958
 40
1.500000000000001
 50
90.0
 51
175.0
  0
LINE
  8
1
  6
________________
 62
     7
 10
-68.50722521440001
 20
-25.2394779958
 11
-68.50722521440001
 21
-26.2394779958
  0
ARC
  8
1
  6
CONTINUOUS
 62
     7
 10
-68.3833345435
 20
-33.6634709144
 40
5.533854114799993
 50
282.3179347101
 51
293.7553511295
  0
LINE
  8
1
  6
CONTINUOUS
 62
     7
 10
-115.5072252144
 20
-102.2727946497
 11
-115.5072252144
 21
-39.2727946497
  0
ARC
  8
1
  6
CONTINUOUS
 62
     7
 10
12.0769321993
 20
-70.7727946497
 40
39.5
 50
113.104232487
 51
66.89576751610002
  0
LINE
  8
1
  6
CONTINUOUS
 62
     7
 10
-58.00722521440001
 20
-35.6727946497
 11
-58.50722521440001
 21
-35.1727946497
  0
ARC
  8
1
  6
CONTINUOUS
 62
     7
 10
-65.498573846
 20
-35.9394779831
 40
0.5000000000000004
 50
1.0
 51
90.0
  0
LINE
  8
1
  6
________________
 62
     7
 10
-68.50722521440001
 20
-26.2394779958
 11
-69.50722521440001
 21
-26.2394779958
  0
LINE
  8
1
  6
________________
 62
     7
 10
-64.6822252144
 20
-30.1394779958
 11
-64.6822252144
 21
-27.7394779958
  0
ARC
  8
1
  6
CONTINUOUS
 62
     7
 10
-69.6311158853
 20
-33.6634709144
 40
5.533854114799993
 50
246.2446488705
 51
257.6820652899
  0
ARC
  8
1
  6
CONTINUOUS
 62
     7
 10
-72.5158765828
 20
-35.9394779831
 40
0.5000000000000004
 50
90.0
 51
179.0
  0
ARC
  8
1
  6
CONTINUOUS
 62
     7
 10
-66.1022555766
 20
-37.3679655061
 40
1.132191087099998
 50
308.4449996852001
 51
356.378621504
  0
CIRCLE
  8
1
  6
CONTINUOUS
 62
     7
 10
12.0769321993
 20
-70.7727946497
 40
25.2500000005
  0
LINE
  8
1
  6
CONTINUOUS
 62
     7
 10
-58.00722521440001
 20
-105.8727946497
 11
-58.50722521440001
 21
-106.3727946497
  0
ARC
  8
1
  6
CONTINUOUS
 62
     7
 10
-70.6922889923
 20
-36.0252268383
 40
2.944793038999999
 50
229.2084286126
 51
246.6313084553
  0
LINE
  8
1
  6
CONTINUOUS
 62
     7
 10
-93.00722521440001
 20
-102.7727946497
 11
-115.0072252144
 21
-102.7727946497
  0
LINE
  8
1
  6
CONTINUOUS
 62
     7
 10
-73.0158004304
 20
-35.9307517798
 11
-73.04213534430001
 21
-37.4394779831
  0
LINE
  8
1
  6
CONTINUOUS
 62
     7
 10
-64.99864999840001
 20
-35.9307517798
 11
-64.97231508450002
 21
-37.4394779831
  0
LINE
  8
1
  6
CONTINUOUS
 62
     7
 10
-90.00722521440001
 20
-106.3727946497
 11
-58.50722521440001
 21
-106.3727946497
  0
LINE
  8
1
  6
________________
 62
     7
 10
-65.2818519186
 20
-26.6087443817
 11
-65.26166534300002
 21
-26.8394779958
  0
LINE
  8
1
  6
________________
 62
     7
 10
-71.2383064631
 20
-25.2394779958
 11
-69.50722521440001
 21
-25.2394779958
  0
LINE
  8
1
  6
________________
 62
     7
 10
-72.7527850858
 20
-26.8394779958
 11
-72.7527850858
 21
-27.4394779958
  0
LINE
  8
1
  6
________________
 62
     7
 10
-73.0322252144
 20
-27.4394779958
 11
-64.9822252144
 21
-27.4394779958
  0
ARC
  8
1
  6
________________
 62
     7
 10
-66.7761439657
 20
-26.7394779958
 40
1.500000000000001
 50
5.0
 51
90.0
  0
CIRCLE
  8
1
  6
CONTINUOUS
 62
     7
 10
-254.8994391488
 20
-70.7727946497
 40
38.1818181845
  0
ARC
  8
1
  6
CONTINUOUS
 62
     7
 10
-90.00722521440001
 20
-36.1727946497
 40
1.000000000000001
 50
90.0
 51
180.0
  0
ARC
  8
1
  6
CONTINUOUS
 62
     7
 10
-67.3221614365
 20
-36.0252268383
 40
2.944793038999999
 50
293.3686915447
 51
310.7915713874
  0
LINE
  8
1
  6
CONTINUOUS
 62
     7
 10
-90.00722521440001
 20
-35.1727946497
 11
-71.97390856090001
 21
-35.1727946497
  0
ARC
  8
1
  6
CONTINUOUS
 62
     7
 10
12.0769321993
 20
-70.7727946497
 40
42.0
 50
110.604061678
 51
69.395938322
  0
LINE
  8
1
  6
CONTINUOUS
 62
     7
 10
-66.040541868
 20
-35.1727946497
 11
-58.50722521440001
 21
-35.1727946497
  0
LINE
  8
1
  6
CONTINUOUS
 62
     7
 10
-91.00722521440001
 20
-36.1727946497
 11
-91.00722521440001
 21
-105.3727946497
  0
LINE
  8
1
  6
CENTER
 62
     7
 10
-254.8989903489
 20
-22.0630710312
 11
-254.8989903489
 21
-122.0213998996
  0
LINE
  8
1
  6
CONTINUOUS
 62
     7
 10
-93.00722521440001
 20
-38.7727946497
 11
-115.0072252144
 21
-38.7727946497
  0
ARC
  8
1
  6
CONTINUOUS
 62
     7
 10
12.0769321993
 20
-70.7727946497
 40
39.5
 50
74.29495481429998
 51
105.7050451857
  0
LINE
  8
1
  6
CONTINUOUS
 62
     7
 10
-115.5072252144
 20
-102.2727946497
 11
-115.0072252144
 21
-102.7727946497
  0
LINE
  8
1
  6
CONTINUOUS
 62
     7
 10
-115.0072252144
 20
-102.7727946497
 11
-115.0072252144
 21
-38.7727946497
  0
ARC
  8
1
  6
CONTINUOUS
 62
     7
 10
-93.00722521440001
 20
-36.7727946497
 40
2.000000000000002
 50
270.0
 51
0.0
  0
LINE
  8
1
  6
CONTINUOUS
 62
     7
 10
-58.50722521440001
 20
-106.3727946497
 11
-58.50722521440001
 21
-35.17279464970001
  0
ARC
  8
1
  6
CONTINUOUS
 62
     7
 10
-71.9121948522
 20
-37.3679655061
 40
1.132191087099998
 50
183.621378496
 51
231.5550003148001
  0
LINE
  8
1
  6
CENTER
 62
     7
 10
-36.0921158007
 20
-70.7727946497
 11
61.7459801993
 21
-70.7727946497
  0
CIRCLE
  8
1
  6
CONTINUOUS
 62
     7
 10
-254.8994391488
 20
-70.7727946497
 40
25.250000004
  0
ARC
  8
1
  6
CONTINUOUS
 62
     7
 10
-68.97896266780002
 20
-30.971536987
 40
8.290889167899994
 50
269.8046858735
 51
282.3706570314
  0
ARC
  8
1
  6
CONTINUOUS
 62
     7
 10
12.0769321993
 20
-70.7727946497
 40
42.0
 50
78.7761389388
 51
101.2238610612
  0
LINE
  8
1
  6
CONTINUOUS
 62
     7
 10
-65.498573846
 20
-35.4394779831
 11
-72.5158765828
 21
-35.4394779831
  0
LINE
  8
1
  6
________________
 62
     7
 10
-73.3322252144
 20
-30.1394779958
 11
-73.3322252144
 21
-27.7394779958
  0
ARC
  8
1
  6
CONTINUOUS
 62
     7
 10
-90.00722521440001
 20
-105.3727946497
 40
1.000000000000001
 50
180.0
 51
270.0
  0
LINE
  8
1
  6
________________
 62
     7
 10
-73.0322252144
 20
-30.4394779958
 11
-64.9822252144
 21
-30.4394779958
  0
LINE
  8
1
  6
________________
 62
     7
 10
-65.26166534300002
 20
-27.4394779958
 11
-65.26166534300002
 21
-26.8394779958
  0
LINE
  8
1
  6
________________
 62
     7
 10
-68.50722521440001
 20
-25.2394779958
 11
-66.7761439657
 21
-25.2394779958
  0
LINE
  8
1
  6
CONTINUOUS
 62
     7
 10
-115.5072252144
 20
-39.2727946497
 11
-115.0072252144
 21
-38.7727946497
  0
LINE
  8
1
  6
CENTER
 62
     7
 10
12.0769321993
 20
-122.0213998996
 11
12.0769321993
 21
-24.1037466497
  0
LINE
  8
1
  6
________________
 62
     7
 10
-72.73259851020002
 20
-26.6087443817
 11
-72.7527850858
 21
-26.8394779958
  0
LINE
  8
1
  6
CENTER
 62
     7
 10
-205.8285147791
 20
-70.7727946497
 11
-305.0231366279
 21
-70.7727946497
  0
ARC
  8
1
  6
CONTINUOUS
 62
     7
 10
-93.00722521440001
 20
-104.7727946497
 40
2.000000000000002
 50
0.0
 51
90.0
  0
ARC
  8
1
  6
CONTINUOUS
 62
     7
 10
-69.035487761
 20
-30.971536987
 40
8.290889167899994
 50
257.6293429686
 51
270.1953141265
  0
CIRCLE
  8
1
  6
CONTINUOUS
 62
     7
 10
-254.8994391488
 20
-70.7727946497
 40
32.8000000031
  0
LINE
  8
1
  6
CONTINUOUS
 62
     7
 10
-231.864629732
 20
-49.6047477129
 11
-233.9200851489
 21
-51.6602031298
  0
LINE
  8
1
  6
CONTINUOUS
 62
     7
 10
-248.0847781406
 20
-101.3055483962
 11
-248.8371253089
 21
-98.4977420097
  0
CIRCLE
  8
1
  6
CONTINUOUS
 62
     7
 10
-254.8994391488
 20
-70.7727946497
 40
42.0
  0
LINE
  8
1
  6
CONTINUOUS
 62
     7
 10
-274.0120306689
 20
-91.7521486497
 11
-276.0674860857
 21
-93.8076040667
  0
ENDSEC
  0
EOF
