  0
SECTION
  2
HEADER
  9
$ACADVER
  1
AC1006
  9
$DWGCODEPAGE
  3
ansi_932
  9
$INSBASE
 10
0.0
 20
0.0
 30
0.0
  9
$EXTMIN
 10
54.99999999999999
 20
109.775123
  9
$EXTMAX
 10
163.9326548261
 20
151.0864060983
  9
$LIMMIN
 10
0.0
 20
0.0
  9
$LIMMAX
 10
12.0
 20
9.0
  9
$ORTHOMODE
 70
     0
  9
$REGENMODE
 70
     1
  9
$FILLMODE
 70
     1
  9
$QTEXTMODE
 70
     0
  9
$MIRRTEXT
 70
     1
  9
$DRAGMODE
 70
     2
  9
$LTSCALE
 40
1.0
  9
$OSMODE
 70
    37
  9
$ATTMODE
 70
     1
  9
$TEXTSIZE
 40
0.2
  9
$TRACEWID
 40
0.05
  9
$TEXTSTYLE
  7
STANDARD
  9
$CLAYER
  8
0
  9
$CELTYPE
  6
BYLAYER
  9
$CECOLOR
 62
   256
  9
$DIMSCALE
 40
1.0
  9
$DIMASZ
 40
1.5
  9
$DIMEXO
 40
0.0625
  9
$DIMDLI
 40
0.38
  9
$DIMRND
 40
0.0
  9
$DIMDLE
 40
0.0
  9
$DIMEXE
 40
0.75
  9
$DIMTP
 40
0.0
  9
$DIMTM
 40
0.0
  9
$DIMTXT
 40
3.5
  9
$DIMCEN
 40
0.09
  9
$DIMTSZ
 40
0.0
  9
$DIMTOL
 70
     0
  9
$DIMLIM
 70
     0
  9
$DIMTIH
 70
     1
  9
$DIMTOH
 70
     1
  9
$DIMSE1
 70
     0
  9
$DIMSE2
 70
     0
  9
$DIMTAD
 70
     1
  9
$DIMZIN
 70
     0
  9
$DIMBLK
  1

  9
$DIMASO
 70
     1
  9
$DIMSHO
 70
     1
  9
$DIMPOST
  1

  9
$DIMAPOST
  1

  9
$DIMALT
 70
     0
  9
$DIMALTD
 70
     2
  9
$DIMALTF
 40
25.4
  9
$DIMLFAC
 40
1.0
  9
$DIMTOFL
 70
     0
  9
$DIMTVP
 40
0.0
  9
$DIMTIX
 70
     0
  9
$DIMSOXD
 70
     0
  9
$DIMSAH
 70
     0
  9
$DIMBLK1
  1

  9
$DIMBLK2
  1

  9
$LUNITS
 70
     2
  9
$LUPREC
 70
     4
  9
$SKETCHINC
 40
0.1
  9
$FILLETRAD
 40
0.5
  9
$AUNITS
 70
     0
  9
$AUPREC
 70
     0
  9
$MENU
  1
.
  9
$ELEVATION
 40
0.0
  9
$THICKNESS
 40
0.0
  9
$LIMCHECK
 70
     0
  9
$CHAMFERA
 40
0.0
  9
$CHAMFERB
 40
0.0
  9
$SKPOLY
 70
     0
  9
$TDCREATE
 40
2460503.455908912
  9
$TDUPDATE
 40
2460503.455909097
  9
$TDINDWG
 40
0.0000000116
  9
$TDUSRTIMER
 40
0.0000000116
  9
$USRTIMER
 70
     1
  9
$ANGBASE
 50
0.0
  9
$ANGDIR
 70
     0
  9
$PDMODE
 70
     0
  9
$PDSIZE
 40
0.0
  9
$PLINEWID
 40
0.0
  9
$COORDS
 70
     1
  9
$SPLFRAME
 70
     0
  9
$SPLINETYPE
 70
     6
  9
$SPLINESEGS
 70
     8
  9
$ATTDIA
 70
     0
  9
$ATTREQ
 70
     1
  9
$HANDLING
 70
     1
  9
$HANDSEED
  5
F2
  9
$SURFTAB1
 70
     6
  9
$SURFTAB2
 70
     6
  9
$SURFTYPE
 70
     6
  9
$SURFU
 70
     6
  9
$SURFV
 70
     6
  9
$UCSNAME
  2

  9
$UCSORG
 10
0.0
 20
0.0
 30
0.0
  9
$UCSXDIR
 10
1.0
 20
0.0
 30
0.0
  9
$UCSYDIR
 10
0.0
 20
1.0
 30
0.0
  9
$USERI1
 70
     0
  9
$USERI2
 70
     0
  9
$USERI3
 70
     0
  9
$USERI4
 70
     0
  9
$USERI5
 70
     0
  9
$USERR1
 40
0.0
  9
$USERR2
 40
0.0
  9
$USERR3
 40
0.0
  9
$USERR4
 40
0.0
  9
$USERR5
 40
0.0
  9
$WORLDVIEW
 70
     1
  0
ENDSEC
  0
SECTION
  2
TABLES
  0
TABLE
  2
VPORT
 70
     1
  0
VPORT
  2
*ACTIVE
 70
     0
 10
0.0
 20
0.0
 11
1.0
 21
1.0
 12
109.46632741305
 22
130.43076454915
 13
0.0
 23
0.0
 14
0.5
 24
0.5
 15
0.5
 25
0.5
 16
0.0
 26
0.0
 36
1.0
 17
0.0
 27
0.0
 37
0.0
 40
41.31128309830001
 41
1.6
 42
50.0
 43
0.0
 44
0.0
 50
0.0
 51
0.0
 71
     0
 72
   100
 73
     1
 74
     3
 75
     0
 76
     0
 77
     0
 78
     0
  0
ENDTAB
  0
TABLE
  2
LTYPE
 70
     2
  0
LTYPE
  2
CONTINUOUS
 70
     0
  3
Solid line
 72
    65
 73
     0
 40
0.0
  0
LTYPE
  2
CENTER
 70
     0
  3

 72
    65
 73
     0
 40
0.0
  0
ENDTAB
  0
TABLE
  2
LAYER
 70
     2
  0
LAYER
  2
0
 70
     0
 62
     7
  6
CONTINUOUS
  0
LAYER
  2
1
 70
     0
 62
     7
  6
CONTINUOUS
  0
ENDTAB
  0
TABLE
  2
STYLE
 70
     2
  0
STYLE
  2
STANDARD
 70
     0
 40
0.0
 41
1.0
 50
0.0
 71
     0
 42
0.2
  3
txt
  4

  0
STYLE
  2
ＭＳ_ゴシック
 70
     0
 40
0.0
 41
1.0
 50
0.0
 71
     0
 42
0.2
  3
ＭＳ ゴシック.shx
  4

  0
ENDTAB
  0
TABLE
  2
VIEW
 70
     0
  0
ENDTAB
  0
TABLE
  2
UCS
 70
     0
  0
ENDTAB
  0
ENDSEC
  0
SECTION
  2
BLOCKS
  0
ENDSEC
  0
SECTION
  2
ENTITIES
  0
TEXT
  5
70
  8
1
  6
CONTINUOUS
 62
     7
 10
135.3158512251422
 20
109.3933048181818
 30
0.0
 40
3.5
  1
ＭＰＧＰ－１４
 41
0.609191
 51
15.0
  0
LINE
  5
71
  8
1
  6
CONTINUOUS
 62
     7
 10
71.2704436012
 20
143.1970121589
 30
0.0
 11
81.2704436012
 21
143.1970121589
 31
0.0
  0
LINE
  5
72
  8
1
  6
CONTINUOUS
 62
     7
 10
71.2704436012
 20
140.3545879165
 30
0.0
 11
81.2704436012
 21
140.3545879165
 31
0.0
  0
LINE
  5
73
  8
1
  6
CONTINUOUS
 62
     7
 10
71.2704436012
 20
146.0394364014
 30
0.0
 11
81.2704436012
 21
146.0394364014
 31
0.0
  0
LINE
  5
74
  8
1
  6
CONTINUOUS
 62
     7
 10
71.2704436012
 20
146.3439818559
 30
0.0
 11
81.2704436012
 21
146.3439818559
 31
0.0
  0
LINE
  5
75
  8
1
  6
CONTINUOUS
 62
     7
 10
71.2704436012
 20
133.6545879165
 30
0.0
 11
81.2704436012
 21
133.6545879165
 31
0.0
  0
LINE
  5
76
  8
1
  6
CONTINUOUS
 62
     7
 10
71.2704436012
 20
118.5288303408
 30
0.0
 11
81.2704436012
 21
118.5288303408
 31
0.0
  0
LINE
  5
77
  8
1
  6
CONTINUOUS
 62
     7
 10
92.2704436012
 20
149.0864060983
 30
0.0
 11
83.2704436012
 21
149.0864060983
 31
0.0
  0
LINE
  5
78
  8
1
  6
CONTINUOUS
 62
     7
 10
71.2704436012
 20
148.1712545832
 30
0.0
 11
81.2704436012
 21
148.1712545832
 31
0.0
  0
LINE
  5
79
  8
1
  6
CONTINUOUS
 62
     7
 10
71.2704436012
 20
139.9485273105
 30
0.0
 11
81.2704436012
 21
139.9485273105
 31
0.0
  0
LINE
  5
7A
  8
1
  6
CONTINUOUS
 62
     7
 10
71.2704436012
 20
144.8212545832
 30
0.0
 11
81.2704436012
 21
144.8212545832
 31
0.0
  0
CIRCLE
  5
7B
  8
1
  6
CONTINUOUS
 62
     7
 10
145.2826548261
 20
132.4364060983
 30
0.0
 40
10.66169354839999
  0
LINE
  5
7C
  8
1
  6
CONTINUOUS
 62
     7
 10
71.2704436012
 20
139.1364060983
 30
0.0
 11
81.2704436012
 21
139.1364060983
 31
0.0
  0
LINE
  5
7D
  8
1
  6
CONTINUOUS
 62
     7
 10
116.2704436012
 20
144.9364060983
 30
0.0
 11
116.2704436012
 21
119.9364060983
 31
0.0
  0
LINE
  5
7E
  8
1
  6
CONTINUOUS
 62
     7
 10
116.2704436012
 20
144.9364060983
 30
0.0
 11
92.2704436012
 21
144.9364060983
 31
0.0
  0
LINE
  5
7F
  8
1
  6
CONTINUOUS
 62
     7
 10
140.1049852964
 20
119.9364060983
 30
0.0
 11
150.4603243558
 21
119.9364060983
 31
0.0
  0
LINE
  5
80
  8
1
  6
CONTINUOUS
 62
     7
 10
71.2704436012
 20
120.9651939771
 30
0.0
 11
81.2704436012
 21
120.9651939771
 31
0.0
  0
LINE
  5
81
  8
1
  6
CONTINUOUS
 62
     7
 10
71.2704436012
 20
131.2182242802
 30
0.0
 11
81.2704436012
 21
131.2182242802
 31
0.0
  0
LINE
  5
82
  8
1
  6
CONTINUOUS
 62
     7
 10
71.2704436012
 20
135.9894364014
 30
0.0
 11
81.2704436012
 21
135.9894364014
 31
0.0
  0
LINE
  5
83
  8
1
  6
CONTINUOUS
 62
     7
 10
81.2704436012
 20
136.4970121589
 30
0.0
 11
71.2704436012
 21
136.4970121589
 31
0.0
  0
LINE
  5
84
  8
1
  6
CONTINUOUS
 62
     7
 10
71.2704436012
 20
134.8727697347
 30
0.0
 11
81.2704436012
 21
134.8727697347
 31
0.0
  0
LINE
  5
85
  8
1
  6
CONTINUOUS
 62
     7
 10
71.2704436012
 20
144.2121636741
 30
0.0
 11
81.2704436012
 21
144.2121636741
 31
0.0
  0
LINE
  5
86
  8
1
  6
CONTINUOUS
 62
     7
 10
71.2704436012
 20
146.6485273105
 30
0.0
 11
81.2704436012
 21
146.6485273105
 31
0.0
  0
LINE
  5
87
  8
1
  6
CONTINUOUS
 62
     7
 10
71.2704436012
 20
141.5727697347
 30
0.0
 11
81.2704436012
 21
141.5727697347
 31
0.0
  0
LINE
  5
88
  8
1
  6
CONTINUOUS
 62
     7
 10
81.2704436012
 20
144.5167091286
 30
0.0
 11
71.2704436012
 21
144.5167091286
 31
0.0
  0
LINE
  5
89
  8
1
  6
CONTINUOUS
 62
     7
 10
81.2704436012
 20
147.2576182195
 30
0.0
 11
71.2704436012
 21
147.2576182195
 31
0.0
  0
LINE
  5
8A
  8
1
  6
CONTINUOUS
 62
     7
 10
71.2704436012
 20
141.1667091286
 30
0.0
 11
81.2704436012
 21
141.1667091286
 31
0.0
  0
LINE
  5
8B
  8
1
  6
CONTINUOUS
 62
     7
 10
132.7826548261
 20
127.2587365686
 30
0.0
 11
140.1049852964
 21
119.9364060983
 31
0.0
  0
LINE
  5
8C
  8
1
  6
CONTINUOUS
 62
     7
 10
81.2704436012
 20
117.6151939771
 30
0.0
 11
71.2704436012
 21
117.6151939771
 31
0.0
  0
LINE
  5
8D
  8
1
  6
CONTINUOUS
 62
     7
 10
83.2704436012
 20
115.6864060983
 30
0.0
 11
71.2704436012
 21
115.6864060983
 31
0.0
  0
LINE
  5
8E
  8
1
  6
CONTINUOUS
 62
     7
 10
71.2704436012
 20
143.9076182195
 30
0.0
 11
81.2704436012
 21
143.9076182195
 31
0.0
  0
LINE
  5
8F
  8
1
  6
CONTINUOUS
 62
     7
 10
71.2704436012
 20
148.4758000377
 30
0.0
 11
81.2704436012
 21
148.4758000377
 31
0.0
  0
LINE
  5
90
  8
1
  6
CONTINUOUS
 62
     7
 10
71.2704436012
 20
141.9788303408
 30
0.0
 11
81.2704436012
 21
141.9788303408
 31
0.0
  0
LINE
  5
91
  8
1
  6
CONTINUOUS
 62
     7
 10
71.2704436012
 20
118.2242848862
 30
0.0
 11
81.2704436012
 21
118.2242848862
 31
0.0
  0
LINE
  5
92
  8
1
  6
CONTINUOUS
 62
     7
 10
71.2704436012
 20
123.706103068
 30
0.0
 11
81.2704436012
 21
123.706103068
 31
0.0
  0
LINE
  5
93
  8
1
  6
CONTINUOUS
 62
     7
 10
71.2704436012
 20
122.4879212499
 30
0.0
 11
81.2704436012
 21
122.4879212499
 31
0.0
  0
LINE
  5
94
  8
1
  6
CONTINUOUS
 62
     7
 10
71.2704436012
 20
138.7303454923
 30
0.0
 11
81.2704436012
 21
138.7303454923
 31
0.0
  0
LINE
  5
95
  8
1
  6
CONTINUOUS
 62
     7
 10
71.2704436012
 20
142.7909515529
 30
0.0
 11
81.2704436012
 21
142.7909515529
 31
0.0
  0
LINE
  5
96
  8
1
  6
CONTINUOUS
 62
     7
 10
71.2704436012
 20
145.1258000377
 30
0.0
 11
81.2704436012
 21
145.1258000377
 31
0.0
  0
LINE
  5
97
  8
1
  6
CONTINUOUS
 62
     7
 10
71.2704436012
 20
137.0045879165
 30
0.0
 11
81.2704436012
 21
137.0045879165
 31
0.0
  0
LINE
  5
98
  8
1
  6
CONTINUOUS
 62
     7
 10
71.2704436012
 20
140.7606485226
 30
0.0
 11
81.2704436012
 21
140.7606485226
 31
0.0
  0
LINE
  5
99
  8
1
  6
CONTINUOUS
 62
     7
 10
71.2704436012
 20
125.7364060983
 30
0.0
 11
81.2704436012
 21
125.7364060983
 31
0.0
  0
LINE
  5
9A
  8
1
  6
CONTINUOUS
 62
     7
 10
71.2704436012
 20
138.3242848862
 30
0.0
 11
81.2704436012
 21
138.3242848862
 31
0.0
  0
LINE
  5
9B
  8
1
  6
CONTINUOUS
 62
     7
 10
71.2704436012
 20
120.6606485226
 30
0.0
 11
81.2704436012
 21
120.6606485226
 31
0.0
  0
LINE
  5
9C
  8
1
  6
CONTINUOUS
 62
     7
 10
71.2704436012
 20
125.3303454923
 30
0.0
 11
81.2704436012
 21
125.3303454923
 31
0.0
  0
LINE
  5
9D
  8
1
  6
CONTINUOUS
 62
     7
 10
71.2704436012
 20
145.7348909468
 30
0.0
 11
81.2704436012
 21
145.7348909468
 31
0.0
  0
LINE
  5
9E
  8
1
  6
CONTINUOUS
 62
     7
 10
71.2704436012
 20
143.603072765
 30
0.0
 11
81.2704436012
 21
143.603072765
 31
0.0
  0
LINE
  5
9F
  8
1
  6
CONTINUOUS
 62
     7
 10
71.2704436012
 20
117.9197394317
 30
0.0
 11
81.2704436012
 21
117.9197394317
 31
0.0
  0
LINE
  5
A0
  8
1
  6
CONTINUOUS
 62
     7
 10
71.2704436012
 20
134.2636788256
 30
0.0
 11
81.2704436012
 21
134.2636788256
 31
0.0
  0
LINE
  5
A1
  8
1
  6
CONTINUOUS
 62
     7
 10
71.2704436012
 20
139.5424667044
 30
0.0
 11
81.2704436012
 21
139.5424667044
 31
0.0
  0
LINE
  5
A2
  8
1
  6
CONTINUOUS
 62
     7
 10
81.2704436012
 20
137.5121636741
 30
0.0
 11
71.2704436012
 21
137.5121636741
 31
0.0
  0
LINE
  5
A3
  8
1
  6
CONTINUOUS
 62
     7
 10
71.2704436012
 20
146.953072765
 30
0.0
 11
81.2704436012
 21
146.953072765
 31
0.0
  0
LINE
  5
A4
  8
1
  6
CONTINUOUS
 62
     7
 10
71.2704436012
 20
147.5621636741
 30
0.0
 11
81.2704436012
 21
147.5621636741
 31
0.0
  0
LINE
  5
A5
  8
1
  6
CONTINUOUS
 62
     7
 10
71.2704436012
 20
135.4818606438
 30
0.0
 11
81.2704436012
 21
135.4818606438
 31
0.0
  0
LINE
  5
A6
  8
1
  6
CONTINUOUS
 62
     7
 10
71.2704436012
 20
147.8667091286
 30
0.0
 11
81.2704436012
 21
147.8667091286
 31
0.0
  0
LINE
  5
A7
  8
1
  6
CONTINUOUS
 62
     7
 10
71.2704436012
 20
128.8833757953
 30
0.0
 11
81.2704436012
 21
128.8833757953
 31
0.0
  0
LINE
  5
A8
  8
1
  6
CONTINUOUS
 62
     7
 10
71.2704436012
 20
145.4303454923
 30
0.0
 11
81.2704436012
 21
145.4303454923
 31
0.0
  0
LINE
  5
A9
  8
1
  6
CONTINUOUS
 62
     7
 10
71.2704436012
 20
137.9182242802
 30
0.0
 11
81.2704436012
 21
137.9182242802
 31
0.0
  0
LINE
  5
AA
  8
1
  6
CONTINUOUS
 62
     7
 10
71.2704436012
 20
149.1864060983
 30
0.0
 11
71.2704436012
 21
115.6864060983
 31
0.0
  0
LINE
  5
AB
  8
1
  6
CONTINUOUS
 62
     7
 10
83.2704436012
 20
124.9640079094
 30
0.0
 11
89.7704436012
 21
124.9640079094
 31
0.0
  0
LINE
  5
AC
  8
1
  6
CONTINUOUS
 62
     7
 10
71.2704436012
 20
142.3848909468
 30
0.0
 11
81.2704436012
 21
142.3848909468
 31
0.0
  0
LINE
  5
AD
  8
1
  6
CONTINUOUS
 62
     7
 10
71.2704436012
 20
124.9242848862
 30
0.0
 11
81.2704436012
 21
124.9242848862
 31
0.0
  0
LINE
  5
AE
  8
1
  6
CONTINUOUS
 62
     7
 10
71.2704436012
 20
130.000042462
 30
0.0
 11
81.2704436012
 21
130.000042462
 31
0.0
  0
LINE
  5
AF
  8
1
  6
CONTINUOUS
 62
     7
 10
71.2704436012
 20
127.8682242802
 30
0.0
 11
81.2704436012
 21
127.8682242802
 31
0.0
  0
LINE
  5
B0
  8
1
  6
CONTINUOUS
 62
     7
 10
71.2704436012
 20
117.006103068
 30
0.0
 11
81.2704436012
 21
117.006103068
 31
0.0
  0
LINE
  5
B1
  8
1
  6
CONTINUOUS
 62
     7
 10
71.2704436012
 20
124.1121636741
 30
0.0
 11
81.2704436012
 21
124.1121636741
 31
0.0
  0
LINE
  5
B2
  8
1
  6
CONTINUOUS
 62
     7
 10
71.2704436012
 20
116.0924667044
 30
0.0
 11
81.2704436012
 21
116.0924667044
 31
0.0
  0
LINE
  5
B3
  8
1
  6
CONTINUOUS
 62
     7
 10
71.2704436012
 20
116.7015576135
 30
0.0
 11
81.2704436012
 21
116.7015576135
 31
0.0
  0
LINE
  5
B4
  8
1
  6
CONTINUOUS
 62
     7
 10
71.2704436012
 20
117.3106485226
 30
0.0
 11
81.2704436012
 21
117.3106485226
 31
0.0
  0
LINE
  5
B5
  8
1
  6
CONTINUOUS
 62
     7
 10
71.2704436012
 20
133.0454970074
 30
0.0
 11
81.2704436012
 21
133.0454970074
 31
0.0
  0
LINE
  5
B6
  8
1
  6
CONTINUOUS
 62
     7
 10
71.2704436012
 20
126.5485273105
 30
0.0
 11
81.2704436012
 21
126.5485273105
 31
0.0
  0
LINE
  5
B7
  8
1
  6
CONTINUOUS
 62
     7
 10
71.2704436012
 20
122.8939818559
 30
0.0
 11
81.2704436012
 21
122.8939818559
 31
0.0
  0
LINE
  5
B8
  8
1
  6
CONTINUOUS
 62
     7
 10
71.2704436012
 20
129.3909515529
 30
0.0
 11
81.2704436012
 21
129.3909515529
 31
0.0
  0
LINE
  5
B9
  8
1
  6
CONTINUOUS
 62
     7
 10
92.2704436012
 20
149.0864060983
 30
0.0
 11
92.2704436012
 21
115.7864060983
 31
0.0
  0
LINE
  5
BA
  8
1
  6
CONTINUOUS
 62
     7
 10
71.2704436012
 20
122.0818606438
 30
0.0
 11
81.2704436012
 21
122.0818606438
 31
0.0
  0
ARC
  5
BB
  8
0
  6
CONTINUOUS
 62
     7
 10
59.52044360119999
 20
119.0936281545611
 30
0.0
 40
0.2500000000000002
 50
180.0
 51
254.9999999995799
  0
LINE
  5
BC
  8
1
  6
CONTINUOUS
 62
     7
 10
92.2704436012
 20
115.7864060983
 30
0.0
 11
83.2704436012
 21
115.7864060983
 31
0.0
  0
LINE
  5
BD
  8
1
  6
CONTINUOUS
 62
     7
 10
81.2704436012
 20
149.1864060983
 30
0.0
 11
81.2704436012
 21
115.6864060983
 31
0.0
  0
LINE
  5
BE
  8
1
  6
CONTINUOUS
 62
     7
 10
81.2704436012
 20
120.356103068
 30
0.0
 11
71.2704436012
 21
120.356103068
 31
0.0
  0
LINE
  5
BF
  8
1
  6
CONTINUOUS
 62
     7
 10
71.2704436012
 20
119.1379212499
 30
0.0
 11
81.2704436012
 21
119.1379212499
 31
0.0
  0
LINE
  5
C0
  8
1
  6
CONTINUOUS
 62
     7
 10
71.2704436012
 20
120.0515576135
 30
0.0
 11
81.2704436012
 21
120.0515576135
 31
0.0
  0
LINE
  5
C1
  8
1
  6
CONTINUOUS
 62
     7
 10
83.2704436012
 20
139.9088042873
 30
0.0
 11
89.7704436012
 21
139.9088042873
 31
0.0
  0
LINE
  5
C2
  8
1
  6
CONTINUOUS
 62
     7
 10
71.2704436012
 20
115.7879212499
 30
0.0
 11
81.2704436012
 21
115.7879212499
 31
0.0
  0
LINE
  5
C3
  8
1
  6
CONTINUOUS
 62
     7
 10
71.2704436012
 20
131.8273151892
 30
0.0
 11
81.2704436012
 21
131.8273151892
 31
0.0
  0
ARC
  5
C4
  8
0
  6
CONTINUOUS
 62
     7
 10
59.52044360119999
 20
145.7791840421519
 30
0.0
 40
0.2500000000000002
 50
104.9999999999068
 51
180.0
  0
LINE
  5
C5
  8
1
  6
CONTINUOUS
 62
     7
 10
81.2704436012
 20
128.3758000377
 30
0.0
 11
71.2704436012
 21
128.3758000377
 31
0.0
  0
LINE
  5
C6
  8
1
  6
CONTINUOUS
 62
     7
 10
71.2704436012
 20
116.3970121589
 30
0.0
 11
81.2704436012
 21
116.3970121589
 31
0.0
  0
LINE
  5
C7
  8
1
  6
CONTINUOUS
 62
     7
 10
81.2704436012
 20
127.3606485226
 30
0.0
 11
71.2704436012
 21
127.3606485226
 31
0.0
  0
LINE
  5
C8
  8
1
  6
CONTINUOUS
 62
     7
 10
71.2704436012
 20
126.1424667044
 30
0.0
 11
81.2704436012
 21
126.1424667044
 31
0.0
  0
LINE
  5
C9
  8
1
  6
CONTINUOUS
 62
     7
 10
71.2704436012
 20
124.5182242802
 30
0.0
 11
81.2704436012
 21
124.5182242802
 31
0.0
  0
LINE
  5
CA
  8
1
  6
CONTINUOUS
 62
     7
 10
71.2704436012
 20
121.6758000377
 30
0.0
 11
81.2704436012
 21
121.6758000377
 31
0.0
  0
LINE
  5
CB
  8
1
  6
CONTINUOUS
 62
     7
 10
71.2704436012
 20
119.4424667044
 30
0.0
 11
81.2704436012
 21
119.4424667044
 31
0.0
  0
LINE
  5
CC
  8
1
  6
CONTINUOUS
 62
     7
 10
71.2704436012
 20
119.7470121589
 30
0.0
 11
81.2704436012
 21
119.7470121589
 31
0.0
  0
LINE
  5
CD
  8
1
  6
CONTINUOUS
 62
     7
 10
71.2704436012
 20
118.8333757953
 30
0.0
 11
81.2704436012
 21
118.8333757953
 31
0.0
  0
LINE
  5
CE
  8
1
  6
CONTINUOUS
 62
     7
 10
71.2704436012
 20
121.2697394317
 30
0.0
 11
81.2704436012
 21
121.2697394317
 31
0.0
  0
LINE
  5
CF
  8
1
  6
CONTINUOUS
 62
     7
 10
83.2704436012
 20
115.6864060983
 30
0.0
 11
83.2704436012
 21
149.1864060983
 31
0.0
  0
LINE
  5
D0
  8
1
  6
CONTINUOUS
 62
     7
 10
83.2704436012
 20
149.1864060983
 30
0.0
 11
71.2704436012
 21
149.1864060983
 31
0.0
  0
LINE
  5
D1
  8
1
  6
CONTINUOUS
 62
     7
 10
91.2704436012
 20
149.0864060983
 30
0.0
 11
91.2704436012
 21
115.7864060983
 31
0.0
  0
LINE
  5
D2
  8
1
  6
CONTINUOUS
 62
     7
 10
71.2704436012
 20
123.300042462
 30
0.0
 11
81.2704436012
 21
123.300042462
 31
0.0
  0
LINE
  5
D3
  8
1
  6
CONTINUOUS
 62
     7
 10
71.2704436012
 20
126.9545879165
 30
0.0
 11
81.2704436012
 21
126.9545879165
 31
0.0
  0
LINE
  5
D4
  8
1
  6
CONTINUOUS
 62
     7
 10
71.2704436012
 20
130.6091333711
 30
0.0
 11
81.2704436012
 21
130.6091333711
 31
0.0
  0
CIRCLE
  5
D5
  8
1
  6
CONTINUOUS
 62
     7
 10
145.2826548261
 20
132.4364060983
 30
0.0
 40
6.600000000000023
  0
LINE
  5
D6
  8
1
  6
CONTINUOUS
 62
     7
 10
59.45573883992481
 20
146.0206654987242
 30
0.0
 11
71.2704436012
 21
149.1864060983
 31
0.0
  0
LINE
  5
D7
  8
1
  6
CONTINUOUS
 62
     7
 10
71.2704436012
 20
149.0848909468
 30
0.0
 11
81.2704436012
 21
149.0848909468
 31
0.0
  0
LINE
  5
D8
  8
1
  6
CONTINUOUS
 62
     7
 10
157.7826548261
 20
137.614075628
 30
0.0
 11
150.4603243558
 21
144.9364060983
 31
0.0
  0
LINE
  5
D9
  8
1
  6
CONTINUOUS
 62
     7
 10
89.7704436012
 20
139.9088042873
 30
0.0
 11
89.7704436012
 21
124.693750863
 31
0.0
  0
LINE
  5
DA
  8
1
  6
CONTINUOUS
 62
     7
 10
116.2704436012
 20
119.9364060983
 30
0.0
 11
92.2704436012
 21
119.9364060983
 31
0.0
  0
LINE
  5
DB
  8
1
  6
CONTINUOUS
 62
     7
 10
59.45573883992258
 20
118.8521466979893
 30
0.0
 11
71.2704436012
 21
115.6864060983
 31
0.0
  0
CIRCLE
  5
DC
  8
1
  6
CONTINUOUS
 62
     7
 10
145.2826548261
 20
132.4364060983
 30
0.0
 40
16.65
  0
LINE
  5
DD
  8
1
  6
CONTINUOUS
 62
     7
 10
92.2704436012
 20
137.614075628
 30
0.0
 11
116.2704436012
 21
137.614075628
 31
0.0
  0
LINE
  5
DE
  8
1
  6
CONTINUOUS
 62
     7
 10
132.7826548261
 20
137.614075628
 30
0.0
 11
132.7826548261
 21
127.2587365686
 31
0.0
  0
LINE
  5
DF
  8
1
  6
CONTINUOUS
 62
     7
 10
59.27044360119999
 20
119.0936281545611
 30
0.0
 11
59.27044360119999
 21
145.7791840421519
 31
0.0
  0
LINE
  5
E0
  8
1
  6
CONTINUOUS
 62
     7
 10
150.4603243558
 20
119.9364060983
 30
0.0
 11
157.7826548261
 21
127.2587365686
 31
0.0
  0
CIRCLE
  5
E1
  8
1
  6
CONTINUOUS
 62
     7
 10
145.2826548261
 20
132.4364060983
 30
0.0
 40
9.72459677420001
  0
LINE
  5
E2
  8
1
  6
CONTINUOUS
 62
     7
 10
71.2704436012
 20
148.7803454923
 30
0.0
 11
81.2704436012
 21
148.7803454923
 31
0.0
  0
LINE
  5
E3
  8
1
  6
CONTINUOUS
 62
     7
 10
92.2704436012
 20
127.2587365686
 30
0.0
 11
116.2704436012
 21
127.2587365686
 31
0.0
  0
LINE
  5
E4
  8
1
  6
CONTINUOUS
 62
     7
 10
140.1049852964
 20
144.9364060983
 30
0.0
 11
132.7826548261
 21
137.614075628
 31
0.0
  0
LINE
  5
E5
  8
1
  6
CONTINUOUS
 62
     7
 10
150.4603243558
 20
144.9364060983
 30
0.0
 11
140.1049852964
 21
144.9364060983
 31
0.0
  0
LINE
  5
E6
  8
1
  6
CONTINUOUS
 62
     7
 10
157.7826548261
 20
127.2587365686
 30
0.0
 11
157.7826548261
 21
137.614075628
 31
0.0
  0
LINE
  5
E7
  8
0
  6
CENTER
 62
     1
 10
54.99999999999999
 20
132.4364060983
 30
0.0
 11
119.9999999999999
 21
132.4364060983
 31
0.0
  0
LINE
  5
E9
  8
0
  6
CENTER
 62
     1
 10
126.6326548261
 20
132.4364060983
 30
0.0
 11
163.9326548261
 21
132.4364060983
 31
0.0
  0
LINE
  5
EA
  8
0
  6
CENTER
 62
     1
 10
145.2826548261
 20
113.7864060983
 30
0.0
 11
145.2826548261
 21
151.0864060983
 31
0.0
  0
ENDSEC
  0
EOF
