  0
SECTION
  2
HEADER
  9
$ACADVER
  1
AC1004
  9
$INSBASE
 10
0.0
 20
0.0
  9
$EXTMIN
 10
0.0727272727272727
 20
0.0363636363636364
  9
$EXTMAX
 10
2225.4896991952
 20
271.3031408086996
  9
$LIMMIN
 10
0.0
 20
0.0
  9
$LIMMAX
 10
12.0
 20
9.0
  9
$ORTHOMODE
 70
     0
  9
$REGENMODE
 70
     1
  9
$FILLMODE
 70
     1
  9
$QTEXTMODE
 70
     0
  9
$DRAGMODE
 70
     2
  9
$LTSCALE
 40
1.0
  9
$OSMODE
 70
    37
  9
$ATTMODE
 70
     1
  9
$TEXTSIZE
 40
0.2
  9
$TRACEWID
 40
0.05
  9
$TEXTSTYLE
  7
STANDARD
  9
$CLAYER
  8
0
  9
$CELTYPE
  6
BYLAYER
  9
$CECOLOR
 62
   256
  9
$DIMSCALE
 40
1.0
  9
$DIMASZ
 40
2.0
  9
$DIMEXO
 40
0.0625
  9
$DIMDLI
 40
0.38
  9
$DIMRND
 40
0.0
  9
$DIMDLE
 40
0.0
  9
$DIMEXE
 40
1.0
  9
$DIMTP
 40
0.0
  9
$DIMTM
 40
0.0
  9
$DIMTXT
 40
3.2
  9
$DIMCEN
 40
0.09
  9
$DIMTSZ
 40
0.0
  9
$DIMTOL
 70
     0
  9
$DIMLIM
 70
     0
  9
$DIMTIH
 70
     1
  9
$DIMTOH
 70
     1
  9
$DIMSE1
 70
     0
  9
$DIMSE2
 70
     0
  9
$DIMTAD
 70
     1
  9
$DIMZIN
 70
     0
  9
$DIMBLK
  1

  9
$DIMASO
 70
     1
  9
$DIMSHO
 70
     1
  9
$DIMPOST
  1

  9
$DIMAPOST
  1

  9
$DIMALT
 70
     0
  9
$DIMALTD
 70
     2
  9
$DIMALTF
 40
25.4
  9
$DIMLFAC
 40
1.0
  9
$DIMTOFL
 70
     0
  9
$DIMTVP
 40
0.0
  9
$DIMTIX
 70
     0
  9
$DIMSOXD
 70
     0
  9
$DIMSAH
 70
     0
  9
$DIMBLK1
  1

  9
$DIMBLK2
  1

  9
$LUNITS
 70
     2
  9
$LUPREC
 70
     4
  9
$SKETCHINC
 40
0.1
  9
$FILLETRAD
 40
0.5
  9
$AUNITS
 70
     0
  9
$AUPREC
 70
     0
  9
$MENU
  1
.
  9
$ELEVATION
 40
0.0
  9
$THICKNESS
 40
0.0
  9
$LIMCHECK
 70
     0
  9
$CHAMFERA
 40
0.0
  9
$CHAMFERB
 40
0.0
  9
$SKPOLY
 70
     0
  9
$TDCREATE
 40
2459047.541098831
  9
$TDUPDATE
 40
2459047.541099016
  9
$TDINDWG
 40
0.0000000116
  9
$TDUSRTIMER
 40
0.0000000116
  9
$USRTIMER
 70
     1
  9
$ANGBASE
 50
0.0
  9
$ANGDIR
 70
     0
  9
$PDMODE
 70
     0
  9
$PDSIZE
 40
0.0
  9
$PLINEWID
 40
0.0
  9
$COORDS
 70
     1
  9
$SPLFRAME
 70
     0
  9
$SPLINETYPE
 70
     6
  9
$SPLINESEGS
 70
     8
  9
$ATTDIA
 70
     0
  9
$ATTREQ
 70
     1
  9
$SURFTAB1
 70
     6
  9
$SURFTAB2
 70
     6
  9
$SURFTYPE
 70
     6
  9
$SURFU
 70
     6
  9
$SURFV
 70
     6
  9
$UCSNAME
  2

  9
$UCSORG
 10
0.0
 20
0.0
 30
0.0
  9
$UCSXDIR
 10
1.0
 20
0.0
 30
0.0
  9
$UCSYDIR
 10
0.0
 20
1.0
 30
0.0
  9
$USERI1
 70
     0
  9
$USERI2
 70
     0
  9
$USERI3
 70
     0
  9
$USERI4
 70
     0
  9
$USERI5
 70
     0
  9
$USERR1
 40
0.0
  9
$USERR2
 40
0.0
  9
$USERR3
 40
0.0
  9
$USERR4
 40
0.0
  9
$USERR5
 40
0.0
  9
$WORLDVIEW
 70
     1
  0
ENDSEC
  0
SECTION
  2
TABLES
  0
TABLE
  2
LTYPE
 70
     2
  0
LTYPE
  2
CONTINUOUS
 70
     0
  3
Solid line
 72
    65
 73
     0
 40
0.0
  0
LTYPE
  2
CENTER
 70
     0
  3

 72
    65
 73
     0
 40
0.0
  0
ENDTAB
  0
TABLE
  2
LAYER
 70
     2
  0
LAYER
  2
0
 70
     0
 62
     7
  6
CONTINUOUS
  0
LAYER
  2
1
 70
     0
 62
     7
  6
CONTINUOUS
  0
ENDTAB
  0
TABLE
  2
STYLE
 70
     2
  0
STYLE
  2
STANDARD
 70
     0
 40
0.0
 41
1.0
 50
0.0
 71
     0
 42
0.2
  3
txt
  4

  0
STYLE
  2
ＭＳ_ゴシック
 70
     0
 40
0.0
 41
1.0
 50
0.0
 71
     0
 42
0.2
  3
ＭＳ ゴシック.shx
  4

  0
ENDTAB
  0
TABLE
  2
VIEW
 70
     0
  0
ENDTAB
  0
ENDSEC
  0
SECTION
  2
BLOCKS
  0
ENDSEC
  0
SECTION
  2
ENTITIES
  0
LINE
  8
1
  6
CONTINUOUS
 62
     7
 10
2132.418502012
 20
263.3685778339
 11
2132.703481999999
 21
262.3050148087
  0
LINE
  8
1
  6
CONTINUOUS
 62
     7
 10
2131.737557
 20
262.0461958087
 11
2131.4525756633
 21
263.1097586619
  0
LINE
  8
1
  6
CONTINUOUS
 62
     7
 10
2138.262068999999
 20
241.5600858087
 11
2138.5470503367
 21
240.4965229555
  0
LINE
  8
1
  6
CONTINUOUS
 62
     7
 10
2124.249812999999
 20
251.8031408087
 11
2123.149813
 21
251.8031408087
  0
LINE
  8
1
  6
CONTINUOUS
 62
     7
 10
2142.239431
 20
259.7498658087
 11
2143.0180125973
 21
260.528447406
  0
LINE
  8
1
  6
CONTINUOUS
 62
     7
 10
2126.2745064027
 20
243.7849412114
 11
2127.053088
 21
244.5635228087
  0
LINE
  8
1
  6
CONTINUOUS
 62
     7
 10
2143.7251195973
 20
259.821340406
 11
2142.946538
 21
259.0427588087
  0
LINE
  8
1
  6
CONTINUOUS
 62
     7
 10
2146.3064308532
 20
248.255903472
 11
2145.242868
 21
248.5408848087
  0
ARC
  8
1
  6
CONTINUOUS
 62
     7
 10
2134.999813
 20
251.8031408087
 40
10.75000000000026
 50
347.665882
 51
42.33411799999999
  0
ARC
  8
1
  6
CONTINUOUS
 62
     7
 10
2134.999813
 20
251.8031408087
 40
10.75000000000026
 50
47.66588200000001
 51
102.334118
  0
LINE
  8
1
  6
CONTINUOUS
 62
     7
 10
2145.501687
 20
249.5068098087
 11
2146.5652500252
 21
249.2218298207
  0
LINE
  8
1
  6
CONTINUOUS
 62
     7
 10
2127.760194999999
 20
243.8564158087
 11
2126.9816134027
 21
243.0778342114
  0
ARC
  8
1
  6
CONTINUOUS
 62
     7
 10
2134.999813
 20
251.8031408087
 40
10.75000000000026
 50
287.665882
 51
342.334118
  0
CIRCLE
  8
1
  6
CONTINUOUS
 62
     7
 10
2134.999813
 20
251.8031408087
 40
13.90094600000014
  0
CIRCLE
  8
1
  6
CONTINUOUS
 62
     7
 10
2134.999813
 20
251.8031408087
 40
12.84999999999981
  0
CIRCLE
  8
1
  6
CONTINUOUS
 62
     7
 10
2134.999813
 20
251.8031408087
 40
14.38390899999975
  0
LINE
  8
1
  6
CONTINUOUS
 62
     7
 10
2137.581123988
 20
240.2377037834999
 11
2137.296144
 21
241.3012668086999
  0
CIRCLE
  8
1
  6
CONTINUOUS
 62
     7
 10
2134.999813
 20
251.8031408087
 40
17.49999999999963
  0
ARC
  8
1
  6
CONTINUOUS
 62
     7
 10
2134.999813
 20
251.8031408087
 40
10.75000000000026
 50
227.665882
 51
282.334118
  0
ARC
  8
1
  6
CONTINUOUS
 62
     7
 10
2134.999813
 20
251.8031408087
 40
10.75000000000026
 50
180.0
 51
222.334118
  0
LINE
  8
1
  6
CONTINUOUS
 62
     7
 10
2125.69004
 20
257.1781408087
 11
2124.737412
 21
257.7281408087
  0
ARC
  8
1
  6
CONTINUOUS
 62
     7
 10
2134.999813
 20
251.8031408087
 40
10.75000000000026
 50
107.665882
 51
150.0
  0
CIRCLE
  8
1
  6
CONTINUOUS
 62
     7
 10
2134.999813
 20
251.8031408087
 40
10.40000000000019
  0
CIRCLE
  8
1
  6
CONTINUOUS
 62
     7
 10
2134.999813
 20
251.8031408087
 40
11.84999999999992
  0
CIRCLE
  8
0
  6
CONTINUOUS
 62
     7
 10
2134.999813
 20
251.8031408087
 40
7.6
  0
LINE
  8
0
  6
CENTER
 62
     1
 10
2134.999813
 20
232.3031408087003
 11
2134.999813
 21
271.3031408086996
  0
LINE
  8
0
  6
CENTER
 62
     1
 10
2115.499813
 20
251.8031408087
 11
2154.499812999999
 21
251.8031408087
  0
POINT
  8
0
 62
     7
 10
2134.999813
 20
251.8031408087
 30
0.0
  0
TEXT
  8
1
  6
CONTINUOUS
 62
     7
 10
2177.813437374484
 20
227.2823517272727
 40
3.5
  1
ＭＰＭＳ－１６２０２２Ｋ
 41
0.655062
  0
LINE
  8
1
  6
CONTINUOUS
 62
     7
 10
2193.9896991952
 20
268.4516256571999
 11
2203.9896991952
 21
268.4516256571999
  0
LINE
  8
1
  6
CONTINUOUS
 62
     7
 10
2180.9896991952
 20
265.2857088015931
 11
2180.9896991952
 21
238.3205728158068
  0
LINE
  8
1
  6
CONTINUOUS
 62
     7
 10
2193.9896991952
 20
253.0213226269
 11
2203.9896991952
 21
253.0213226269
  0
LINE
  8
1
  6
CONTINUOUS
 62
     7
 10
2193.9896991952
 20
265.7107165662999
 11
2203.9896991952
 21
265.7107165662999
  0
LINE
  8
1
  6
CONTINUOUS
 62
     7
 10
2203.9896991952
 20
255.8637468693
 11
2193.9896991952
 21
255.8637468693
  0
LINE
  8
1
  6
CONTINUOUS
 62
     7
 10
2203.9896991952
 20
263.883443839
 11
2193.9896991952
 21
263.883443839
  0
LINE
  8
1
  6
CONTINUOUS
 62
     7
 10
2193.9896991952
 20
263.2743529299
 11
2203.9896991952
 21
263.2743529299
  0
LINE
  8
1
  6
CONTINUOUS
 62
     7
 10
2193.9896991952
 20
257.6910195966
 11
2203.9896991952
 21
257.6910195966
  0
LINE
  8
1
  6
CONTINUOUS
 62
     7
 10
2203.9896991952
 20
247.7425347480999
 11
2193.9896991952
 21
247.7425347480999
  0
LINE
  8
1
  6
CONTINUOUS
 62
     7
 10
2193.9896991952
 20
266.0152620207999
 11
2203.9896991952
 21
266.0152620207999
  0
LINE
  8
1
  6
CONTINUOUS
 62
     7
 10
2193.9896991952
 20
256.3713226269
 11
2203.9896991952
 21
256.3713226269
  0
LINE
  8
1
  6
CONTINUOUS
 62
     7
 10
2193.9896991952
 20
263.5788983844001
 11
2203.9896991952
 21
263.5788983844001
  0
LINE
  8
1
  6
CONTINUOUS
 62
     7
 10
2193.9896991952
 20
269.3031408087
 11
2181.748159247867
 21
266.256099678427
  0
LINE
  8
1
  6
CONTINUOUS
 62
     7
 10
2193.9896991952
 20
259.3152620207999
 11
2203.9896991952
 21
259.3152620207999
  0
ARC
  8
1
  6
CONTINUOUS
 62
     7
 10
2181.9896991952
 20
265.2857088015931
 40
0.9999999999999654
 50
103.9774471330362
 51
179.999999999997
  0
LINE
  8
1
  6
CONTINUOUS
 62
     7
 10
2193.9896991952
 20
260.9395044449999
 11
2203.9896991952
 21
260.9395044449999
  0
LINE
  8
1
  6
CONTINUOUS
 62
     7
 10
2193.9896991952
 20
262.1576862632
 11
2203.9896991952
 21
262.1576862632
  0
LINE
  8
1
  6
CONTINUOUS
 62
     7
 10
2193.9896991952
 20
236.3728377783999
 11
2203.9896991952
 21
236.3728377783999
  0
LINE
  8
1
  6
CONTINUOUS
 62
     7
 10
2203.9896991952
 20
236.9819286875
 11
2193.9896991952
 21
236.9819286875
  0
LINE
  8
1
  6
CONTINUOUS
 62
     7
 10
2193.9896991952
 20
258.5031408087
 11
2203.9896991952
 21
258.5031408087
  0
LINE
  8
1
  6
CONTINUOUS
 62
     7
 10
2193.9896991952
 20
236.0682923238
 11
2203.9896991952
 21
236.0682923238
  0
LINE
  8
1
  6
CONTINUOUS
 62
     7
 10
2193.9896991952
 20
245.1031408087
 11
2203.9896991952
 21
245.1031408087
  0
LINE
  8
1
  6
CONTINUOUS
 62
     7
 10
2193.9896991952
 20
234.8501105057
 11
2203.9896991952
 21
234.8501105057
  0
LINE
  8
1
  6
CONTINUOUS
 62
     7
 10
2193.9896991952
 20
235.7637468693
 11
2203.9896991952
 21
235.7637468693
  0
LINE
  8
1
  6
CONTINUOUS
 62
     7
 10
2193.9896991952
 20
258.0970802026
 11
2203.9896991952
 21
258.0970802026
  0
LINE
  8
1
  6
CONTINUOUS
 62
     7
 10
2193.9896991952
 20
254.239504445
 11
2203.9896991952
 21
254.239504445
  0
LINE
  8
1
  6
CONTINUOUS
 62
     7
 10
2193.9896991952
 20
252.4122317178
 11
2203.9896991952
 21
252.4122317178
  0
LINE
  8
1
  6
CONTINUOUS
 62
     7
 10
2193.9896991952
 20
264.7970802025999
 11
2203.9896991952
 21
264.7970802025999
  0
LINE
  8
1
  6
CONTINUOUS
 62
     7
 10
2193.9896991952
 20
265.1016256572001
 11
2203.9896991952
 21
265.1016256572001
  0
LINE
  8
1
  6
CONTINUOUS
 62
     7
 10
2203.9896991952
 20
256.8788983844
 11
2193.9896991952
 21
256.8788983844
  0
LINE
  8
1
  6
CONTINUOUS
 62
     7
 10
2193.9896991952
 20
248.7576862631999
 11
2203.9896991952
 21
248.7576862631999
  0
LINE
  8
1
  6
CONTINUOUS
 62
     7
 10
2193.9896991952
 20
255.3561711117001
 11
2203.9896991952
 21
255.3561711117001
  0
LINE
  8
1
  6
CONTINUOUS
 62
     7
 10
2193.9896991952
 20
258.9092014147001
 11
2203.9896991952
 21
258.9092014147001
  0
LINE
  8
1
  6
CONTINUOUS
 62
     7
 10
2193.9896991952
 20
269.0607165662999
 11
2203.9896991952
 21
269.0607165662999
  0
LINE
  8
1
  6
CONTINUOUS
 62
     7
 10
2181.748159247867
 20
237.350181938973
 11
2193.9896991952
 21
234.3031408087
  0
LINE
  8
1
  6
CONTINUOUS
 62
     7
 10
2193.9896991952
 20
261.7516256572
 11
2203.9896991952
 21
261.7516256572
  0
LINE
  8
1
  6
CONTINUOUS
 62
     7
 10
2193.9896991952
 20
264.1879892935
 11
2203.9896991952
 21
264.1879892935
  0
LINE
  8
1
  6
CONTINUOUS
 62
     7
 10
2193.9896991952
 20
262.5637468693001
 11
2203.9896991952
 21
262.5637468693001
  0
LINE
  8
1
  6
CONTINUOUS
 62
     7
 10
2193.9896991952
 20
267.5379892934999
 11
2203.9896991952
 21
267.5379892934999
  0
LINE
  8
1
  6
CONTINUOUS
 62
     7
 10
2193.9896991952
 20
235.1546559602
 11
2203.9896991952
 21
235.1546559602
  0
LINE
  8
1
  6
CONTINUOUS
 62
     7
 10
2193.9896991952
 20
259.7213226269
 11
2203.9896991952
 21
259.7213226269
  0
LINE
  8
1
  6
CONTINUOUS
 62
     7
 10
2193.9896991952
 20
266.3198074753
 11
2203.9896991952
 21
266.3198074753
  0
LINE
  8
1
  6
CONTINUOUS
 62
     7
 10
2193.9896991952
 20
268.7561711117
 11
2203.9896991952
 21
268.7561711117
  0
LINE
  8
1
  6
CONTINUOUS
 62
     7
 10
2193.9896991952
 20
234.5455650511
 11
2203.9896991952
 21
234.5455650511
  0
LINE
  8
1
  6
CONTINUOUS
 62
     7
 10
2193.9896991952
 20
260.533443839
 11
2203.9896991952
 21
260.533443839
  0
LINE
  8
1
  6
CONTINUOUS
 62
     7
 10
2193.9896991952
 20
235.4592014147
 11
2203.9896991952
 21
235.4592014147
  0
LINE
  8
1
  6
CONTINUOUS
 62
     7
 10
2205.9896991952
 20
269.3031408087
 11
2193.9896991952
 21
269.3031408087
  0
LINE
  8
1
  6
CONTINUOUS
 62
     7
 10
2193.9896991952
 20
260.1273832328999
 11
2203.9896991952
 21
260.1273832328999
  0
LINE
  8
1
  6
CONTINUOUS
 62
     7
 10
2193.9896991952
 20
267.8425347481
 11
2203.9896991952
 21
267.8425347481
  0
LINE
  8
1
  6
CONTINUOUS
 62
     7
 10
2193.9896991952
 20
244.2910195966001
 11
2203.9896991952
 21
244.2910195966001
  0
LINE
  8
1
  6
CONTINUOUS
 62
     7
 10
2193.9896991952
 20
257.2849589904999
 11
2203.9896991952
 21
257.2849589904999
  0
LINE
  8
0
  6
CONTINUOUS
 62
     7
 10
2225.4896991952
 20
267.8031408087
 11
2225.4896991952
 21
235.8031408087
  0
LINE
  8
1
  6
CONTINUOUS
 62
     7
 10
2193.9896991952
 20
238.8092014147
 11
2203.9896991952
 21
238.8092014147
  0
LINE
  8
1
  6
CONTINUOUS
 62
     7
 10
2193.9896991952
 20
239.1137468693
 11
2203.9896991952
 21
239.1137468693
  0
LINE
  8
1
  6
CONTINUOUS
 62
     7
 10
2193.9896991952
 20
246.3213226269
 11
2203.9896991952
 21
246.3213226269
  0
LINE
  8
1
  6
CONTINUOUS
 62
     7
 10
2193.9896991952
 20
248.2501105057
 11
2203.9896991952
 21
248.2501105057
  0
LINE
  8
1
  6
CONTINUOUS
 62
     7
 10
2193.9896991952
 20
266.9288983843999
 11
2203.9896991952
 21
266.9288983843999
  0
LINE
  8
1
  6
CONTINUOUS
 62
     7
 10
2193.9896991952
 20
249.9758680813999
 11
2203.9896991952
 21
249.9758680813999
  0
ARC
  8
0
  6
CONTINUOUS
 62
     7
 10
2223.9896991952
 20
235.8031408087
 40
1.5
 50
270.0
 51
0.0
  0
LINE
  8
1
  6
CONTINUOUS
 62
     7
 10
2193.9896991952
 20
264.4925347481
 11
2203.9896991952
 21
264.4925347481
  0
LINE
  8
1
  6
CONTINUOUS
 62
     7
 10
2193.9896991952
 20
240.3319286875
 11
2203.9896991952
 21
240.3319286875
  0
LINE
  8
1
  6
CONTINUOUS
 62
     7
 10
2193.9896991952
 20
265.4061711117
 11
2203.9896991952
 21
265.4061711117
  0
LINE
  8
1
  6
CONTINUOUS
 62
     7
 10
2203.9896991952
 20
266.6243529299001
 11
2193.9896991952
 21
266.6243529299001
  0
LINE
  8
1
  6
CONTINUOUS
 62
     7
 10
2193.9896991952
 20
237.5910195966
 11
2203.9896991952
 21
237.5910195966
  0
LINE
  8
1
  6
CONTINUOUS
 62
     7
 10
2193.9896991952
 20
253.6304135359999
 11
2203.9896991952
 21
253.6304135359999
  0
LINE
  8
0
  6
CONTINUOUS
 62
     7
 10
2205.9896991952
 20
269.3031408087
 11
2223.9896991952
 21
269.3031408087
  0
LINE
  8
1
  6
CONTINUOUS
 62
     7
 10
2193.9896991952
 20
243.8849589905
 11
2203.9896991952
 21
243.8849589905
  0
LINE
  8
1
  6
CONTINUOUS
 62
     7
 10
2193.9896991952
 20
242.2607165663
 11
2203.9896991952
 21
242.2607165663
  0
LINE
  8
1
  6
CONTINUOUS
 62
     7
 10
2193.9896991952
 20
237.8955650511
 11
2203.9896991952
 21
237.8955650511
  0
LINE
  8
1
  6
CONTINUOUS
 62
     7
 10
2193.9896991952
 20
238.2001105057
 11
2203.9896991952
 21
238.2001105057
  0
LINE
  8
1
  6
CONTINUOUS
 62
     7
 10
2203.9896991952
 20
246.7273832329
 11
2193.9896991952
 21
246.7273832329
  0
LINE
  8
1
  6
CONTINUOUS
 62
     7
 10
2205.9896991952
 20
234.3031408087
 11
2193.9896991952
 21
234.3031408087
  0
LINE
  8
1
  6
CONTINUOUS
 62
     7
 10
2193.9896991952
 20
247.2349589905
 11
2203.9896991952
 21
247.2349589905
  0
LINE
  8
1
  6
CONTINUOUS
 62
     7
 10
2193.9896991952
 20
251.1940498996
 11
2203.9896991952
 21
251.1940498996
  0
ARC
  8
0
  6
CONTINUOUS
 62
     7
 10
2223.9896991952
 20
267.8031408087
 40
1.5
 50
0.0
 51
90.0
  0
LINE
  8
1
  6
CONTINUOUS
 62
     7
 10
2203.9896991952
 20
269.3031408087
 11
2203.9896991952
 21
234.3031408087
  0
LINE
  8
1
  6
CONTINUOUS
 62
     7
 10
2193.9896991952
 20
236.6773832329
 11
2203.9896991952
 21
236.6773832329
  0
LINE
  8
1
  6
CONTINUOUS
 62
     7
 10
2193.9896991952
 20
250.5849589904999
 11
2203.9896991952
 21
250.5849589904999
  0
LINE
  8
1
  6
CONTINUOUS
 62
     7
 10
2193.9896991952
 20
240.0273832329
 11
2203.9896991952
 21
240.0273832329
  0
LINE
  8
1
  6
CONTINUOUS
 62
     7
 10
2193.9896991952
 20
238.5046559602
 11
2203.9896991952
 21
238.5046559602
  0
LINE
  8
1
  6
CONTINUOUS
 62
     7
 10
2193.9896991952
 20
240.6364741419999
 11
2203.9896991952
 21
240.6364741419999
  0
LINE
  8
1
  6
CONTINUOUS
 62
     7
 10
2193.9896991952
 20
262.9698074752999
 11
2203.9896991952
 21
262.9698074752999
  0
LINE
  8
1
  6
CONTINUOUS
 62
     7
 10
2193.9896991952
 20
243.4788983843999
 11
2203.9896991952
 21
243.4788983843999
  0
LINE
  8
1
  6
CONTINUOUS
 62
     7
 10
2193.9896991952
 20
243.0728377783999
 11
2203.9896991952
 21
243.0728377783999
  0
LINE
  8
1
  6
CONTINUOUS
 62
     7
 10
2193.9896991952
 20
241.8546559601999
 11
2203.9896991952
 21
241.8546559601999
  0
LINE
  8
1
  6
CONTINUOUS
 62
     7
 10
2193.9896991952
 20
237.286474142
 11
2203.9896991952
 21
237.286474142
  0
LINE
  8
1
  6
CONTINUOUS
 62
     7
 10
2193.9896991952
 20
249.3667771722999
 11
2203.9896991952
 21
249.3667771722999
  0
LINE
  8
1
  6
CONTINUOUS
 62
     7
 10
2193.9896991952
 20
267.233443839
 11
2203.9896991952
 21
267.233443839
  0
LINE
  8
1
  6
CONTINUOUS
 62
     7
 10
2193.9896991952
 20
261.3455650511
 11
2203.9896991952
 21
261.3455650511
  0
LINE
  8
1
  6
CONTINUOUS
 62
     7
 10
2205.9896991952
 20
234.3031408087
 11
2205.9896991952
 21
269.3031408087
  0
LINE
  8
1
  6
CONTINUOUS
 62
     7
 10
2193.9896991952
 20
245.9152620207999
 11
2203.9896991952
 21
245.9152620207999
  0
LINE
  8
1
  6
CONTINUOUS
 62
     7
 10
2193.9896991952
 20
242.6667771723
 11
2203.9896991952
 21
242.6667771723
  0
LINE
  8
1
  6
CONTINUOUS
 62
     7
 10
2193.9896991952
 20
239.4182923238
 11
2203.9896991952
 21
239.4182923238
  0
LINE
  8
1
  6
CONTINUOUS
 62
     7
 10
2193.9896991952
 20
269.3031408087
 11
2193.9896991952
 21
234.3031408087
  0
LINE
  8
1
  6
CONTINUOUS
 62
     7
 10
2193.9896991952
 20
268.1470802026
 11
2203.9896991952
 21
268.1470802026
  0
LINE
  8
1
  6
CONTINUOUS
 62
     7
 10
2193.9896991952
 20
244.6970802025999
 11
2203.9896991952
 21
244.6970802025999
  0
LINE
  8
1
  6
CONTINUOUS
 62
     7
 10
2193.9896991952
 20
254.8485953541
 11
2203.9896991952
 21
254.8485953541
  0
LINE
  8
1
  6
CONTINUOUS
 62
     7
 10
2203.9896991952
 20
239.7228377784
 11
2193.9896991952
 21
239.7228377784
  0
LINE
  8
1
  6
CONTINUOUS
 62
     7
 10
2193.9896991952
 20
245.5092014147
 11
2203.9896991952
 21
245.5092014147
  0
LINE
  8
1
  6
CONTINUOUS
 62
     7
 10
2193.9896991952
 20
241.4485953541
 11
2203.9896991952
 21
241.4485953541
  0
LINE
  8
1
  6
CONTINUOUS
 62
     7
 10
2193.9896991952
 20
241.0425347481
 11
2203.9896991952
 21
241.0425347481
  0
ARC
  8
1
  6
CONTINUOUS
 62
     7
 10
2181.9896991952
 20
238.3205728158068
 40
0.9999999999998899
 50
180.0
 51
256.0225528669612
  0
LINE
  8
0
  6
CONTINUOUS
 62
     7
 10
2223.9896991952
 20
234.3031408087
 11
2205.9896991952
 21
234.3031408087
  0
ENDSEC
  0
EOF
