  0
SECTION
  2
HEADER
  9
$ACADVER
  1
AC1004
  9
$INSBASE
 10
0.0
 20
0.0
  9
$EXTMIN
 10
0.0545454545454545
 20
0.0272727272727273
  9
$EXTMAX
 10
2380.0
 20
353.9417302255
  9
$LIMMIN
 10
0.0
 20
0.0
  9
$LIMMAX
 10
12.0
 20
9.0
  9
$ORTHOMODE
 70
     0
  9
$REGENMODE
 70
     1
  9
$FILLMODE
 70
     1
  9
$QTEXTMODE
 70
     0
  9
$DRAGMODE
 70
     2
  9
$LTSCALE
 40
1.0
  9
$OSMODE
 70
    37
  9
$ATTMODE
 70
     1
  9
$TEXTSIZE
 40
0.2
  9
$TRACEWID
 40
0.05
  9
$TEXTSTYLE
  7
STANDARD
  9
$CLAYER
  8
0
  9
$CELTYPE
  6
BYLAYER
  9
$CECOLOR
 62
   256
  9
$DIMSCALE
 40
1.0
  9
$DIMASZ
 40
2.0
  9
$DIMEXO
 40
0.0625
  9
$DIMDLI
 40
0.38
  9
$DIMRND
 40
0.0
  9
$DIMDLE
 40
0.0
  9
$DIMEXE
 40
1.0
  9
$DIMTP
 40
0.0
  9
$DIMTM
 40
0.0
  9
$DIMTXT
 40
3.2
  9
$DIMCEN
 40
0.09
  9
$DIMTSZ
 40
0.0
  9
$DIMTOL
 70
     0
  9
$DIMLIM
 70
     0
  9
$DIMTIH
 70
     1
  9
$DIMTOH
 70
     1
  9
$DIMSE1
 70
     0
  9
$DIMSE2
 70
     0
  9
$DIMTAD
 70
     1
  9
$DIMZIN
 70
     0
  9
$DIMBLK
  1

  9
$DIMASO
 70
     1
  9
$DIMSHO
 70
     1
  9
$DIMPOST
  1

  9
$DIMAPOST
  1

  9
$DIMALT
 70
     0
  9
$DIMALTD
 70
     2
  9
$DIMALTF
 40
25.4
  9
$DIMLFAC
 40
1.0
  9
$DIMTOFL
 70
     0
  9
$DIMTVP
 40
0.0
  9
$DIMTIX
 70
     0
  9
$DIMSOXD
 70
     0
  9
$DIMSAH
 70
     0
  9
$DIMBLK1
  1

  9
$DIMBLK2
  1

  9
$LUNITS
 70
     2
  9
$LUPREC
 70
     4
  9
$SKETCHINC
 40
0.1
  9
$FILLETRAD
 40
0.5
  9
$AUNITS
 70
     0
  9
$AUPREC
 70
     0
  9
$MENU
  1
.
  9
$ELEVATION
 40
0.0
  9
$THICKNESS
 40
0.0
  9
$LIMCHECK
 70
     0
  9
$CHAMFERA
 40
0.0
  9
$CHAMFERB
 40
0.0
  9
$SKPOLY
 70
     0
  9
$TDCREATE
 40
2459048.48946471
  9
$TDUPDATE
 40
2459048.489464896
  9
$TDINDWG
 40
0.0000000116
  9
$TDUSRTIMER
 40
0.0000000116
  9
$USRTIMER
 70
     1
  9
$ANGBASE
 50
0.0
  9
$ANGDIR
 70
     0
  9
$PDMODE
 70
     0
  9
$PDSIZE
 40
0.0
  9
$PLINEWID
 40
0.0
  9
$COORDS
 70
     1
  9
$SPLFRAME
 70
     0
  9
$SPLINETYPE
 70
     6
  9
$SPLINESEGS
 70
     8
  9
$ATTDIA
 70
     0
  9
$ATTREQ
 70
     1
  9
$SURFTAB1
 70
     6
  9
$SURFTAB2
 70
     6
  9
$SURFTYPE
 70
     6
  9
$SURFU
 70
     6
  9
$SURFV
 70
     6
  9
$UCSNAME
  2

  9
$UCSORG
 10
0.0
 20
0.0
 30
0.0
  9
$UCSXDIR
 10
1.0
 20
0.0
 30
0.0
  9
$UCSYDIR
 10
0.0
 20
1.0
 30
0.0
  9
$USERI1
 70
     0
  9
$USERI2
 70
     0
  9
$USERI3
 70
     0
  9
$USERI4
 70
     0
  9
$USERI5
 70
     0
  9
$USERR1
 40
0.0
  9
$USERR2
 40
0.0
  9
$USERR3
 40
0.0
  9
$USERR4
 40
0.0
  9
$USERR5
 40
0.0
  9
$WORLDVIEW
 70
     1
  0
ENDSEC
  0
SECTION
  2
TABLES
  0
TABLE
  2
LTYPE
 70
     3
  0
LTYPE
  2
CONTINUOUS
 70
     0
  3
Solid line
 72
    65
 73
     0
 40
0.0
  0
LTYPE
  2
PHANTOM
 70
     0
  3

 72
    65
 73
     0
 40
0.0
  0
LTYPE
  2
CENTER
 70
     0
  3

 72
    65
 73
     0
 40
0.0
  0
ENDTAB
  0
TABLE
  2
LAYER
 70
     2
  0
LAYER
  2
0
 70
     0
 62
     7
  6
CONTINUOUS
  0
LAYER
  2
1
 70
     0
 62
     7
  6
CONTINUOUS
  0
ENDTAB
  0
TABLE
  2
STYLE
 70
     2
  0
STYLE
  2
STANDARD
 70
     0
 40
0.0
 41
1.0
 50
0.0
 71
     0
 42
0.2
  3
txt
  4

  0
STYLE
  2
ＭＳ_ゴシック
 70
     0
 40
0.0
 41
1.0
 50
0.0
 71
     0
 42
0.2
  3
ＭＳ ゴシック.shx
  4

  0
ENDTAB
  0
TABLE
  2
VIEW
 70
     0
  0
ENDTAB
  0
ENDSEC
  0
SECTION
  2
BLOCKS
  0
ENDSEC
  0
SECTION
  2
ENTITIES
  0
TEXT
  8
1
  6
CONTINUOUS
 62
     7
 10
2205.167828124828
 20
302.6412849090909
 40
3.5
  1
ＭＰＭＳ－２２２０２２Ｋ
 41
0.655062
  0
ARC
  8
1
  6
CONTINUOUS
 62
     7
 10
2233.6195969911
 20
312.3417302255
 40
1.5
 50
90.0
 51
165.0
  0
ARC
  8
1
  6
CONTINUOUS
 62
     7
 10
2233.6195969911
 20
351.3417302255
 40
1.5
 50
195.0
 51
270.0
  0
ARC
  8
1
  6
CONTINUOUS
 62
     7
 10
2230.2458192575
 20
352.3417302255
 40
1.5
 50
15.0
 51
90.0
  0
LINE
  8
1
  6
CONTINUOUS
 62
     7
 10
2222.4686065092
 20
309.7417302255
 11
2222.4686065092
 21
353.9417302255
  0
ARC
  8
1
  6
CONTINUOUS
 62
     7
 10
2241.9685824264
 20
348.3417302255
 40
1.5
 50
0.0
 51
90.0
  0
LINE
  8
1
  6
PHANTOM
 62
     7
 10
2232.4686065092
 20
350.3798461835
 11
2232.4686065092
 21
313.3036142676
  0
LINE
  8
1
  6
PHANTOM
 62
     7
 10
2231.3968097394
 20
353.3036142676
 11
2231.3968097394
 21
310.3798461835
  0
LINE
  8
1
  6
CONTINUOUS
 62
     7
 10
2232.1707082517
 20
350.9535016579
 11
2231.6388932419
 21
352.9382622946
  0
LINE
  8
1
  6
CONTINUOUS
 62
     7
 10
2230.2458192575
 20
353.8417302255
 11
2222.4686065092
 21
353.8417302255
  0
LINE
  8
1
  6
CONTINUOUS
 62
     7
 10
2233.6195969911
 20
313.8417302255
 11
2241.9685824264
 21
313.8417302255
  0
ARC
  8
1
  6
CONTINUOUS
 62
     7
 10
2230.2458192575
 20
311.3417302255
 40
1.5
 50
270.0
 51
345.0
  0
LINE
  8
1
  6
CONTINUOUS
 62
     7
 10
2232.1707082517
 20
312.7299587932
 11
2231.6388932419
 21
310.7451981565
  0
LINE
  8
1
  6
CONTINUOUS
 62
     7
 10
2233.6195969911
 20
349.8417302255
 11
2241.9685824264
 21
349.8417302255
  0
LINE
  8
1
  6
CONTINUOUS
 62
     7
 10
2230.2458192575
 20
309.8417302255
 11
2222.4686065092
 21
309.8417302255
  0
LINE
  8
1
  6
CONTINUOUS
 62
     7
 10
2243.4685824264
 20
348.3417302255
 11
2243.4685824264
 21
315.3417302255
  0
ARC
  8
1
  6
CONTINUOUS
 62
     7
 10
2241.9685824264
 20
315.3417302255
 40
1.5
 50
270.0
 51
0.0
  0
LINE
  8
1
  6
CONTINUOUS
 62
     7
 10
2208.468606509201
 20
343.8917302254999
 11
2219.468606509201
 21
343.8917302254999
  0
LINE
  8
1
  6
CONTINUOUS
 62
     7
 10
2208.468606509201
 20
345.5159726497
 11
2219.468606509201
 21
345.5159726497
  0
LINE
  8
1
  6
CONTINUOUS
 62
     7
 10
2208.468606509201
 20
353.5356696194
 11
2219.468606509201
 21
353.5356696194
  0
LINE
  8
1
  6
CONTINUOUS
 62
     7
 10
2208.468606509201
 20
340.237184771
 11
2219.468606509201
 21
340.237184771
  0
LINE
  8
1
  6
CONTINUOUS
 62
     7
 10
2208.468606509201
 20
347.9523362861
 11
2219.468606509201
 21
347.9523362861
  0
LINE
  8
1
  6
CONTINUOUS
 62
     7
 10
2208.468606509201
 20
348.6629423467
 11
2219.468606509201
 21
348.6629423467
  0
LINE
  8
1
  6
CONTINUOUS
 62
     7
 10
2208.468606509201
 20
349.8811241649
 11
2219.468606509201
 21
349.8811241649
  0
LINE
  8
1
  6
CONTINUOUS
 62
     7
 10
2219.468606509201
 20
333.8008211346
 11
2208.468606509201
 21
333.8008211346
  0
LINE
  8
1
  6
CONTINUOUS
 62
     7
 10
2208.468606509201
 20
315.0205181043
 11
2219.468606509201
 21
315.0205181043
  0
LINE
  8
1
  6
CONTINUOUS
 62
     7
 10
2219.468606509201
 20
328.4826393164
 11
2208.468606509201
 21
328.4826393164
  0
LINE
  8
1
  6
CONTINUOUS
 62
     7
 10
2208.468606509201
 20
353.8417302255
 11
2190.308328902475
 21
350.8929221359131
  0
ARC
  8
1
  6
CONTINUOUS
 62
     7
 10
2190.4686065092
 20
349.9058501584047
 40
0.9999999999998899
 50
99.2230098697463
 51
180.0
  0
LINE
  8
1
  6
CONTINUOUS
 62
     7
 10
2189.468606509201
 20
349.9058501584047
 11
2189.468606509201
 21
313.7776102925954
  0
ARC
  8
1
  6
CONTINUOUS
 62
     7
 10
2190.4686065092
 20
313.7776102925954
 40
0.9999999999998899
 50
180.0
 51
260.7769901302538
  0
LINE
  8
1
  6
CONTINUOUS
 62
     7
 10
2190.308328902474
 20
312.790538315087
 11
2208.4686065092
 21
309.8417302255
  0
LINE
  8
1
  6
CONTINUOUS
 62
     7
 10
2208.468606509201
 20
331.3826393164
 11
2219.468606509201
 21
331.3826393164
  0
LINE
  8
1
  6
CONTINUOUS
 62
     7
 10
2208.468606509201
 20
352.9265787104
 11
2219.468606509201
 21
352.9265787104
  0
LINE
  8
1
  6
CONTINUOUS
 62
     7
 10
2208.468606509201
 20
352.3174878013
 11
2219.468606509201
 21
352.3174878013
  0
LINE
  8
1
  6
CONTINUOUS
 62
     7
 10
2219.468606509201
 20
322.4311241649
 11
2208.468606509201
 21
322.4311241649
  0
LINE
  8
1
  6
CONTINUOUS
 62
     7
 10
2208.468606509201
 20
325.8826393164
 11
2219.468606509201
 21
325.8826393164
  0
LINE
  8
1
  6
CONTINUOUS
 62
     7
 10
2208.468606509201
 20
310.7568817406
 11
2219.468606509201
 21
310.7568817406
  0
LINE
  8
1
  6
CONTINUOUS
 62
     7
 10
2219.468606509201
 20
327.0826393164
 11
2208.468606509201
 21
327.0826393164
  0
CIRCLE
  8
1
  6
CONTINUOUS
 62
     7
 10
2154.6263280421
 20
331.8417302255
 40
10.5857739986
  0
LINE
  8
1
  6
CONTINUOUS
 62
     7
 10
2208.468606509201
 20
347.1402150739999
 11
2219.468606509201
 21
347.1402150739999
  0
LINE
  8
1
  6
CONTINUOUS
 62
     7
 10
2208.468606509201
 20
320.6038514376
 11
2219.468606509201
 21
320.6038514376
  0
LINE
  8
1
  6
CONTINUOUS
 62
     7
 10
2208.468606509201
 20
353.8417302255
 11
2208.468606509201
 21
309.8417302255001
  0
CIRCLE
  8
1
  6
CONTINUOUS
 62
     7
 10
2154.6263280421
 20
331.8417302255
 40
22.1
  0
CIRCLE
  8
1
  6
CONTINUOUS
 62
     7
 10
2154.6263280421
 20
331.8417302255
 40
11.5
  0
LINE
  8
1
  6
CONTINUOUS
 62
     7
 10
2208.468606509201
 20
318.1674878013
 11
2219.468606509201
 21
318.1674878013
  0
LINE
  8
1
  6
CONTINUOUS
 62
     7
 10
2208.468606509201
 20
313.193245377
 11
2219.468606509201
 21
313.193245377
  0
LINE
  8
1
  6
CONTINUOUS
 62
     7
 10
2208.468606509201
 20
311.3659726497
 11
2219.468606509201
 21
311.3659726497
  0
LINE
  8
1
  6
CONTINUOUS
 62
     7
 10
2208.468606509201
 20
350.490215074
 11
2219.468606509201
 21
350.490215074
  0
LINE
  8
1
  6
CONTINUOUS
 62
     7
 10
2208.468606509201
 20
324.6644574982
 11
2219.468606509201
 21
324.6644574982
  0
LINE
  8
1
  6
CONTINUOUS
 62
     7
 10
2208.468606509201
 20
312.5841544679
 11
2219.468606509201
 21
312.5841544679
  0
LINE
  8
1
  6
CONTINUOUS
 62
     7
 10
2222.4686065092
 20
353.8417302255
 11
2222.4686065092
 21
309.8417302255
  0
LINE
  8
1
  6
CONTINUOUS
 62
     7
 10
2208.468606509201
 20
351.0993059831
 11
2219.468606509201
 21
351.0993059831
  0
LINE
  8
1
  6
CONTINUOUS
 62
     7
 10
2208.468606509201
 20
351.7083968922
 11
2219.468606509201
 21
351.7083968922
  0
LINE
  8
1
  6
CONTINUOUS
 62
     7
 10
2208.468606509201
 20
323.44627568
 11
2219.468606509201
 21
323.44627568
  0
LINE
  8
1
  6
CONTINUOUS
 62
     7
 10
2219.468606509201
 20
314.4114271952
 11
2208.468606509201
 21
314.4114271952
  0
CIRCLE
  8
1
  6
CONTINUOUS
 62
     7
 10
2154.6263280421
 20
331.8417302255
 40
15.75
  0
CIRCLE
  8
1
  6
CONTINUOUS
 62
     7
 10
2154.6263280421
 20
331.8417302255
 40
12.4820508076
  0
LINE
  8
1
  6
CONTINUOUS
 62
     7
 10
2219.468606509201
 20
329.8826393164
 11
2208.468606509201
 21
329.8826393164
  0
LINE
  8
1
  6
CONTINUOUS
 62
     7
 10
2208.468606509201
 20
344.7038514376
 11
2219.468606509201
 21
344.7038514376
  0
LINE
  8
1
  6
CONTINUOUS
 62
     7
 10
2208.468606509201
 20
316.543245377
 11
2219.468606509201
 21
316.543245377
  0
LINE
  8
1
  6
CONTINUOUS
 62
     7
 10
2208.468606509201
 20
317.3553665891
 11
2219.468606509201
 21
317.3553665891
  0
LINE
  8
1
  6
CONTINUOUS
 62
     7
 10
2208.468606509201
 20
332.3008211346
 11
2219.468606509201
 21
332.3008211346
  0
LINE
  8
1
  6
CONTINUOUS
 62
     7
 10
2208.468606509201
 20
313.8023362861
 11
2219.468606509201
 21
313.8023362861
  0
LINE
  8
1
  6
CONTINUOUS
 62
     7
 10
2208.468606509201
 20
339.0190029528
 11
2219.468606509201
 21
339.0190029528
  0
LINE
  8
1
  6
CONTINUOUS
 62
     7
 10
2219.468606509201
 20
341.2523362861
 11
2208.468606509201
 21
341.2523362861
  0
LINE
  8
1
  6
CONTINUOUS
 62
     7
 10
2208.468606509201
 20
346.3280938619
 11
2219.468606509201
 21
346.3280938619
  0
LINE
  8
1
  6
CONTINUOUS
 62
     7
 10
2219.468606509201
 20
321.4159726497
 11
2208.468606509201
 21
321.4159726497
  0
LINE
  8
1
  6
CONTINUOUS
 62
     7
 10
2208.468606509201
 20
310.1477908316
 11
2219.468606509201
 21
310.1477908316
  0
LINE
  8
1
  6
CONTINUOUS
 62
     7
 10
2208.468606509201
 20
343.0796090134
 11
2219.468606509201
 21
343.0796090134
  0
LINE
  8
1
  6
CONTINUOUS
 62
     7
 10
2208.468606509201
 20
337.8008211346
 11
2219.468606509201
 21
337.8008211346
  0
LINE
  8
1
  6
CONTINUOUS
 62
     7
 10
2219.468606509201
 20
342.2674878013
 11
2208.468606509201
 21
342.2674878013
  0
LINE
  8
1
  6
CONTINUOUS
 62
     7
 10
2219.468606509201
 20
349.2720332557999
 11
2208.468606509201
 21
349.2720332557999
  0
LINE
  8
1
  6
CONTINUOUS
 62
     7
 10
2208.468606509201
 20
318.9796090134
 11
2219.468606509201
 21
318.9796090134
  0
LINE
  8
1
  6
CONTINUOUS
 62
     7
 10
2208.468606509201
 20
315.7311241649
 11
2219.468606509201
 21
315.7311241649
  0
LINE
  8
1
  6
CONTINUOUS
 62
     7
 10
2219.468606509201
 20
336.6008211346
 11
2208.468606509201
 21
336.6008211346
  0
LINE
  8
1
  6
CONTINUOUS
 62
     7
 10
2208.468606509201
 20
319.7917302255
 11
2219.468606509201
 21
319.7917302255
  0
LINE
  8
1
  6
CONTINUOUS
 62
     7
 10
2219.468606509201
 20
335.2008211345999
 11
2208.468606509201
 21
335.2008211345999
  0
LINE
  8
1
  6
CONTINUOUS
 62
     7
 10
2208.468606509201
 20
311.9750635588
 11
2219.468606509201
 21
311.9750635588
  0
LINE
  8
0
  6
CENTER
 62
     4
 10
1980.0
 20
331.8417302255
 11
2380.0
 21
331.8417302255
  0
LINE
  8
1
  6
CONTINUOUS
 62
     7
 10
2208.468606509201
 20
309.8417302255
 11
2222.4686065092
 21
309.8417302255
  0
LINE
  8
1
  6
CONTINUOUS
 62
     7
 10
2222.4686065092
 20
353.8417302255
 11
2208.468606509201
 21
353.8417302255
  0
LINE
  8
1
  6
CONTINUOUS
 62
     7
 10
2219.468606509201
 20
353.8417302255
 11
2219.468606509201
 21
309.8417302255
  0
POINT
  8
0
 62
     4
 10
2222.4686065092
 20
331.8417302255
 30
0.0
  0
ENDSEC
  0
EOF
