  0
SECTION
  2
HEADER
  9
$ACADVER
  1
AC1004
  9
$INSBASE
 10
0.0
 20
0.0
  9
$EXTMIN
 10
0.0545454545454545
 20
0.0272727272727273
  9
$EXTMAX
 10
2243.4685824264
 20
285.0476808307
  9
$LIMMIN
 10
0.0
 20
0.0
  9
$LIMMAX
 10
12.0
 20
9.0
  9
$ORTHOMODE
 70
     0
  9
$REGENMODE
 70
     1
  9
$FILLMODE
 70
     1
  9
$QTEXTMODE
 70
     0
  9
$DRAGMODE
 70
     2
  9
$LTSCALE
 40
1.0
  9
$OSMODE
 70
    37
  9
$ATTMODE
 70
     1
  9
$TEXTSIZE
 40
0.2
  9
$TRACEWID
 40
0.05
  9
$TEXTSTYLE
  7
STANDARD
  9
$CLAYER
  8
0
  9
$CELTYPE
  6
BYLAYER
  9
$CECOLOR
 62
   256
  9
$DIMSCALE
 40
1.0
  9
$DIMASZ
 40
2.0
  9
$DIMEXO
 40
0.0625
  9
$DIMDLI
 40
0.38
  9
$DIMRND
 40
0.0
  9
$DIMDLE
 40
0.0
  9
$DIMEXE
 40
1.0
  9
$DIMTP
 40
0.0
  9
$DIMTM
 40
0.0
  9
$DIMTXT
 40
3.2
  9
$DIMCEN
 40
0.09
  9
$DIMTSZ
 40
0.0
  9
$DIMTOL
 70
     0
  9
$DIMLIM
 70
     0
  9
$DIMTIH
 70
     1
  9
$DIMTOH
 70
     1
  9
$DIMSE1
 70
     0
  9
$DIMSE2
 70
     0
  9
$DIMTAD
 70
     1
  9
$DIMZIN
 70
     0
  9
$DIMBLK
  1

  9
$DIMASO
 70
     1
  9
$DIMSHO
 70
     1
  9
$DIMPOST
  1

  9
$DIMAPOST
  1

  9
$DIMALT
 70
     0
  9
$DIMALTD
 70
     2
  9
$DIMALTF
 40
25.4
  9
$DIMLFAC
 40
1.0
  9
$DIMTOFL
 70
     0
  9
$DIMTVP
 40
0.0
  9
$DIMTIX
 70
     0
  9
$DIMSOXD
 70
     0
  9
$DIMSAH
 70
     0
  9
$DIMBLK1
  1

  9
$DIMBLK2
  1

  9
$LUNITS
 70
     2
  9
$LUPREC
 70
     4
  9
$SKETCHINC
 40
0.1
  9
$FILLETRAD
 40
0.5
  9
$AUNITS
 70
     0
  9
$AUPREC
 70
     0
  9
$MENU
  1
.
  9
$ELEVATION
 40
0.0
  9
$THICKNESS
 40
0.0
  9
$LIMCHECK
 70
     0
  9
$CHAMFERA
 40
0.0
  9
$CHAMFERB
 40
0.0
  9
$SKPOLY
 70
     0
  9
$TDCREATE
 40
2459048.490112199
  9
$TDUPDATE
 40
2459048.490112384
  9
$TDINDWG
 40
0.0000000116
  9
$TDUSRTIMER
 40
0.0000000116
  9
$USRTIMER
 70
     1
  9
$ANGBASE
 50
0.0
  9
$ANGDIR
 70
     0
  9
$PDMODE
 70
     0
  9
$PDSIZE
 40
0.0
  9
$PLINEWID
 40
0.0
  9
$COORDS
 70
     1
  9
$SPLFRAME
 70
     0
  9
$SPLINETYPE
 70
     6
  9
$SPLINESEGS
 70
     8
  9
$ATTDIA
 70
     0
  9
$ATTREQ
 70
     1
  9
$SURFTAB1
 70
     6
  9
$SURFTAB2
 70
     6
  9
$SURFTYPE
 70
     6
  9
$SURFU
 70
     6
  9
$SURFV
 70
     6
  9
$UCSNAME
  2

  9
$UCSORG
 10
0.0
 20
0.0
 30
0.0
  9
$UCSXDIR
 10
1.0
 20
0.0
 30
0.0
  9
$UCSYDIR
 10
0.0
 20
1.0
 30
0.0
  9
$USERI1
 70
     0
  9
$USERI2
 70
     0
  9
$USERI3
 70
     0
  9
$USERI4
 70
     0
  9
$USERI5
 70
     0
  9
$USERR1
 40
0.0
  9
$USERR2
 40
0.0
  9
$USERR3
 40
0.0
  9
$USERR4
 40
0.0
  9
$USERR5
 40
0.0
  9
$WORLDVIEW
 70
     1
  0
ENDSEC
  0
SECTION
  2
TABLES
  0
TABLE
  2
LTYPE
 70
     1
  0
LTYPE
  2
CONTINUOUS
 70
     0
  3
Solid line
 72
    65
 73
     0
 40
0.0
  0
ENDTAB
  0
TABLE
  2
LAYER
 70
     2
  0
LAYER
  2
0
 70
     0
 62
     7
  6
CONTINUOUS
  0
LAYER
  2
1
 70
     0
 62
     7
  6
CONTINUOUS
  0
ENDTAB
  0
TABLE
  2
STYLE
 70
     2
  0
STYLE
  2
STANDARD
 70
     0
 40
0.0
 41
1.0
 50
0.0
 71
     0
 42
0.2
  3
txt
  4

  0
STYLE
  2
ＭＳ_ゴシック
 70
     0
 40
0.0
 41
1.0
 50
0.0
 71
     0
 42
0.2
  3
ＭＳ ゴシック.shx
  4

  0
ENDTAB
  0
TABLE
  2
VIEW
 70
     0
  0
ENDTAB
  0
ENDSEC
  0
SECTION
  2
BLOCKS
  0
ENDSEC
  0
SECTION
  2
ENTITIES
  0
TEXT
  8
1
  6
CONTINUOUS
 62
     7
 10
2208.253369124828
 20
234.5277949090909
 40
3.5
  1
ＭＰＭＳ－２２２４２８Ｋ
 41
0.655062
  0
LINE
  8
1
  6
CONTINUOUS
 62
     7
 10
2219.4686065091
 20
273.3734384065
 11
2208.4686065091
 21
273.3734384065
  0
LINE
  8
1
  6
CONTINUOUS
 62
     7
 10
2219.4686065091
 20
280.377983861
 11
2208.4686065091
 21
280.377983861
  0
LINE
  8
1
  6
CONTINUOUS
 62
     7
 10
2208.4686065091
 20
243.6901050731
 11
2219.4686065091
 21
243.6901050731
  0
LINE
  8
1
  6
CONTINUOUS
 62
     7
 10
2208.4686065091
 20
268.9067717398
 11
2219.4686065091
 21
268.9067717398
  0
LINE
  8
1
  6
CONTINUOUS
 62
     7
 10
2208.4686065091
 20
251.7098020428
 11
2219.4686065091
 21
251.7098020428
  0
LINE
  8
1
  6
CONTINUOUS
 62
     7
 10
2208.4686065091
 20
241.2537414368001
 11
2219.4686065091
 21
241.2537414368001
  0
LINE
  8
1
  6
CONTINUOUS
 62
     7
 10
2208.4686065091
 20
274.1855596186
 11
2219.4686065091
 21
274.1855596186
  0
LINE
  8
1
  6
CONTINUOUS
 62
     7
 10
2219.4686065091
 20
267.7067717398
 11
2208.4686065091
 21
267.7067717398
  0
LINE
  8
1
  6
CONTINUOUS
 62
     7
 10
2219.4686065091
 20
258.1885899216001
 11
2208.4686065091
 21
258.1885899216001
  0
LINE
  8
1
  6
CONTINUOUS
 62
     7
 10
2208.4686065091
 20
255.7704081034
 11
2219.4686065091
 21
255.7704081034
  0
LINE
  8
1
  6
CONTINUOUS
 62
     7
 10
2208.4686065091
 20
256.9885899216
 11
2219.4686065091
 21
256.9885899216
  0
LINE
  8
1
  6
CONTINUOUS
 62
     7
 10
2208.4686065091
 20
254.5522262852
 11
2219.4686065091
 21
254.5522262852
  0
LINE
  8
1
  6
CONTINUOUS
 62
     7
 10
2219.4686065091
 20
264.9067717398
 11
2208.4686065091
 21
264.9067717398
  0
LINE
  8
1
  6
CONTINUOUS
 62
     7
 10
2208.4686065091
 20
241.8628323458
 11
2219.4686065091
 21
241.8628323458
  0
LINE
  8
1
  6
CONTINUOUS
 62
     7
 10
2208.4686065091
 20
284.6416202246
 11
2219.4686065091
 21
284.6416202246
  0
LINE
  8
1
  6
CONTINUOUS
 62
     7
 10
2208.4686065091
 20
274.9976808306999
 11
2219.4686065091
 21
274.9976808306999
  0
LINE
  8
1
  6
CONTINUOUS
 62
     7
 10
2219.4686065091
 20
252.5219232549
 11
2208.4686065091
 21
252.5219232549
  0
LINE
  8
1
  6
CONTINUOUS
 62
     7
 10
2208.4686065091
 20
250.0855596186
 11
2219.4686065091
 21
250.0855596186
  0
LINE
  8
1
  6
CONTINUOUS
 62
     7
 10
2208.4686065091
 20
279.7688929519001
 11
2219.4686065091
 21
279.7688929519001
  0
LINE
  8
1
  6
CONTINUOUS
 62
     7
 10
2208.4686065091
 20
246.8370747701
 11
2219.4686065091
 21
246.8370747701
  0
LINE
  8
1
  6
CONTINUOUS
 62
     7
 10
2241.9685824264
 20
240.9476808307
 11
2222.4686065091
 21
240.9476808307
  0
LINE
  8
1
  6
CONTINUOUS
 62
     7
 10
2219.4686065091
 20
266.3067717398
 11
2208.4686065091
 21
266.3067717398
  0
LINE
  8
1
  6
CONTINUOUS
 62
     7
 10
2208.4686065091
 20
246.1264687095
 11
2219.4686065091
 21
246.1264687095
  0
LINE
  8
1
  6
CONTINUOUS
 62
     7
 10
2208.4686065091
 20
263.4067717398
 11
2219.4686065091
 21
263.4067717398
  0
LINE
  8
1
  6
CONTINUOUS
 62
     7
 10
2208.4686065091
 20
244.2991959822001
 11
2219.4686065091
 21
244.2991959822001
  0
LINE
  8
1
  6
CONTINUOUS
 62
     7
 10
2208.4686065091
 20
276.6219232549
 11
2219.4686065091
 21
276.6219232549
  0
LINE
  8
1
  6
CONTINUOUS
 62
     7
 10
2208.4686065091
 20
244.9082868913
 11
2219.4686065091
 21
244.9082868913
  0
LINE
  8
1
  6
CONTINUOUS
 62
     7
 10
2208.4686065091
 20
279.0582868913
 11
2219.4686065091
 21
279.0582868913
  0
LINE
  8
1
  6
CONTINUOUS
 62
     7
 10
2219.4686065091
 20
260.9885899216
 11
2208.4686065091
 21
260.9885899216
  0
LINE
  8
1
  6
CONTINUOUS
 62
     7
 10
2208.4686065091
 20
247.6491959822
 11
2219.4686065091
 21
247.6491959822
  0
LINE
  8
1
  6
CONTINUOUS
 62
     7
 10
2219.4686065091
 20
245.5173778004
 11
2208.4686065091
 21
245.5173778004
  0
LINE
  8
1
  6
CONTINUOUS
 62
     7
 10
2219.4686065091
 20
253.5370747701001
 11
2208.4686065091
 21
253.5370747701001
  0
LINE
  8
1
  6
CONTINUOUS
 62
     7
 10
2208.4686065091
 20
242.4719232549
 11
2219.4686065091
 21
242.4719232549
  0
LINE
  8
1
  6
CONTINUOUS
 62
     7
 10
2208.4686065091
 20
249.2734384065
 11
2219.4686065091
 21
249.2734384065
  0
ARC
  8
1
  6
CONTINUOUS
 62
     7
 10
2241.9685824264
 20
283.4476808307
 40
1.5
 50
0.0
 51
90.0
  0
LINE
  8
1
  6
CONTINUOUS
 62
     7
 10
2208.4686065091
 20
248.4613171943
 11
2219.4686065091
 21
248.4613171943
  0
LINE
  8
1
  6
CONTINUOUS
 62
     7
 10
2208.4686065091
 20
270.124953558
 11
2219.4686065091
 21
270.124953558
  0
LINE
  8
1
  6
CONTINUOUS
 62
     7
 10
2219.4686065091
 20
272.3582868913001
 11
2208.4686065091
 21
272.3582868913001
  0
LINE
  8
1
  6
CONTINUOUS
 62
     7
 10
2208.4686065091
 20
243.081014164
 11
2219.4686065091
 21
243.081014164
  0
LINE
  8
1
  6
CONTINUOUS
 62
     7
 10
2222.4686065091
 20
240.8476808307
 11
2222.4686065091
 21
285.0476808307
  0
LINE
  8
1
  6
CONTINUOUS
 62
     7
 10
2208.4686065091
 20
271.3431353762
 11
2219.4686065091
 21
271.3431353762
  0
LINE
  8
1
  6
CONTINUOUS
 62
     7
 10
2208.4686065091
 20
278.2461656792
 11
2219.4686065091
 21
278.2461656792
  0
LINE
  8
1
  6
CONTINUOUS
 62
     7
 10
2208.4686065091
 20
250.8976808307
 11
2219.4686065091
 21
250.8976808307
  0
LINE
  8
1
  6
CONTINUOUS
 62
     7
 10
2208.4686065091
 20
275.8098020428
 11
2219.4686065091
 21
275.8098020428
  0
LINE
  8
1
  6
CONTINUOUS
 62
     7
 10
2208.4686065091
 20
277.4340444671
 11
2219.4686065091
 21
277.4340444671
  0
ARC
  8
1
  6
CONTINUOUS
 62
     7
 10
2241.9685824264
 20
242.4476808307
 40
1.5
 50
270.0
 51
0.0
  0
LINE
  8
1
  6
CONTINUOUS
 62
     7
 10
2241.9685824264
 20
284.9476808307
 11
2222.4686065091
 21
284.9476808307
  0
LINE
  8
1
  6
CONTINUOUS
 62
     7
 10
2208.4686065091
 20
280.9870747701
 11
2219.4686065091
 21
280.9870747701
  0
LINE
  8
1
  6
CONTINUOUS
 62
     7
 10
2208.4686065091
 20
281.5961656792001
 11
2219.4686065091
 21
281.5961656792001
  0
LINE
  8
1
  6
CONTINUOUS
 62
     7
 10
2243.4685824264
 20
242.4476808307
 11
2243.4685824264
 21
283.4476808307
  0
LINE
  8
1
  6
CONTINUOUS
 62
     7
 10
2208.4686065091
 20
240.9476808307001
 11
2222.4686065091
 21
240.9476808307001
  0
LINE
  8
1
  6
CONTINUOUS
 62
     7
 10
2222.4686065091
 20
284.9476808307001
 11
2208.4686065091
 21
284.9476808307001
  0
LINE
  8
1
  6
CONTINUOUS
 62
     7
 10
2219.4686065091
 20
284.9476808307001
 11
2219.4686065091
 21
240.9476808307001
  0
LINE
  8
1
  6
CONTINUOUS
 62
     7
 10
2208.4686065091
 20
284.9476808307001
 11
2208.4686065091
 21
240.9476808307001
  0
LINE
  8
1
  6
CONTINUOUS
 62
     7
 10
2208.4686065091
 20
282.2052565883
 11
2219.4686065091
 21
282.2052565883
  0
LINE
  8
1
  6
CONTINUOUS
 62
     7
 10
2208.4686065091
 20
283.4234384065
 11
2219.4686065091
 21
283.4234384065
  0
LINE
  8
1
  6
CONTINUOUS
 62
     7
 10
2208.4686065091
 20
282.8143474974
 11
2219.4686065091
 21
282.8143474974
  0
LINE
  8
1
  6
CONTINUOUS
 62
     7
 10
2208.4686065091
 20
284.0325293156
 11
2219.4686065091
 21
284.0325293156
  0
LINE
  8
1
  6
CONTINUOUS
 62
     7
 10
2208.4686065091
 20
262.4885899216
 11
2219.4686065091
 21
262.4885899216
  0
LINE
  8
1
  6
CONTINUOUS
 62
     7
 10
2208.4686065091
 20
284.9476808307001
 11
2190.308328902374
 21
281.9988727411131
  0
ARC
  8
1
  6
CONTINUOUS
 62
     7
 10
2190.4686065091
 20
281.0118007636048
 40
0.9999999999998899
 50
99.2230098697463
 51
180.0
  0
LINE
  8
1
  6
CONTINUOUS
 62
     7
 10
2189.4686065091
 20
281.0118007636048
 11
2189.4686065091
 21
244.8835608977955
  0
ARC
  8
1
  6
CONTINUOUS
 62
     7
 10
2190.4686065091
 20
244.8835608977954
 40
0.9999999999998899
 50
180.0
 51
260.7769901302538
  0
LINE
  8
1
  6
CONTINUOUS
 62
     7
 10
2190.308328902374
 20
243.896488920287
 11
2208.4686065091
 21
240.9476808307001
  0
LINE
  8
1
  6
CONTINUOUS
 62
     7
 10
2219.4686065091
 20
259.5885899216
 11
2208.4686065091
 21
259.5885899216
  0
LINE
  8
1
  6
CONTINUOUS
 62
     7
 10
2222.4686065091
 20
284.9476808307001
 11
2222.4686065091
 21
240.9476808307001
  0
CIRCLE
  8
1
  6
CONTINUOUS
 62
     7
 10
2154.6263280421
 20
262.9476808307
 40
10.5857739986
  0
CIRCLE
  8
1
  6
CONTINUOUS
 62
     7
 10
2154.6263280421
 20
262.9476808307
 40
12.4820508076
  0
CIRCLE
  8
1
  6
CONTINUOUS
 62
     7
 10
2154.6263280421
 20
262.9476808307
 40
11.5
  0
CIRCLE
  8
1
  6
CONTINUOUS
 62
     7
 10
2154.6263280421
 20
262.9476808307
 40
22.1
  0
CIRCLE
  8
1
  6
CONTINUOUS
 62
     7
 10
2154.6263280421
 20
262.9476808307
 40
15.75
  0
ENDSEC
  0
EOF
