  0
SECTION
  2
HEADER
  9
$ACADVER
  1
AC1004
  9
$INSBASE
 10
0.0
 20
0.0
  9
$EXTMIN
 10
-125.3831998316
 20
-45.50000000000001
  9
$EXTMAX
 10
14.62403592570001
 20
-5.500000000000004
  9
$LIMMIN
 10
0.0
 20
0.0
  9
$LIMMAX
 10
12.0
 20
9.0
  9
$ORTHOMODE
 70
     0
  9
$REGENMODE
 70
     1
  9
$FILLMODE
 70
     1
  9
$QTEXTMODE
 70
     0
  9
$DRAGMODE
 70
     2
  9
$LTSCALE
 40
1.0
  9
$OSMODE
 70
    37
  9
$ATTMODE
 70
     1
  9
$TEXTSIZE
 40
0.2
  9
$TRACEWID
 40
0.05
  9
$TEXTSTYLE
  7
STANDARD
  9
$CLAYER
  8
0
  9
$CELTYPE
  6
BYLAYER
  9
$CECOLOR
 62
   256
  9
$DIMSCALE
 40
1.0
  9
$DIMASZ
 40
1.5
  9
$DIMEXO
 40
0.0625
  9
$DIMDLI
 40
0.38
  9
$DIMRND
 40
0.0
  9
$DIMDLE
 40
0.0
  9
$DIMEXE
 40
0.75
  9
$DIMTP
 40
0.0
  9
$DIMTM
 40
0.0
  9
$DIMTXT
 40
3.5
  9
$DIMCEN
 40
0.09
  9
$DIMTSZ
 40
0.0
  9
$DIMTOL
 70
     0
  9
$DIMLIM
 70
     0
  9
$DIMTIH
 70
     1
  9
$DIMTOH
 70
     1
  9
$DIMSE1
 70
     0
  9
$DIMSE2
 70
     0
  9
$DIMTAD
 70
     1
  9
$DIMZIN
 70
     0
  9
$DIMBLK
  1

  9
$DIMASO
 70
     1
  9
$DIMSHO
 70
     1
  9
$DIMPOST
  1

  9
$DIMAPOST
  1

  9
$DIMALT
 70
     0
  9
$DIMALTD
 70
     2
  9
$DIMALTF
 40
25.4
  9
$DIMLFAC
 40
1.0
  9
$DIMTOFL
 70
     0
  9
$DIMTVP
 40
0.0
  9
$DIMTIX
 70
     0
  9
$DIMSOXD
 70
     0
  9
$DIMSAH
 70
     0
  9
$DIMBLK1
  1

  9
$DIMBLK2
  1

  9
$LUNITS
 70
     2
  9
$LUPREC
 70
     4
  9
$SKETCHINC
 40
0.1
  9
$FILLETRAD
 40
0.5
  9
$AUNITS
 70
     0
  9
$AUPREC
 70
     0
  9
$MENU
  1
.
  9
$ELEVATION
 40
0.0
  9
$THICKNESS
 40
0.0
  9
$LIMCHECK
 70
     0
  9
$CHAMFERA
 40
0.0
  9
$CHAMFERB
 40
0.0
  9
$SKPOLY
 70
     0
  9
$TDCREATE
 40
2460263.601809757
  9
$TDUPDATE
 40
2460263.601809861
  9
$TDINDWG
 40
0.0000000116
  9
$TDUSRTIMER
 40
0.0000000116
  9
$USRTIMER
 70
     1
  9
$ANGBASE
 50
0.0
  9
$ANGDIR
 70
     0
  9
$PDMODE
 70
     0
  9
$PDSIZE
 40
0.0
  9
$PLINEWID
 40
0.0
  9
$COORDS
 70
     1
  9
$SPLFRAME
 70
     0
  9
$SPLINETYPE
 70
     6
  9
$SPLINESEGS
 70
     8
  9
$ATTDIA
 70
     0
  9
$ATTREQ
 70
     1
  9
$SURFTAB1
 70
     6
  9
$SURFTAB2
 70
     6
  9
$SURFTYPE
 70
     6
  9
$SURFU
 70
     6
  9
$SURFV
 70
     6
  9
$UCSNAME
  2

  9
$UCSORG
 10
0.0
 20
0.0
 30
0.0
  9
$UCSXDIR
 10
1.0
 20
0.0
 30
0.0
  9
$UCSYDIR
 10
0.0
 20
1.0
 30
0.0
  9
$USERI1
 70
     0
  9
$USERI2
 70
     0
  9
$USERI3
 70
     0
  9
$USERI4
 70
     0
  9
$USERI5
 70
     0
  9
$USERR1
 40
0.0
  9
$USERR2
 40
0.0
  9
$USERR3
 40
0.0
  9
$USERR4
 40
0.0
  9
$USERR5
 40
0.0
  9
$WORLDVIEW
 70
     1
  0
ENDSEC
  0
SECTION
  2
TABLES
  0
TABLE
  2
LTYPE
 70
     2
  0
LTYPE
  2
CONTINUOUS
 70
     0
  3
Solid line
 72
    65
 73
     0
 40
0.0
  0
LTYPE
  2
CENTER
 70
     0
  3

 72
    65
 73
     0
 40
0.0
  0
ENDTAB
  0
TABLE
  2
LAYER
 70
     2
  0
LAYER
  2
0
 70
     0
 62
     7
  6
CONTINUOUS
  0
LAYER
  2
1
 70
     0
 62
     7
  6
CONTINUOUS
  0
ENDTAB
  0
TABLE
  2
STYLE
 70
     2
  0
STYLE
  2
STANDARD
 70
     0
 40
0.0
 41
1.0
 50
0.0
 71
     0
 42
0.2
  3
txt
  4

  0
STYLE
  2
ＭＳ_ゴシック
 70
     0
 40
0.0
 41
1.0
 50
0.0
 71
     0
 42
0.2
  3
ＭＳ ゴシック.shx
  4

  0
ENDTAB
  0
TABLE
  2
VIEW
 70
     0
  0
ENDTAB
  0
ENDSEC
  0
SECTION
  2
BLOCKS
  0
ENDSEC
  0
SECTION
  2
ENTITIES
  0
ARC
  8
0
  6
CONTINUOUS
 62
     7
 10
-77.88319983160004
 20
-38.59114479270476
 40
0.5000000000000004
 50
270.0
 51
0.0
  0
ARC
  8
0
  6
CONTINUOUS
 62
     7
 10
-73.3831998316
 20
-37.5
 40
1.000000000000001
 50
270.0
 51
0.0
  0
ARC
  8
0
  6
CONTINUOUS
 62
     7
 10
-120.8831998316
 20
-37.1688953892
 40
0.5000000000000004
 50
180.0
 51
254.9999999999997
  0
ARC
  8
0
  6
CONTINUOUS
 62
     7
 10
-78.81745794848078
 20
-30.4251799717438
 40
1.434731910245343
 50
358.5274885154157
 51
32.49510837536212
  0
ARC
  8
0
  6
CONTINUOUS
 62
     7
 10
-120.8831998316
 20
-13.8311046107
 40
0.5000000000000022
 50
105.0000000000003
 51
180.0
  0
ARC
  8
0
  6
CONTINUOUS
 62
     7
 10
-85.3831998316
 20
-10.90885520729529
 40
1.000000000000001
 50
180.0
 51
270.0
  0
ARC
  8
0
  6
CONTINUOUS
 62
     7
 10
-71.3831998316
 20
-37.5
 40
1.000000000000001
 50
90.0
 51
180.0
  0
ARC
  8
0
  6
CONTINUOUS
 62
     7
 10
-77.88319983160004
 20
-12.40885520729529
 40
0.500000000000056
 50
0.0
 51
90.0
  0
ARC
  8
0
  6
CONTINUOUS
 62
     7
 10
-78.96694879757888
 20
-30.45325368220109
 40
1.583773386834467
 50
359.6818205657367
 51
26.3087713096578
  0
ARC
  8
0
  6
CONTINUOUS
 62
     7
 10
-78.81745794848078
 20
-20.5748200282562
 40
1.43473191024531
 50
327.504891624638
 51
1.472511484584345
  0
ARC
  8
0
  6
CONTINUOUS
 62
     7
 10
-85.3831998316
 20
-40.09114479270477
 40
1.000000000000001
 50
90.0
 51
180.0
  0
ARC
  8
0
  6
CONTINUOUS
 62
     7
 10
-73.3831998316
 20
-13.5
 40
1.000000000000001
 50
0.0
 51
90.0
  0
ARC
  8
0
  6
CONTINUOUS
 62
     7
 10
-71.3831998316
 20
-13.5
 40
1.000000000000001
 50
180.0
 51
270.0
  0
ARC
  8
0
  6
CONTINUOUS
 62
     7
 10
-85.3831998316
 20
-40.09114479270471
 40
1.000000000000001
 50
90.0
 51
180.0
  0
ARC
  8
0
  6
CONTINUOUS
 62
     7
 10
-77.88319983160004
 20
-38.59114479270471
 40
0.500000000000056
 50
270.0
 51
0.0
  0
ARC
  8
0
  6
CONTINUOUS
 62
     7
 10
-78.96694879757888
 20
-20.54674631779891
 40
1.583773386834517
 50
333.6912286903421
 51
0.3181794342632998
  0
CIRCLE
  8
0
  6
CONTINUOUS
 62
     7
 10
-5.375964074300008
 20
-25.49999999999999
 40
10.18473372079998
  0
CIRCLE
  8
0
  6
CONTINUOUS
 62
     7
 10
-5.375964074300008
 20
-25.49999999999999
 40
8.80000000000003
  0
LINE
  8
0
  6
CONTINUOUS
 62
     7
 10
-77.45048123780036
 20
-19.48369968097042
 11
-77.47285199550154
 21
-19.44589671558401
  0
LINE
  8
0
  6
CONTINUOUS
 62
     7
 10
-77.69538797483328
 20
-19.25383429437794
 11
-77.71573889749668
 21
-19.24545794085184
  0
LINE
  8
0
  6
CONTINUOUS
 62
     7
 10
-77.4016403355617
 20
-19.60813813646454
 11
-77.41571073704164
 21
-19.56235072776628
  0
LINE
  8
0
  6
CONTINUOUS
 62
     7
 10
-77.60808831280892
 20
-19.3035953725155
 11
-77.6237217576626
 21
-19.29287128203459
  0
LINE
  8
0
  6
CONTINUOUS
 62
     7
 10
-77.38528280307374
 20
-19.70302028944263
 11
-77.39146366431666
 21
-19.65507031616115
  0
LINE
  8
0
  6
CONTINUOUS
 62
     7
 10
-77.43360945088524
 20
-13.07764969030104
 11
-77.4187104632353
 21
-13.02166999787963
  0
LINE
  8
0
  6
CONTINUOUS
 62
     7
 10
-77.49876709896083
 20
-19.40928373072654
 11
-77.51699286387155
 21
-19.38689112285472
  0
LINE
  8
0
  6
CONTINUOUS
 62
     7
 10
-77.55860797437937
 20
-19.34376467872673
 11
-77.58229145607838
 21
-19.32325447519934
  0
LINE
  8
0
  6
CONTINUOUS
 62
     7
 10
-77.4187104632353
 20
-13.02166999787963
 11
-77.40333802950046
 21
-12.94966765936043
  0
LINE
  8
0
  6
CONTINUOUS
 62
     7
 10
-85.3831998316
 20
-13.58830225818301
 11
-77.88319983159992
 21
-13.58830225818292
  0
LINE
  8
0
  6
CONTINUOUS
 62
     7
 10
-77.51699286387155
 20
-19.38689112285472
 11
-77.53689079966071
 21
-19.36501416673334
  0
LINE
  8
0
  6
CONTINUOUS
 62
     7
 10
-77.41571073704164
 20
-19.56235072776628
 11
-77.43148932019967
 21
-19.52256142049484
  0
LINE
  8
0
  6
CONTINUOUS
 62
     7
 10
-77.3854737352791
 20
-12.80575111479257
 11
-77.38319983159998
 21
-12.73446440827173
  0
LINE
  8
0
  6
CONTINUOUS
 62
     7
 10
-77.71573889749668
 20
-19.24545794085184
 11
-77.73712407108098
 21
-19.23780196460942
  0
LINE
  8
0
  6
CONTINUOUS
 62
     7
 10
-77.73712407108098
 20
-19.23780196460942
 11
-77.7494770784773
 21
-19.23389562249154
  0
LINE
  8
0
  6
CONTINUOUS
 62
     7
 10
-77.53714282649322
 20
-13.32536336151944
 11
-77.52177656036004
 21
-13.29744617268159
  0
LINE
  8
0
  6
CONTINUOUS
 62
     7
 10
-77.7494770784773
 20
-19.23389562249154
 11
-77.76221185440254
 21
-19.23025746984056
  0
LINE
  8
0
  6
CONTINUOUS
 62
     7
 10
-77.76221185440254
 20
-19.23025746984056
 11
-77.77529687939973
 21
-19.2269174419254
  0
LINE
  8
0
  6
CONTINUOUS
 62
     7
 10
-77.45120570995685
 20
-13.13347203150126
 11
-77.43360945088524
 21
-13.07764969030104
  0
LINE
  8
0
  6
CONTINUOUS
 62
     7
 10
-77.47285199550154
 20
-19.44589671558401
 11
-77.49876709896083
 21
-19.40928373072654
  0
LINE
  8
0
  6
CONTINUOUS
 62
     7
 10
-77.52177656036004
 20
-13.29744617268159
 11
-77.49512942022837
 21
-13.24362515020084
  0
LINE
  8
0
  6
CONTINUOUS
 62
     7
 10
-77.55358699598465
 20
-13.35304111226199
 11
-77.53714282649322
 21
-13.32536336151944
  0
LINE
  8
0
  6
CONTINUOUS
 62
     7
 10
-77.43148932019967
 20
-19.52256142049484
 11
-77.45048123780036
 21
-19.48369968097042
  0
LINE
  8
0
  6
CONTINUOUS
 62
     7
 10
-77.39146366431666
 20
-19.65507031616115
 11
-77.4016403355617
 21
-19.60813813646454
  0
LINE
  8
0
  6
CONTINUOUS
 62
     7
 10
-77.38319983159998
 20
-19.75186107889538
 11
-77.38528280307374
 21
-19.70302028944263
  0
LINE
  8
0
  6
CONTINUOUS
 62
     7
 10
-77.53689079966071
 20
-19.36501416673334
 11
-77.55860797437937
 21
-19.34376467872673
  0
LINE
  8
0
  6
CONTINUOUS
 62
     7
 10
-77.49512942022837
 20
-13.24362515020084
 11
-77.471659084916
 21
-13.18888214397097
  0
LINE
  8
0
  6
CONTINUOUS
 62
     7
 10
-77.6237217576626
 20
-19.29287128203459
 11
-77.64023819450556
 21
-19.28244951901612
  0
LINE
  8
0
  6
CONTINUOUS
 62
     7
 10
-77.40333802950046
 20
-12.94966765936043
 11
-77.39222279404707
 21
-12.87759011507678
  0
LINE
  8
0
  6
CONTINUOUS
 62
     7
 10
-77.64023819450556
 20
-19.28244951901612
 11
-77.65766787512403
 21
-19.27241369342437
  0
LINE
  8
0
  6
CONTINUOUS
 62
     7
 10
-77.65766787512403
 20
-19.27241369342437
 11
-77.67604105130451
 21
-19.26284741522356
  0
LINE
  8
0
  6
CONTINUOUS
 62
     7
 10
-77.67604105130451
 20
-19.26284741522356
 11
-77.69538797483328
 21
-19.25383429437794
  0
LINE
  8
0
  6
CONTINUOUS
 62
     7
 10
-77.39222279404707
 20
-12.87759011507678
 11
-77.3854737352791
 21
-12.80575111479257
  0
LINE
  8
0
  6
CONTINUOUS
 62
     7
 10
-77.58229145607838
 20
-19.32325447519934
 11
-77.60808831280892
 21
-19.3035953725155
  0
LINE
  8
0
  6
CONTINUOUS
 62
     7
 10
-77.471659084916
 20
-13.18888214397097
 11
-77.45120570995685
 21
-13.13347203150126
  0
CIRCLE
  8
0
  6
CONTINUOUS
 62
     7
 10
-5.375964074300008
 20
-25.49999999999999
 40
13.00000000000001
  0
LINE
  8
0
  6
CONTINUOUS
 62
     7
 10
-101.3831998316
 20
-26.5
 11
-110.3831998316
 21
-26.5
  0
LINE
  8
0
  6
CONTINUOUS
 62
     7
 10
-91.3831998316
 20
-10.5
 11
-91.3831998316
 21
-40.5
  0
LINE
  8
0
  6
CONTINUOUS
 62
     7
 10
-89.3831998316
 20
-31.7132034356
 11
-86.3831998316
 21
-31.7132034356
  0
LINE
  8
0
  6
CONTINUOUS
 62
     7
 10
-99.3831998316
 20
-18.9616515847
 11
-92.8831998316
 21
-18.9616515847
  0
LINE
  8
0
  6
CONTINUOUS
 62
     7
 10
-99.3831998316
 20
-40.5
 11
-99.3831998316
 21
-10.5
  0
LINE
  8
0
  6
CONTINUOUS
 62
     7
 10
-77.38319983159998
 20
-38.5
 11
-73.3831998316
 21
-38.5
  0
LINE
  8
0
  6
CONTINUOUS
 62
     7
 10
-121.3831998316
 20
-37.1688953892
 11
-121.3831998316
 21
-13.8311046107
  0
LINE
  8
0
  6
CONTINUOUS
 62
     7
 10
-71.3831998316
 20
-36.5
 11
-46.3831998316
 21
-36.5
  0
LINE
  8
0
  6
CONTINUOUS
 62
     7
 10
-86.3831998316
 20
-40.5
 11
-86.3831998316
 21
-10.5
  0
LINE
  8
0
  6
CONTINUOUS
 62
     7
 10
-72.3831998316
 20
-37.5
 11
-72.3831998316
 21
-13.5
  0
LINE
  8
0
  6
CONTINUOUS
 62
     7
 10
-89.3831998316
 20
-10.5
 11
-89.3831998316
 21
-40.5
  0
LINE
  8
0
  6
CONTINUOUS
 62
     7
 10
-99.3831998316
 20
-32.0383484153
 11
-92.8831998316
 21
-32.0383484153
  0
LINE
  8
0
  6
CONTINUOUS
 62
     7
 10
-110.3831998316
 20
-10.5
 11
-110.3831998316
 21
-40.5
  0
LINE
  8
0
  6
CONTINUOUS
 62
     7
 10
-121.0126093542
 20
-37.6518583024
 11
-110.3831998316
 21
-40.5
  0
LINE
  8
0
  6
CONTINUOUS
 62
     7
 10
-92.8831998316
 20
-32.0383484153
 11
-92.8831998316
 21
-18.9616515847
  0
LINE
  8
0
  6
CONTINUOUS
 62
     7
 10
-110.3831998316
 20
-19.5
 11
-101.3831998316
 21
-19.5
  0
LINE
  8
0
  6
CONTINUOUS
 62
     7
 10
-101.3831998316
 20
-17.4
 11
-110.3831998316
 21
-17.4
  0
LINE
  8
0
  6
CONTINUOUS
 62
     7
 10
-101.3831998316
 20
-14.7
 11
-110.3831998316
 21
-14.7
  0
LINE
  8
0
  6
CONTINUOUS
 62
     7
 10
-101.3831998316
 20
-22.5
 11
-110.3831998316
 21
-22.5
  0
LINE
  8
0
  6
CONTINUOUS
 62
     7
 10
-101.3831998316
 20
-20.5
 11
-110.3831998316
 21
-20.5
  0
LINE
  8
0
  6
CONTINUOUS
 62
     7
 10
-110.3831998316
 20
-18.1
 11
-101.3831998316
 21
-18.1
  0
LINE
  8
0
  6
CONTINUOUS
 62
     7
 10
-110.3831998316
 20
-39.6
 11
-101.3831998316
 21
-39.6
  0
LINE
  8
0
  6
CONTINUOUS
 62
     7
 10
-101.3831998316
 20
-24.5
 11
-110.3831998316
 21
-24.5
  0
LINE
  8
0
  6
CONTINUOUS
 62
     7
 10
-121.0126093542
 20
-13.3481416976
 11
-110.3831998316
 21
-10.5
  0
LINE
  8
0
  6
CONTINUOUS
 62
     7
 10
-110.3831998316
 20
-23.5
 11
-101.3831998316
 21
-23.5
  0
LINE
  8
0
  6
CONTINUOUS
 62
     7
 10
-110.3831998316
 20
-40.1
 11
-101.3831998316
 21
-40.1
  0
LINE
  8
0
  6
CONTINUOUS
 62
     7
 10
-110.3831998316
 20
-21.5
 11
-101.3831998316
 21
-21.5
  0
LINE
  8
0
  6
CONTINUOUS
 62
     7
 10
-101.3831998316
 20
-18.8
 11
-110.3831998316
 21
-18.8
  0
LINE
  8
0
  6
CONTINUOUS
 62
     7
 10
-110.3831998316
 20
-16.7
 11
-101.3831998316
 21
-16.7
  0
LINE
  8
0
  6
CONTINUOUS
 62
     7
 10
-101.3831998316
 20
-16.0
 11
-110.3831998316
 21
-16.0
  0
LINE
  8
0
  6
CONTINUOUS
 62
     7
 10
-101.3831998316
 20
-10.5
 11
-101.3831998316
 21
-40.5
  0
LINE
  8
0
  6
CONTINUOUS
 62
     7
 10
-110.3831998316
 20
-15.3
 11
-101.3831998316
 21
-15.3
  0
POLYLINE
  8
1
  6
CONTINUOUS
 62
     7
 66
     1
  0
VERTEX
  8
1
  6
CONTINUOUS
 62
     7
 10
-85.3831998316
 20
-37.41169774181705
  0
VERTEX
  8
1
  6
CONTINUOUS
 62
     7
 10
-85.57829015361605
 20
-37.41253587611426
  0
VERTEX
  8
1
  6
CONTINUOUS
 62
     7
 10
-85.76588326396494
 20
-37.41501806997487
  0
VERTEX
  8
1
  6
CONTINUOUS
 62
     7
 10
-85.9387700646194
 20
-37.41904893408086
  0
VERTEX
  8
1
  6
CONTINUOUS
 62
     7
 10
-86.09030661278632
 20
-37.42447356458515
  0
VERTEX
  8
1
  6
CONTINUOUS
 62
     7
 10
-86.21466944390232
 20
-37.43108349597964
  0
VERTEX
  8
1
  6
CONTINUOUS
 62
     7
 10
-86.3070793641111
 20
-37.43862471230774
  0
VERTEX
  8
1
  6
CONTINUOUS
 62
     7
 10
-86.36398511200312
 20
-37.44680740885511
  0
VERTEX
  8
1
  6
CONTINUOUS
 62
     7
 10
-86.3831998316
 20
-37.45531712918235
  0
SEQEND
  8
1
  6
CONTINUOUS
 62
     7
  0
POLYLINE
  8
1
  6
CONTINUOUS
 62
     7
 66
     1
  0
VERTEX
  8
1
  6
CONTINUOUS
 62
     7
 10
-86.3831998316
 20
-18.21505714911365
  0
VERTEX
  8
1
  6
CONTINUOUS
 62
     7
 10
-86.36398511200325
 20
-18.4099617883717
  0
VERTEX
  8
1
  6
CONTINUOUS
 62
     7
 10
-86.30707936411132
 20
-18.59737635164685
  0
VERTEX
  8
1
  6
CONTINUOUS
 62
     7
 10
-86.2146694439026
 20
-18.77009860237573
  0
VERTEX
  8
1
  6
CONTINUOUS
 62
     7
 10
-86.0903066127866
 20
-18.92149092132658
  0
VERTEX
  8
1
  6
CONTINUOUS
 62
     7
 10
-85.93877006461966
 20
-19.04573538658391
  0
VERTEX
  8
1
  6
CONTINUOUS
 62
     7
 10
-85.76588326396516
 20
-19.13805735302499
  0
VERTEX
  8
1
  6
CONTINUOUS
 62
     7
 10
-85.57829015361621
 20
-19.19490893925424
  0
VERTEX
  8
1
  6
CONTINUOUS
 62
     7
 10
-85.38319983160008
 20
-19.2141053706956
  0
SEQEND
  8
1
  6
CONTINUOUS
 62
     7
  0
POLYLINE
  8
1
  6
CONTINUOUS
 62
     7
 66
     1
  0
VERTEX
  8
1
  6
CONTINUOUS
 62
     7
 10
-85.3831998316
 20
-37.41169774181705
  0
VERTEX
  8
1
  6
CONTINUOUS
 62
     7
 10
-85.57829015361605
 20
-37.41253587611426
  0
VERTEX
  8
1
  6
CONTINUOUS
 62
     7
 10
-85.76588326396494
 20
-37.41501806997487
  0
VERTEX
  8
1
  6
CONTINUOUS
 62
     7
 10
-85.9387700646194
 20
-37.41904893408086
  0
VERTEX
  8
1
  6
CONTINUOUS
 62
     7
 10
-86.09030661278632
 20
-37.42447356458515
  0
VERTEX
  8
1
  6
CONTINUOUS
 62
     7
 10
-86.21466944390232
 20
-37.43108349597964
  0
VERTEX
  8
1
  6
CONTINUOUS
 62
     7
 10
-86.3070793641111
 20
-37.43862471230774
  0
VERTEX
  8
1
  6
CONTINUOUS
 62
     7
 10
-86.36398511200312
 20
-37.44680740885511
  0
VERTEX
  8
1
  6
CONTINUOUS
 62
     7
 10
-86.3831998316
 20
-37.45531712918235
  0
SEQEND
  8
1
  6
CONTINUOUS
 62
     7
  0
POLYLINE
  8
1
  6
CONTINUOUS
 62
     7
 66
     1
  0
VERTEX
  8
1
  6
CONTINUOUS
 62
     7
 10
-85.3831998316
 20
-31.78589462930443
  0
VERTEX
  8
1
  6
CONTINUOUS
 62
     7
 10
-85.57829015361612
 20
-31.80509106074578
  0
VERTEX
  8
1
  6
CONTINUOUS
 62
     7
 10
-85.76588326396508
 20
-31.86194264697501
  0
VERTEX
  8
1
  6
CONTINUOUS
 62
     7
 10
-85.9387700646196
 20
-31.95426461341608
  0
VERTEX
  8
1
  6
CONTINUOUS
 62
     7
 10
-86.09030661278655
 20
-32.0785090786734
  0
VERTEX
  8
1
  6
CONTINUOUS
 62
     7
 10
-86.21466944390254
 20
-32.22990139762424
  0
VERTEX
  8
1
  6
CONTINUOUS
 62
     7
 10
-86.30707936411129
 20
-32.40262364835311
  0
VERTEX
  8
1
  6
CONTINUOUS
 62
     7
 10
-86.36398511200322
 20
-32.59003821162825
  0
VERTEX
  8
1
  6
CONTINUOUS
 62
     7
 10
-86.3831998316
 20
-32.7849428508863
  0
SEQEND
  8
1
  6
CONTINUOUS
 62
     7
  0
POLYLINE
  8
1
  6
CONTINUOUS
 62
     7
 66
     1
  0
VERTEX
  8
1
  6
CONTINUOUS
 62
     7
 10
-86.3831998316
 20
-28.80245332286236
  0
VERTEX
  8
1
  6
CONTINUOUS
 62
     7
 10
-86.36398511200322
 20
-28.93425443401704
  0
VERTEX
  8
1
  6
CONTINUOUS
 62
     7
 10
-86.30707936411129
 20
-29.06099050238496
  0
VERTEX
  8
1
  6
CONTINUOUS
 62
     7
 10
-86.21466944390254
 20
-29.17779113193315
  0
VERTEX
  8
1
  6
CONTINUOUS
 62
     7
 10
-86.09030661278655
 20
-29.28016773997061
  0
VERTEX
  8
1
  6
CONTINUOUS
 62
     7
 10
-85.9387700646196
 20
-29.36418605086394
  0
VERTEX
  8
1
  6
CONTINUOUS
 62
     7
 10
-85.76588326396508
 20
-29.42661728804351
  0
VERTEX
  8
1
  6
CONTINUOUS
 62
     7
 10
-85.57829015361612
 20
-29.46506225407635
  0
VERTEX
  8
1
  6
CONTINUOUS
 62
     7
 10
-85.3831998316
 20
-29.47804353047801
  0
SEQEND
  8
1
  6
CONTINUOUS
 62
     7
  0
POLYLINE
  8
1
  6
CONTINUOUS
 62
     7
 66
     1
  0
VERTEX
  8
1
  6
CONTINUOUS
 62
     7
 10
-85.3831998316
 20
-37.41169774181705
  0
VERTEX
  8
1
  6
CONTINUOUS
 62
     7
 10
-85.57829015361605
 20
-37.41253587611426
  0
VERTEX
  8
1
  6
CONTINUOUS
 62
     7
 10
-85.76588326396494
 20
-37.41501806997487
  0
VERTEX
  8
1
  6
CONTINUOUS
 62
     7
 10
-85.9387700646194
 20
-37.41904893408086
  0
VERTEX
  8
1
  6
CONTINUOUS
 62
     7
 10
-86.09030661278632
 20
-37.42447356458515
  0
VERTEX
  8
1
  6
CONTINUOUS
 62
     7
 10
-86.21466944390232
 20
-37.43108349597964
  0
VERTEX
  8
1
  6
CONTINUOUS
 62
     7
 10
-86.3070793641111
 20
-37.43862471230774
  0
VERTEX
  8
1
  6
CONTINUOUS
 62
     7
 10
-86.36398511200312
 20
-37.44680740885511
  0
VERTEX
  8
1
  6
CONTINUOUS
 62
     7
 10
-86.3831998316
 20
-37.45531712918235
  0
SEQEND
  8
1
  6
CONTINUOUS
 62
     7
  0
POLYLINE
  8
1
  6
CONTINUOUS
 62
     7
 66
     1
  0
VERTEX
  8
1
  6
CONTINUOUS
 62
     7
 10
-86.3831998316
 20
-13.54468287081765
  0
VERTEX
  8
1
  6
CONTINUOUS
 62
     7
 10
-86.36398511200312
 20
-13.55319259114489
  0
VERTEX
  8
1
  6
CONTINUOUS
 62
     7
 10
-86.3070793641111
 20
-13.56137528769227
  0
VERTEX
  8
1
  6
CONTINUOUS
 62
     7
 10
-86.21466944390232
 20
-13.56891650402036
  0
VERTEX
  8
1
  6
CONTINUOUS
 62
     7
 10
-86.09030661278632
 20
-13.57552643541486
  0
VERTEX
  8
1
  6
CONTINUOUS
 62
     7
 10
-85.9387700646194
 20
-13.58095106591915
  0
VERTEX
  8
1
  6
CONTINUOUS
 62
     7
 10
-85.76588326396494
 20
-13.58498193002513
  0
VERTEX
  8
1
  6
CONTINUOUS
 62
     7
 10
-85.57829015361605
 20
-13.58746412388574
  0
VERTEX
  8
1
  6
CONTINUOUS
 62
     7
 10
-85.3831998316
 20
-13.58830225818295
  0
SEQEND
  8
1
  6
CONTINUOUS
 62
     7
  0
POLYLINE
  8
1
  6
CONTINUOUS
 62
     7
 66
     1
  0
VERTEX
  8
1
  6
CONTINUOUS
 62
     7
 10
-85.38319983159997
 20
-21.52195646952199
  0
VERTEX
  8
1
  6
CONTINUOUS
 62
     7
 10
-85.5782901536161
 20
-21.53493774592365
  0
VERTEX
  8
1
  6
CONTINUOUS
 62
     7
 10
-85.76588326396507
 20
-21.57338271195648
  0
VERTEX
  8
1
  6
CONTINUOUS
 62
     7
 10
-85.93877006461958
 20
-21.63581394913605
  0
VERTEX
  8
1
  6
CONTINUOUS
 62
     7
 10
-86.09030661278652
 20
-21.71983226002937
  0
VERTEX
  8
1
  6
CONTINUOUS
 62
     7
 10
-86.21466944390252
 20
-21.82220886806684
  0
VERTEX
  8
1
  6
CONTINUOUS
 62
     7
 10
-86.30707936411127
 20
-21.93900949761502
  0
VERTEX
  8
1
  6
CONTINUOUS
 62
     7
 10
-86.36398511200322
 20
-22.06574556598294
  0
VERTEX
  8
1
  6
CONTINUOUS
 62
     7
 10
-86.3831998316
 20
-22.19754667713762
  0
SEQEND
  8
1
  6
CONTINUOUS
 62
     7
  0
LINE
  8
0
  6
CONTINUOUS
 62
     7
 10
-101.3831998316
 20
-36.3
 11
-110.3831998316
 21
-36.3
  0
LINE
  8
0
  6
CONTINUOUS
 62
     7
 10
-101.3831998316
 20
-39.1
 11
-110.3831998316
 21
-39.1
  0
LINE
  8
0
  6
CONTINUOUS
 62
     7
 10
-101.3831998316
 20
-28.5
 11
-110.3831998316
 21
-28.5
  0
LINE
  8
0
  6
CONTINUOUS
 62
     7
 10
-110.3831998316
 20
-36.9
 11
-101.3831998316
 21
-36.9
  0
LINE
  8
0
  6
CONTINUOUS
 62
     7
 10
-101.3831998316
 20
-30.5
 11
-110.3831998316
 21
-30.5
  0
LINE
  8
0
  6
CONTINUOUS
 62
     7
 10
-110.3831998316
 20
-29.5
 11
-101.3831998316
 21
-29.5
  0
LINE
  8
0
  6
CONTINUOUS
 62
     7
 10
-110.3831998316
 20
-37.5
 11
-101.3831998316
 21
-37.5
  0
LINE
  8
0
  6
CONTINUOUS
 62
     7
 10
-101.3831998316
 20
-33.6
 11
-110.3831998316
 21
-33.6
  0
LINE
  8
0
  6
CONTINUOUS
 62
     7
 10
-110.3831998316
 20
-31.5
 11
-101.3831998316
 21
-31.5
  0
LINE
  8
0
  6
CONTINUOUS
 62
     7
 10
-110.3831998316
 20
-27.5
 11
-101.3831998316
 21
-27.5
  0
LINE
  8
0
  6
CONTINUOUS
 62
     7
 10
-101.3831998316
 20
-32.2
 11
-110.3831998316
 21
-32.2
  0
LINE
  8
0
  6
CONTINUOUS
 62
     7
 10
-101.3831998316
 20
-35.0
 11
-110.3831998316
 21
-35.0
  0
LINE
  8
0
  6
CONTINUOUS
 62
     7
 10
-110.3831998316
 20
-35.7
 11
-101.3831998316
 21
-35.7
  0
LINE
  8
0
  6
CONTINUOUS
 62
     7
 10
-110.3831998316
 20
-38.6
 11
-101.3831998316
 21
-38.6
  0
LINE
  8
0
  6
CONTINUOUS
 62
     7
 10
-101.3831998316
 20
-38.1
 11
-110.3831998316
 21
-38.1
  0
LINE
  8
0
  6
CONTINUOUS
 62
     7
 10
-110.3831998316
 20
-32.9
 11
-101.3831998316
 21
-32.9
  0
LINE
  8
0
  6
CONTINUOUS
 62
     7
 10
-110.3831998316
 20
-34.3
 11
-101.3831998316
 21
-34.3
  0
LINE
  8
0
  6
CONTINUOUS
 62
     7
 10
-110.3831998316
 20
-40.5
 11
-86.3831998316
 21
-40.5
  0
LINE
  8
0
  6
CONTINUOUS
 62
     7
 10
-86.3831998316
 20
-10.5
 11
-110.3831998316
 21
-10.5
  0
TEXT
  8
1
  6
CONTINUOUS
 62
     7
 10
-63.2380218874289
 20
-42.5679050909091
 40
3.5
  1
ＭＰＶＥ－１２
 41
0.609191
 51
15.0
  0
LINE
  8
0
  6
CONTINUOUS
 62
     7
 10
-77.88319983160004
 20
-13.58830225818301
 11
-77.87235997019732
 21
-13.58806548750275
  0
LINE
  8
0
  6
CONTINUOUS
 62
     7
 10
-101.3831998316
 20
-12.9
 11
-110.3831998316
 21
-12.9
  0
LINE
  8
0
  6
CONTINUOUS
 62
     7
 10
-77.87235997019732
 20
-13.58806548750275
 11
-77.8615229677237
 21
-13.5873632907301
  0
LINE
  8
0
  6
CONTINUOUS
 62
     7
 10
-110.3831998316
 20
-12.4
 11
-101.3831998316
 21
-12.4
  0
LINE
  8
0
  6
CONTINUOUS
 62
     7
 10
-77.8615229677237
 20
-13.5873632907301
 11
-77.85072331882344
 21
-13.58620784076703
  0
LINE
  8
0
  6
CONTINUOUS
 62
     7
 10
-77.85072331882344
 20
-13.58620784076703
 11
-77.83999551814043
 21
-13.58461131051564
  0
LINE
  8
0
  6
CONTINUOUS
 62
     7
 10
-77.83999551814043
 20
-13.58461131051564
 11
-77.82937406031904
 21
-13.58258587287798
  0
LINE
  8
0
  6
CONTINUOUS
 62
     7
 10
-101.3831998316
 20
-11.9
 11
-110.3831998316
 21
-11.9
  0
LINE
  8
0
  6
CONTINUOUS
 62
     7
 10
-110.3831998316
 20
-14.1
 11
-101.3831998316
 21
-14.1
  0
LINE
  8
0
  6
CONTINUOUS
 62
     7
 10
-110.3831998316
 20
-10.9
 11
-101.3831998316
 21
-10.9
  0
LINE
  8
0
  6
CONTINUOUS
 62
     7
 10
-110.3831998316
 20
-13.5
 11
-101.3831998316
 21
-13.5
  0
LINE
  8
0
  6
CONTINUOUS
 62
     7
 10
-71.3831998316
 20
-14.5
 11
-46.3831998316
 21
-14.5
  0
LINE
  8
0
  6
CONTINUOUS
 62
     7
 10
-89.3831998316
 20
-19.2867965644
 11
-86.3831998316
 21
-19.2867965644
  0
LINE
  8
0
  6
CONTINUOUS
 62
     7
 10
-77.88319983160004
 20
-11.90885520729529
 11
-85.3831998316
 21
-11.90885520729529
  0
LINE
  8
0
  6
CONTINUOUS
 62
     7
 10
-110.3831998316
 20
-11.4
 11
-101.3831998316
 21
-11.4
  0
LINE
  8
0
  6
CONTINUOUS
 62
     7
 10
-77.38319983159998
 20
-12.5
 11
-73.3831998316
 21
-12.5
  0
LINE
  8
0
  6
CONTINUOUS
 62
     7
 10
-77.38319983159998
 20
-12.40885520729532
 11
-77.38319983159998
 21
-12.73446440827176
  0
LINE
  8
0
  6
CONTINUOUS
 62
     7
 10
-77.83999551814043
 20
-31.78385448480262
 11
-77.82937406031904
 21
-31.78273384901398
  0
LINE
  8
0
  6
CONTINUOUS
 62
     7
 10
-77.82937406031904
 20
-31.78273384901398
 11
-77.81889344000321
 21
-31.78138190719696
  0
LINE
  8
0
  6
CONTINUOUS
 62
     7
 10
-77.80402131075299
 20
-31.77903369222555
 11
-77.78943060925243
 21
-31.77624082196707
  0
LINE
  8
0
  6
CONTINUOUS
 62
     7
 10
-85.3831998316
 20
-21.52195646952199
 11
-77.88319983159992
 21
-21.52195646952199
  0
LINE
  8
0
  6
CONTINUOUS
 62
     7
 10
-77.78943060925243
 20
-31.77624082196707
 11
-77.77515422057687
 21
-31.77303852966241
  0
LINE
  8
0
  6
CONTINUOUS
 62
     7
 10
-77.77515422057687
 20
-31.77303852966241
 11
-77.76122502980172
 21
-31.76946204855244
  0
LINE
  8
0
  6
CONTINUOUS
 62
     7
 10
-77.86064192836302
 20
-19.21466767456865
 11
-77.87191915078624
 21
-19.21424720115184
  0
LINE
  8
0
  6
CONTINUOUS
 62
     7
 10
-77.76122502980172
 20
-31.76946204855244
 11
-77.74767592200212
 21
-31.76554661187809
  0
LINE
  8
0
  6
CONTINUOUS
 62
     7
 10
-77.81889344000321
 20
-31.78138190719696
 11
-77.80402131075299
 21
-31.77903369222555
  0
LINE
  8
0
  6
CONTINUOUS
 62
     7
 10
-77.88319983160004
 20
-31.78589462930443
 11
-77.87235997019732
 21
-31.78576388681385
  0
LINE
  8
0
  6
CONTINUOUS
 62
     7
 10
-77.74767592200212
 20
-31.76554661187809
 11
-77.73453978225338
 21
-31.76132745288022
  0
LINE
  8
0
  6
CONTINUOUS
 62
     7
 10
-77.73453978225338
 20
-31.76132745288022
 11
-77.72184949563083
 21
-31.75683980479974
  0
LINE
  8
0
  6
CONTINUOUS
 62
     7
 10
-77.72184949563083
 20
-31.75683980479974
 11
-77.70731103174207
 21
-31.75118640421238
  0
LINE
  8
0
  6
CONTINUOUS
 62
     7
 10
-77.70731103174207
 20
-31.75118640421238
 11
-77.69329231949835
 21
-31.74520659195649
  0
LINE
  8
0
  6
CONTINUOUS
 62
     7
 10
-77.77529687939973
 20
-19.2269174419254
 11
-77.78870063401173
 21
-19.22390547401501
  0
LINE
  8
0
  6
CONTINUOUS
 62
     7
 10
-77.81633825425244
 20
-19.21898545928406
 11
-77.82721632727502
 21
-19.21752568330371
  0
LINE
  8
0
  6
CONTINUOUS
 62
     7
 10
-77.68989212599548
 20
-21.43862104493094
 11
-77.60735151883298
 21
-21.34559761174005
  0
LINE
  8
0
  6
CONTINUOUS
 62
     7
 10
-77.60808831280892
 20
-29.65339925238653
 11
-77.67895826491129
 21
-29.57144761865078
  0
LINE
  8
0
  6
CONTINUOUS
 62
     7
 10
-77.88319983160004
 20
-21.52195646952196
 11
-77.7810391594836
 21
-21.49922237979816
  0
LINE
  8
0
  6
CONTINUOUS
 62
     7
 10
-77.38319983159998
 20
-30.4620487720739
 11
-77.38319983159998
 21
-31.24813892110471
  0
LINE
  8
0
  6
CONTINUOUS
 62
     7
 10
-77.87191915078624
 20
-19.21424720115184
 11
-77.88319983160004
 21
-19.21410537069563
  0
LINE
  8
0
  6
CONTINUOUS
 62
     7
 10
-77.78870063401173
 20
-19.22390547401501
 11
-77.80239159878172
 21
-19.22125150137824
  0
LINE
  8
0
  6
CONTINUOUS
 62
     7
 10
-77.84940669591418
 20
-19.21535926401813
 11
-77.86064192836302
 21
-19.21466767456865
  0
LINE
  8
0
  6
CONTINUOUS
 62
     7
 10
-77.7810391594836
 20
-21.49922237979816
 11
-77.68989212599548
 21
-21.43862104493094
  0
LINE
  8
0
  6
CONTINUOUS
 62
     7
 10
-77.54722488985917
 20
-29.75131197045148
 11
-77.60808831280892
 21
-29.65339925238653
  0
LINE
  8
0
  6
CONTINUOUS
 62
     7
 10
-77.83825198502355
 20
-19.21631444257244
 11
-77.84940669591418
 21
-19.21535926401813
  0
LINE
  8
0
  6
CONTINUOUS
 62
     7
 10
-77.38319983159998
 20
-19.75186107889538
 11
-77.38319983159998
 21
-20.53795122792621
  0
LINE
  8
0
  6
CONTINUOUS
 62
     7
 10
-77.82721632727502
 20
-19.21752568330371
 11
-77.83825198502355
 21
-19.21631444257244
  0
LINE
  8
0
  6
CONTINUOUS
 62
     7
 10
-77.67895826491129
 20
-29.57144761865078
 11
-77.76193093995948
 21
-29.51018993180519
  0
LINE
  8
0
  6
CONTINUOUS
 62
     7
 10
-77.76193093995948
 20
-29.51018993180519
 11
-77.86037368951399
 21
-29.47917044722837
  0
LINE
  8
0
  6
CONTINUOUS
 62
     7
 10
-77.8615229677237
 20
-31.78537597062104
 11
-77.85072331882344
 21
-31.78473734764446
  0
LINE
  8
0
  6
CONTINUOUS
 62
     7
 10
-77.87235997019732
 20
-31.78576388681385
 11
-77.8615229677237
 21
-31.78537597062104
  0
LINE
  8
0
  6
CONTINUOUS
 62
     7
 10
-77.80239159878172
 20
-19.22125150137824
 11
-77.81633825425244
 21
-19.21898545928406
  0
LINE
  8
0
  6
CONTINUOUS
 62
     7
 10
-77.85072331882344
 20
-31.78473734764446
 11
-77.83999551814043
 21
-31.78385448480262
  0
LINE
  8
0
  6
CONTINUOUS
 62
     7
 10
-77.86037368951399
 20
-29.47917044722837
 11
-77.88319983160004
 21
-29.47804353047806
  0
LINE
  8
0
  6
CONTINUOUS
 62
     7
 10
-77.65503972279748
 20
-13.48171159268916
 11
-77.63189318123716
 21
-13.45785676178999
  0
LINE
  8
0
  6
CONTINUOUS
 62
     7
 10
-77.63189318123716
 20
-13.45785676178999
 11
-77.61026216146078
 21
-13.43288724967324
  0
LINE
  8
0
  6
CONTINUOUS
 62
     7
 10
-77.77515422057687
 20
-13.56510706210707
 11
-77.76122502980172
 21
-13.55867989285479
  0
LINE
  8
0
  6
CONTINUOUS
 62
     7
 10
-77.82937406031904
 20
-13.58258587287798
 11
-77.81889344000321
 21
-13.58014370075606
  0
LINE
  8
0
  6
CONTINUOUS
 62
     7
 10
-77.76122502980172
 20
-13.55867989285479
 11
-77.74767592200212
 21
-13.5516560786361
  0
LINE
  8
0
  6
CONTINUOUS
 62
     7
 10
-77.70731103174207
 20
-13.52600938391272
 11
-77.69329231949835
 21
-13.51538249346938
  0
LINE
  8
0
  6
CONTINUOUS
 62
     7
 10
-77.61026216146078
 20
-13.43288724967324
 11
-77.59005913978329
 21
-13.40697810496334
  0
LINE
  8
0
  6
CONTINUOUS
 62
     7
 10
-77.78943060925243
 20
-13.57087108646197
 11
-77.77515422057687
 21
-13.56510706210707
  0
LINE
  8
0
  6
CONTINUOUS
 62
     7
 10
-77.80402131075299
 20
-13.57590546598859
 11
-77.78943060925243
 21
-13.57087108646197
  0
LINE
  8
0
  6
CONTINUOUS
 62
     7
 10
-77.73453978225338
 20
-13.54410211938185
 11
-77.72184949563083
 21
-13.53608451502298
  0
LINE
  8
0
  6
CONTINUOUS
 62
     7
 10
-77.81889344000321
 20
-13.58014370075606
 11
-77.80402131075299
 21
-13.57590546598859
  0
LINE
  8
0
  6
CONTINUOUS
 62
     7
 10
-77.74767592200212
 20
-13.5516560786361
 11
-77.73453978225338
 21
-13.54410211938185
  0
LINE
  8
0
  6
CONTINUOUS
 62
     7
 10
-77.72184949563083
 20
-13.53608451502298
 11
-77.70731103174207
 21
-13.52600938391272
  0
LINE
  8
0
  6
CONTINUOUS
 62
     7
 10
-77.59005913978329
 20
-13.40697810496334
 11
-77.57119659251973
 21
-13.3803043762848
  0
LINE
  8
0
  6
CONTINUOUS
 62
     7
 10
-77.57119659251973
 20
-13.3803043762848
 11
-77.55358699598465
 21
-13.35304111226199
  0
LINE
  8
0
  6
CONTINUOUS
 62
     7
 10
-77.69329231949835
 20
-13.51538249346938
 11
-77.67978930982706
 21
-13.5042766937463
  0
LINE
  8
0
  6
CONTINUOUS
 62
     7
 10
-77.67978930982706
 20
-13.5042766937463
 11
-77.65503972279748
 21
-13.48171159268916
  0
LINE
  8
0
  6
CONTINUOUS
 62
     7
 10
-85.3831998316
 20
-31.78589462930443
 11
-77.88319983159992
 21
-31.78589462930443
  0
LINE
  8
0
  6
CONTINUOUS
 62
     7
 10
-77.85072331882344
 20
-37.41379215923297
 11
-77.83999551814043
 21
-37.41538868948436
  0
LINE
  8
0
  6
CONTINUOUS
 62
     7
 10
-77.83999551814043
 20
-37.41538868948436
 11
-77.82937406031904
 21
-37.41741412712202
  0
LINE
  8
0
  6
CONTINUOUS
 62
     7
 10
-77.45048123780036
 20
-37.86878531662472
 11
-77.47285199550154
 21
-37.80832027825274
  0
LINE
  8
0
  6
CONTINUOUS
 62
     7
 10
-77.76221185440254
 20
-37.44081697248512
 11
-77.77529687939973
 21
-37.43481413908123
  0
LINE
  8
0
  6
CONTINUOUS
 62
     7
 10
-77.82937406031904
 20
-37.41741412712202
 11
-77.81889344000321
 21
-37.41985629924394
  0
LINE
  8
0
  6
CONTINUOUS
 62
     7
 10
-77.55860797437937
 20
-37.63911277861585
 11
-77.58229145607838
 21
-37.60409580104424
  0
LINE
  8
0
  6
CONTINUOUS
 62
     7
 10
-77.69329231949835
 20
-31.74520659195649
 11
-77.67978930982706
 21
-31.73893873178105
  0
LINE
  8
0
  6
CONTINUOUS
 62
     7
 10
-77.73712407108098
 20
-37.45434076587851
 11
-77.7494770784773
 21
-37.44734467549338
  0
LINE
  8
0
  6
CONTINUOUS
 62
     7
 10
-77.39222279404707
 20
-31.34926985622039
 11
-77.3854737352791
 21
-31.29919196481338
  0
LINE
  8
0
  6
CONTINUOUS
 62
     7
 10
-77.4016403355617
 20
-38.05981136803477
 11
-77.41571073704164
 21
-37.99094727037903
  0
LINE
  8
0
  6
CONTINUOUS
 62
     7
 10
-77.82721632727502
 20
-37.41788312218154
 11
-77.83825198502355
 21
-37.41569416781521
  0
LINE
  8
0
  6
CONTINUOUS
 62
     7
 10
-77.81889344000321
 20
-37.41985629924394
 11
-77.80402131075299
 21
-37.42409453401142
  0
LINE
  8
0
  6
CONTINUOUS
 62
     7
 10
-77.7494770784773
 20
-37.44734467549338
 11
-77.76221185440254
 21
-37.44081697248512
  0
LINE
  8
0
  6
CONTINUOUS
 62
     7
 10
-77.80402131075299
 20
-37.42409453401142
 11
-77.78943060925243
 21
-37.42912891353804
  0
LINE
  8
0
  6
CONTINUOUS
 62
     7
 10
-85.3831998316
 20
-39.09114479270476
 11
-77.88319983160004
 21
-39.09114479270476
  0
LINE
  8
0
  6
CONTINUOUS
 62
     7
 10
-77.43148932019967
 20
-37.92975836083027
 11
-77.45048123780036
 21
-37.86878531662472
  0
LINE
  8
0
  6
CONTINUOUS
 62
     7
 10
-77.38319983159998
 20
-38.26553559172833
 11
-77.38528280307374
 21
-38.19737952930583
  0
LINE
  8
0
  6
CONTINUOUS
 62
     7
 10
-77.58229145607838
 20
-37.60409580104424
 11
-77.60808831280892
 21
-37.57019818015984
  0
LINE
  8
0
  6
CONTINUOUS
 62
     7
 10
-77.84940669591418
 20
-37.41396698413374
 11
-77.86064192836302
 21
-37.41271573959902
  0
LINE
  8
0
  6
CONTINUOUS
 62
     7
 10
-77.53689079966071
 20
-37.67502666634973
 11
-77.55860797437937
 21
-37.63911277861585
  0
LINE
  8
0
  6
CONTINUOUS
 62
     7
 10
-77.59005913978329
 20
-31.68316581053352
 11
-77.57119659251973
 21
-31.66761586138492
  0
LINE
  8
0
  6
CONTINUOUS
 62
     7
 10
-77.41571073704164
 20
-37.99094727037903
 11
-77.43148932019967
 21
-37.92975836083027
  0
LINE
  8
0
  6
CONTINUOUS
 62
     7
 10
-77.43360945088524
 20
-31.48220011992309
 11
-77.4187104632353
 21
-31.44592144472411
  0
LINE
  8
0
  6
CONTINUOUS
 62
     7
 10
-77.52177656036004
 20
-31.61855268925013
 11
-77.49512942022837
 21
-31.58601242482554
  0
LINE
  8
0
  6
CONTINUOUS
 62
     7
 10
-77.65766787512403
 20
-37.51573930345184
 11
-77.67604105130451
 21
-37.4988695212
  0
LINE
  8
0
  6
CONTINUOUS
 62
     7
 10
-77.67604105130451
 20
-37.4988695212
 11
-77.69538797483328
 21
-37.4829069298309
  0
LINE
  8
0
  6
CONTINUOUS
 62
     7
 10
-77.51699286387155
 20
-37.711615017721
 11
-77.53689079966071
 21
-37.67502666634973
  0
LINE
  8
0
  6
CONTINUOUS
 62
     7
 10
-77.40333802950046
 20
-31.39822791097439
 11
-77.39222279404707
 21
-31.34926985622039
  0
LINE
  8
0
  6
CONTINUOUS
 62
     7
 10
-77.64023819450556
 20
-37.53335691505203
 11
-77.65766787512403
 21
-37.51573930345184
  0
LINE
  8
0
  6
CONTINUOUS
 62
     7
 10
-77.471659084916
 20
-31.5523623890672
 11
-77.45120570995685
 21
-31.5177193610686
  0
LINE
  8
0
  6
CONTINUOUS
 62
     7
 10
-77.38319983159998
 20
-38.2655355917283
 11
-77.38319983159998
 21
-38.59114479270476
  0
LINE
  8
0
  6
CONTINUOUS
 62
     7
 10
-77.4187104632353
 20
-31.44592144472411
 11
-77.40333802950046
 21
-31.39822791097439
  0
LINE
  8
0
  6
CONTINUOUS
 62
     7
 10
-77.49876709896083
 20
-37.74865538620473
 11
-77.51699286387155
 21
-37.711615017721
  0
LINE
  8
0
  6
CONTINUOUS
 62
     7
 10
-77.60808831280892
 20
-37.57019818015984
 11
-77.6237217576626
 21
-37.55156299446617
  0
LINE
  8
0
  6
CONTINUOUS
 62
     7
 10
-77.71573889749668
 20
-37.46801089087893
 11
-77.73712407108098
 21
-37.45434076587851
  0
LINE
  8
0
  6
CONTINUOUS
 62
     7
 10
-77.77529687939973
 20
-37.43481413908123
 11
-77.78870063401173
 21
-37.42939265750925
  0
LINE
  8
0
  6
CONTINUOUS
 62
     7
 10
-77.83825198502355
 20
-37.41569416781521
 11
-77.84940669591418
 21
-37.41396698413374
  0
LINE
  8
0
  6
CONTINUOUS
 62
     7
 10
-77.87191915078624
 20
-37.41195460267286
 11
-77.88319983160004
 21
-37.41169774181705
  0
LINE
  8
0
  6
CONTINUOUS
 62
     7
 10
-77.69538797483328
 20
-37.4829069298309
 11
-77.71573889749668
 21
-37.46801089087893
  0
LINE
  8
0
  6
CONTINUOUS
 62
     7
 10
-77.49512942022837
 20
-31.58601242482554
 11
-77.471659084916
 21
-31.5523623890672
  0
LINE
  8
0
  6
CONTINUOUS
 62
     7
 10
-77.67978930982706
 20
-31.73893873178105
 11
-77.65503972279748
 21
-31.72613988283608
  0
LINE
  8
0
  6
CONTINUOUS
 62
     7
 10
-77.55358699598465
 20
-31.65160357476652
 11
-77.53714282649322
 21
-31.63521912571077
  0
LINE
  8
0
  6
CONTINUOUS
 62
     7
 10
-77.38528280307374
 20
-38.19737952930583
 11
-77.39146366431666
 21
-38.12871345454253
  0
LINE
  8
0
  6
CONTINUOUS
 62
     7
 10
-77.47285199550154
 20
-37.80832027825274
 11
-77.49876709896083
 21
-37.74865538620473
  0
LINE
  8
0
  6
CONTINUOUS
 62
     7
 10
-77.80239159878172
 20
-37.42460900999667
 11
-77.81633825425244
 21
-37.42051967877095
  0
LINE
  8
0
  6
CONTINUOUS
 62
     7
 10
-77.53714282649322
 20
-31.63521912571077
 11
-77.52177656036004
 21
-31.61855268925013
  0
LINE
  8
0
  6
CONTINUOUS
 62
     7
 10
-77.78870063401173
 20
-37.42939265750925
 11
-77.80239159878172
 21
-37.42460900999667
  0
LINE
  8
0
  6
CONTINUOUS
 62
     7
 10
-77.86064192836302
 20
-37.41271573959902
 11
-77.87191915078624
 21
-37.41195460267286
  0
LINE
  8
0
  6
CONTINUOUS
 62
     7
 10
-77.45120570995685
 20
-31.5177193610686
 11
-77.43360945088524
 21
-31.48220011992309
  0
LINE
  8
0
  6
CONTINUOUS
 62
     7
 10
-77.65503972279748
 20
-31.72613988283608
 11
-77.63189318123716
 21
-31.71251799629152
  0
LINE
  8
0
  6
CONTINUOUS
 62
     7
 10
-77.88319983160004
 20
-37.41169774181714
 11
-85.3831998316
 21
-37.41169774181702
  0
LINE
  8
0
  6
CONTINUOUS
 62
     7
 10
-77.88319983160004
 20
-39.09114479270471
 11
-85.3831998316
 21
-39.09114479270471
  0
LINE
  8
0
  6
CONTINUOUS
 62
     7
 10
-77.6237217576626
 20
-37.55156299446617
 11
-77.64023819450556
 21
-37.53335691505203
  0
LINE
  8
0
  6
CONTINUOUS
 62
     7
 10
-77.63189318123716
 20
-31.71251799629152
 11
-77.61026216146078
 21
-31.69816324717987
  0
LINE
  8
0
  6
CONTINUOUS
 62
     7
 10
-77.39146366431666
 20
-38.12871345454253
 11
-77.4016403355617
 21
-38.05981136803477
  0
LINE
  8
0
  6
CONTINUOUS
 62
     7
 10
-77.81633825425244
 20
-37.42051967877095
 11
-77.82721632727502
 21
-37.41788312218154
  0
LINE
  8
0
  6
CONTINUOUS
 62
     7
 10
-85.3831998316
 20
-37.41169774181699
 11
-77.88319983159992
 21
-37.41169774181708
  0
LINE
  8
0
  6
CONTINUOUS
 62
     7
 10
-77.88319983160004
 20
-37.41169774181699
 11
-77.87235997019732
 21
-37.41193451249725
  0
LINE
  8
0
  6
CONTINUOUS
 62
     7
 10
-77.3854737352791
 20
-31.29919196481338
 11
-77.38319983159998
 21
-31.24813892110468
  0
LINE
  8
0
  6
CONTINUOUS
 62
     7
 10
-77.87235997019732
 20
-37.41193451249725
 11
-77.8615229677237
 21
-37.4126367092699
  0
LINE
  8
0
  6
CONTINUOUS
 62
     7
 10
-77.8615229677237
 20
-37.4126367092699
 11
-77.85072331882344
 21
-37.41379215923297
  0
LINE
  8
0
  6
CONTINUOUS
 62
     7
 10
-77.61026216146078
 20
-31.69816324717987
 11
-77.59005913978329
 21
-31.68316581053352
  0
LINE
  8
0
  6
CONTINUOUS
 62
     7
 10
-77.57119659251973
 20
-31.66761586138492
 11
-77.55358699598465
 21
-31.65160357476652
  0
LINE
  8
0
  6
CONTINUOUS
 62
     7
 10
-77.73453978225338
 20
-37.45589788061815
 11
-77.72184949563083
 21
-37.46391548497702
  0
LINE
  8
0
  6
CONTINUOUS
 62
     7
 10
-77.76122502980172
 20
-37.44132010714522
 11
-77.74767592200212
 21
-37.4483439213639
  0
LINE
  8
0
  6
CONTINUOUS
 62
     7
 10
-77.74767592200212
 20
-37.4483439213639
 11
-77.73453978225338
 21
-37.45589788061815
  0
LINE
  8
0
  6
CONTINUOUS
 62
     7
 10
-77.78943060925243
 20
-37.42912891353804
 11
-77.77515422057687
 21
-37.43489293789293
  0
LINE
  8
0
  6
CONTINUOUS
 62
     7
 10
-77.72184949563083
 20
-37.46391548497702
 11
-77.70731103174207
 21
-37.47399061608728
  0
LINE
  8
0
  6
CONTINUOUS
 62
     7
 10
-77.77515422057687
 20
-37.43489293789293
 11
-77.76122502980172
 21
-37.44132010714522
  0
LINE
  8
0
  6
CONTINUOUS
 62
     7
 10
-77.43360945088524
 20
-37.92235030969896
 11
-77.4187104632353
 21
-37.97833000212037
  0
LINE
  8
0
  6
CONTINUOUS
 62
     7
 10
-77.4187104632353
 20
-37.97833000212037
 11
-77.40333802950046
 21
-38.05033234063957
  0
LINE
  8
0
  6
CONTINUOUS
 62
     7
 10
-77.39222279404707
 20
-38.12240988492322
 11
-77.3854737352791
 21
-38.19424888520743
  0
LINE
  8
0
  6
CONTINUOUS
 62
     7
 10
-77.3854737352791
 20
-38.19424888520743
 11
-77.38319983159998
 21
-38.26553559172827
  0
LINE
  8
0
  6
CONTINUOUS
 62
     7
 10
-85.3831998316
 20
-37.41169774181699
 11
-77.88319983159992
 21
-37.41169774181708
  0
LINE
  8
0
  6
CONTINUOUS
 62
     7
 10
-77.40333802950046
 20
-38.05033234063957
 11
-77.39222279404707
 21
-38.12240988492322
  0
LINE
  8
0
  6
CONTINUOUS
 62
     7
 10
-77.39146366431666
 20
-31.34492968383885
 11
-77.4016403355617
 21
-31.39186186353546
  0
LINE
  8
0
  6
CONTINUOUS
 62
     7
 10
-77.41571073704164
 20
-31.43764927223373
 11
-77.43148932019967
 21
-31.47743857950517
  0
LINE
  8
0
  6
CONTINUOUS
 62
     7
 10
-77.43148932019967
 20
-31.47743857950517
 11
-77.45048123780036
 21
-31.51630031902958
  0
LINE
  8
0
  6
CONTINUOUS
 62
     7
 10
-77.45048123780036
 20
-31.51630031902958
 11
-77.47285199550154
 21
-31.554103284416
  0
LINE
  8
0
  6
CONTINUOUS
 62
     7
 10
-77.39222279404707
 20
-38.12240988492322
 11
-77.3854737352791
 21
-38.19424888520743
  0
LINE
  8
0
  6
CONTINUOUS
 62
     7
 10
-77.47285199550154
 20
-31.554103284416
 11
-77.49876709896083
 21
-31.59071626927346
  0
LINE
  8
0
  6
CONTINUOUS
 62
     7
 10
-77.87235997019732
 20
-37.41193451249725
 11
-77.8615229677237
 21
-37.4126367092699
  0
LINE
  8
0
  6
CONTINUOUS
 62
     7
 10
-77.49876709896083
 20
-31.59071626927346
 11
-77.51699286387155
 21
-31.61310887714528
  0
LINE
  8
0
  6
CONTINUOUS
 62
     7
 10
-77.88319983160004
 20
-39.09114479270471
 11
-85.3831998316
 21
-39.09114479270471
  0
LINE
  8
0
  6
CONTINUOUS
 62
     7
 10
-77.74767592200212
 20
-37.4483439213639
 11
-77.73453978225338
 21
-37.45589788061815
  0
LINE
  8
0
  6
CONTINUOUS
 62
     7
 10
-77.4187104632353
 20
-37.97833000212037
 11
-77.40333802950046
 21
-38.05033234063957
  0
LINE
  8
0
  6
CONTINUOUS
 62
     7
 10
-77.53714282649322
 20
-37.67463663848056
 11
-77.52177656036004
 21
-37.70255382731841
  0
LINE
  8
0
  6
CONTINUOUS
 62
     7
 10
-77.471659084916
 20
-37.81111785602904
 11
-77.45120570995685
 21
-37.86652796849874
  0
LINE
  8
0
  6
CONTINUOUS
 62
     7
 10
-77.69329231949835
 20
-37.48461750653063
 11
-77.67978930982706
 21
-37.4957233062537
  0
LINE
  8
0
  6
CONTINUOUS
 62
     7
 10
-77.38319983159998
 20
-31.24813892110462
 11
-77.38528280307374
 21
-31.29697971055737
  0
LINE
  8
0
  6
CONTINUOUS
 62
     7
 10
-77.38528280307374
 20
-31.29697971055737
 11
-77.39146366431666
 21
-31.34492968383885
  0
LINE
  8
0
  6
CONTINUOUS
 62
     7
 10
-77.4016403355617
 20
-31.39186186353546
 11
-77.41571073704164
 21
-31.43764927223373
  0
LINE
  8
0
  6
CONTINUOUS
 62
     7
 10
-77.57119659251973
 20
-37.6196956237152
 11
-77.55358699598465
 21
-37.64695888773801
  0
LINE
  8
0
  6
CONTINUOUS
 62
     7
 10
-77.81889344000321
 20
-37.41985629924394
 11
-77.80402131075299
 21
-37.42409453401142
  0
LINE
  8
0
  6
CONTINUOUS
 62
     7
 10
-77.70731103174207
 20
-37.47399061608728
 11
-77.69329231949835
 21
-37.48461750653063
  0
LINE
  8
0
  6
CONTINUOUS
 62
     7
 10
-77.63189318123716
 20
-37.54214323821002
 11
-77.61026216146078
 21
-37.56711275032676
  0
LINE
  8
0
  6
CONTINUOUS
 62
     7
 10
-77.61026216146078
 20
-37.56711275032676
 11
-77.59005913978329
 21
-37.59302189503666
  0
LINE
  8
0
  6
CONTINUOUS
 62
     7
 10
-77.55358699598465
 20
-37.64695888773801
 11
-77.53714282649322
 21
-37.67463663848056
  0
LINE
  8
0
  6
CONTINUOUS
 62
     7
 10
-77.40333802950046
 20
-38.05033234063957
 11
-77.39222279404707
 21
-38.12240988492322
  0
LINE
  8
0
  6
CONTINUOUS
 62
     7
 10
-77.78943060925243
 20
-37.42912891353804
 11
-77.77515422057687
 21
-37.43489293789293
  0
LINE
  8
0
  6
CONTINUOUS
 62
     7
 10
-77.65503972279748
 20
-37.51828840731084
 11
-77.63189318123716
 21
-37.54214323821002
  0
LINE
  8
0
  6
CONTINUOUS
 62
     7
 10
-77.76122502980172
 20
-37.44132010714522
 11
-77.74767592200212
 21
-37.4483439213639
  0
LINE
  8
0
  6
CONTINUOUS
 62
     7
 10
-77.83999551814043
 20
-37.41538868948436
 11
-77.82937406031904
 21
-37.41741412712202
  0
LINE
  8
0
  6
CONTINUOUS
 62
     7
 10
-77.45120570995685
 20
-37.86652796849874
 11
-77.43360945088524
 21
-37.92235030969896
  0
LINE
  8
0
  6
CONTINUOUS
 62
     7
 10
-77.73453978225338
 20
-37.45589788061815
 11
-77.72184949563083
 21
-37.46391548497702
  0
LINE
  8
0
  6
CONTINUOUS
 62
     7
 10
-77.67978930982706
 20
-37.4957233062537
 11
-77.65503972279748
 21
-37.51828840731084
  0
LINE
  8
0
  6
CONTINUOUS
 62
     7
 10
-77.82937406031904
 20
-37.41741412712202
 11
-77.81889344000321
 21
-37.41985629924394
  0
LINE
  8
0
  6
CONTINUOUS
 62
     7
 10
-77.69329231949835
 20
-37.48461750653063
 11
-77.67978930982706
 21
-37.4957233062537
  0
LINE
  8
0
  6
CONTINUOUS
 62
     7
 10
-77.8615229677237
 20
-37.4126367092699
 11
-77.85072331882344
 21
-37.41379215923297
  0
LINE
  8
0
  6
CONTINUOUS
 62
     7
 10
-77.72184949563083
 20
-37.46391548497702
 11
-77.70731103174207
 21
-37.47399061608728
  0
LINE
  8
0
  6
CONTINUOUS
 62
     7
 10
-77.88319983160004
 20
-37.41169774181699
 11
-77.87235997019732
 21
-37.41193451249725
  0
LINE
  8
0
  6
CONTINUOUS
 62
     7
 10
-77.65503972279748
 20
-37.51828840731084
 11
-77.63189318123716
 21
-37.54214323821002
  0
LINE
  8
0
  6
CONTINUOUS
 62
     7
 10
-77.63189318123716
 20
-37.54214323821002
 11
-77.61026216146078
 21
-37.56711275032676
  0
LINE
  8
0
  6
CONTINUOUS
 62
     7
 10
-77.61026216146078
 20
-37.56711275032676
 11
-77.59005913978329
 21
-37.59302189503666
  0
LINE
  8
0
  6
CONTINUOUS
 62
     7
 10
-77.55358699598465
 20
-37.64695888773801
 11
-77.53714282649322
 21
-37.67463663848056
  0
LINE
  8
0
  6
CONTINUOUS
 62
     7
 10
-77.59005913978329
 20
-37.59302189503666
 11
-77.57119659251973
 21
-37.6196956237152
  0
LINE
  8
0
  6
CONTINUOUS
 62
     7
 10
-77.67978930982706
 20
-37.4957233062537
 11
-77.65503972279748
 21
-37.51828840731084
  0
LINE
  8
0
  6
CONTINUOUS
 62
     7
 10
-77.43360945088524
 20
-37.92235030969896
 11
-77.4187104632353
 21
-37.97833000212037
  0
LINE
  8
0
  6
CONTINUOUS
 62
     7
 10
-77.49512942022837
 20
-37.75637484979917
 11
-77.471659084916
 21
-37.81111785602904
  0
LINE
  8
0
  6
CONTINUOUS
 62
     7
 10
-77.57119659251973
 20
-37.6196956237152
 11
-77.55358699598465
 21
-37.64695888773801
  0
LINE
  8
0
  6
CONTINUOUS
 62
     7
 10
-77.53714282649322
 20
-37.67463663848056
 11
-77.52177656036004
 21
-37.70255382731841
  0
LINE
  8
0
  6
CONTINUOUS
 62
     7
 10
-77.38319983159998
 20
-38.5
 11
-77.38319983159998
 21
-38.26553559172824
  0
LINE
  8
0
  6
CONTINUOUS
 62
     7
 10
-77.85072331882344
 20
-37.41379215923297
 11
-77.83999551814043
 21
-37.41538868948436
  0
LINE
  8
0
  6
CONTINUOUS
 62
     7
 10
-77.80402131075299
 20
-37.42409453401142
 11
-77.78943060925243
 21
-37.42912891353804
  0
LINE
  8
0
  6
CONTINUOUS
 62
     7
 10
-77.70731103174207
 20
-37.47399061608728
 11
-77.69329231949835
 21
-37.48461750653063
  0
LINE
  8
0
  6
CONTINUOUS
 62
     7
 10
-77.59005913978329
 20
-37.59302189503666
 11
-77.57119659251973
 21
-37.6196956237152
  0
LINE
  8
0
  6
CONTINUOUS
 62
     7
 10
-77.52177656036004
 20
-37.70255382731841
 11
-77.49512942022837
 21
-37.75637484979917
  0
LINE
  8
0
  6
CONTINUOUS
 62
     7
 10
-77.3854737352791
 20
-38.19424888520743
 11
-77.38319983159998
 21
-38.26553559172827
  0
LINE
  8
0
  6
CONTINUOUS
 62
     7
 10
-77.52177656036004
 20
-37.70255382731841
 11
-77.49512942022837
 21
-37.75637484979917
  0
LINE
  8
0
  6
CONTINUOUS
 62
     7
 10
-77.49512942022837
 20
-37.75637484979917
 11
-77.471659084916
 21
-37.81111785602904
  0
LINE
  8
0
  6
CONTINUOUS
 62
     7
 10
-77.45120570995685
 20
-37.86652796849874
 11
-77.43360945088524
 21
-37.92235030969896
  0
LINE
  8
0
  6
CONTINUOUS
 62
     7
 10
-77.471659084916
 20
-37.81111785602904
 11
-77.45120570995685
 21
-37.86652796849874
  0
LINE
  8
0
  6
CONTINUOUS
 62
     7
 10
-77.77515422057687
 20
-37.43489293789293
 11
-77.76122502980172
 21
-37.44132010714522
  0
LINE
  8
0
  6
CONTINUOUS
 62
     7
 10
-77.6237217576626
 20
-31.70712871796542
 11
-77.64023819450556
 21
-31.71755048098388
  0
LINE
  8
0
  6
CONTINUOUS
 62
     7
 10
-77.60808831280892
 20
-31.6964046274845
 11
-77.6237217576626
 21
-31.70712871796542
  0
LINE
  8
0
  6
CONTINUOUS
 62
     7
 10
-77.55860797437937
 20
-31.65623532127327
 11
-77.58229145607838
 21
-31.67674552480066
  0
LINE
  8
0
  6
CONTINUOUS
 62
     7
 10
-77.51699286387155
 20
-31.61310887714528
 11
-77.53689079966071
 21
-31.63498583326666
  0
LINE
  8
0
  6
CONTINUOUS
 62
     7
 10
-77.53689079966071
 20
-31.63498583326666
 11
-77.55860797437937
 21
-31.65623532127327
  0
LINE
  8
0
  6
CONTINUOUS
 62
     7
 10
-77.58229145607838
 20
-31.67674552480066
 11
-77.60808831280892
 21
-31.6964046274845
  0
LINE
  8
0
  6
CONTINUOUS
 62
     7
 10
-85.3831998316
 20
-19.21410537069557
 11
-77.88319983159992
 21
-19.21410537069557
  0
LINE
  8
0
  6
CONTINUOUS
 62
     7
 10
-77.65766787512403
 20
-31.72758630657563
 11
-77.67604105130451
 21
-31.73715258477645
  0
LINE
  8
0
  6
CONTINUOUS
 62
     7
 10
-77.65503972279748
 20
-19.27386011716393
 11
-77.63189318123716
 21
-19.28748200370848
  0
LINE
  8
0
  6
CONTINUOUS
 62
     7
 10
-77.71573889749668
 20
-31.75454205914816
 11
-77.73712407108098
 21
-31.76219803539058
  0
LINE
  8
0
  6
CONTINUOUS
 62
     7
 10
-85.3831998316
 20
-29.47804353047801
 11
-77.88319983159992
 21
-29.47804353047801
  0
LINE
  8
0
  6
CONTINUOUS
 62
     7
 10
-77.59005913978329
 20
-19.31683418946648
 11
-77.57119659251973
 21
-19.33238413861508
  0
LINE
  8
0
  6
CONTINUOUS
 62
     7
 10
-77.8615229677237
 20
-19.21462402937896
 11
-77.85072331882344
 21
-19.21526265235555
  0
LINE
  8
0
  6
CONTINUOUS
 62
     7
 10
-77.45120570995685
 20
-19.48228063893141
 11
-77.43360945088524
 21
-19.51779988007691
  0
LINE
  8
0
  6
CONTINUOUS
 62
     7
 10
-77.72184949563083
 20
-19.24316019520026
 11
-77.70731103174207
 21
-19.24881359578762
  0
LINE
  8
0
  6
CONTINUOUS
 62
     7
 10
-77.49512942022837
 20
-19.41398757517446
 11
-77.471659084916
 21
-19.4476376109328
  0
LINE
  8
0
  6
CONTINUOUS
 62
     7
 10
-77.38319983159998
 20
-12.73446440827167
 11
-77.38528280307374
 21
-12.80262047069417
  0
LINE
  8
0
  6
CONTINUOUS
 62
     7
 10
-77.64023819450556
 20
-31.71755048098388
 11
-77.65766787512403
 21
-31.72758630657563
  0
LINE
  8
0
  6
CONTINUOUS
 62
     7
 10
-77.77529687939973
 20
-31.7730825580746
 11
-77.78870063401173
 21
-31.77609452598499
  0
LINE
  8
0
  6
CONTINUOUS
 62
     7
 10
-77.69538797483328
 20
-31.74616570562206
 11
-77.71573889749668
 21
-31.75454205914816
  0
LINE
  8
0
  6
CONTINUOUS
 62
     7
 10
-77.80239159878172
 20
-31.77874849862176
 11
-77.81633825425244
 21
-31.78101454071595
  0
LINE
  8
0
  6
CONTINUOUS
 62
     7
 10
-77.82721632727502
 20
-31.78247431669629
 11
-77.83825198502355
 21
-31.78368555742756
  0
LINE
  8
0
  6
CONTINUOUS
 62
     7
 10
-77.84940669591418
 20
-31.78464073598187
 11
-77.86064192836302
 21
-31.78533232543136
  0
LINE
  8
0
  6
CONTINUOUS
 62
     7
 10
-77.88319983160004
 20
-29.47804353047804
 11
-77.7810391594836
 21
-29.50077762020184
  0
LINE
  8
0
  6
CONTINUOUS
 62
     7
 10
-77.7810391594836
 20
-29.50077762020184
 11
-77.68989212599548
 21
-29.56137895506906
  0
LINE
  8
0
  6
CONTINUOUS
 62
     7
 10
-77.38319983159998
 20
-20.5379512279261
 11
-77.38319983159998
 21
-19.7518610788953
  0
LINE
  8
0
  6
CONTINUOUS
 62
     7
 10
-77.67895826491129
 20
-21.42855238134923
 11
-77.76193093995948
 21
-21.48981006819482
  0
LINE
  8
0
  6
CONTINUOUS
 62
     7
 10
-77.85072331882344
 20
-19.21526265235555
 11
-77.83999551814043
 21
-19.21614551519738
  0
LINE
  8
0
  6
CONTINUOUS
 62
     7
 10
-77.77515422057687
 20
-19.2269614703376
 11
-77.76122502980172
 21
-19.23053795144756
  0
LINE
  8
0
  6
CONTINUOUS
 62
     7
 10
-77.61026216146078
 20
-19.30183675282014
 11
-77.59005913978329
 21
-19.31683418946648
  0
LINE
  8
0
  6
CONTINUOUS
 62
     7
 10
-77.38528280307374
 20
-12.80262047069417
 11
-77.39146366431666
 21
-12.87128654545747
  0
LINE
  8
0
  6
CONTINUOUS
 62
     7
 10
-77.67604105130451
 20
-31.73715258477645
 11
-77.69538797483328
 21
-31.74616570562206
  0
LINE
  8
0
  6
CONTINUOUS
 62
     7
 10
-77.73712407108098
 20
-31.76219803539058
 11
-77.7494770784773
 21
-31.76610437750847
  0
LINE
  8
0
  6
CONTINUOUS
 62
     7
 10
-77.81633825425244
 20
-31.78101454071595
 11
-77.82721632727502
 21
-31.78247431669629
  0
LINE
  8
0
  6
CONTINUOUS
 62
     7
 10
-77.76122502980172
 20
-19.23053795144756
 11
-77.74767592200212
 21
-19.23445338812191
  0
LINE
  8
0
  6
CONTINUOUS
 62
     7
 10
-77.60808831280892
 20
-21.34660074761347
 11
-77.67895826491129
 21
-21.42855238134923
  0
LINE
  8
0
  6
CONTINUOUS
 62
     7
 10
-77.81889344000321
 20
-19.21861809280304
 11
-77.80402131075299
 21
-19.22096630777446
  0
LINE
  8
0
  6
CONTINUOUS
 62
     7
 10
-77.78943060925243
 20
-19.22375917803294
 11
-77.77515422057687
 21
-19.2269614703376
  0
LINE
  8
0
  6
CONTINUOUS
 62
     7
 10
-77.73453978225338
 20
-19.23867254711978
 11
-77.72184949563083
 21
-19.24316019520026
  0
LINE
  8
0
  6
CONTINUOUS
 62
     7
 10
-77.87191915078624
 20
-31.78575279884816
 11
-77.88319983160004
 21
-31.78589462930437
  0
LINE
  8
0
  6
CONTINUOUS
 62
     7
 10
-77.38319983159998
 20
-31.24813892110462
 11
-77.38319983159998
 21
-30.46204877207379
  0
LINE
  8
0
  6
CONTINUOUS
 62
     7
 10
-77.88319983160004
 20
-19.21410537069557
 11
-77.87235997019732
 21
-19.21423611318616
  0
LINE
  8
0
  6
CONTINUOUS
 62
     7
 10
-77.83999551814043
 20
-19.21614551519738
 11
-77.82937406031904
 21
-19.21726615098602
  0
LINE
  8
0
  6
CONTINUOUS
 62
     7
 10
-77.69329231949835
 20
-19.25479340804351
 11
-77.67978930982706
 21
-19.26106126821895
  0
LINE
  8
0
  6
CONTINUOUS
 62
     7
 10
-77.63189318123716
 20
-19.28748200370848
 11
-77.61026216146078
 21
-19.30183675282014
  0
LINE
  8
0
  6
CONTINUOUS
 62
     7
 10
-77.78870063401173
 20
-31.77609452598499
 11
-77.80239159878172
 21
-31.77874849862176
  0
LINE
  8
0
  6
CONTINUOUS
 62
     7
 10
-77.87235997019732
 20
-19.21423611318616
 11
-77.8615229677237
 21
-19.21462402937896
  0
LINE
  8
0
  6
CONTINUOUS
 62
     7
 10
-77.74767592200212
 20
-19.23445338812191
 11
-77.73453978225338
 21
-19.23867254711978
  0
LINE
  8
0
  6
CONTINUOUS
 62
     7
 10
-77.76221185440254
 20
-31.76974253015944
 11
-77.77529687939973
 21
-31.7730825580746
  0
LINE
  8
0
  6
CONTINUOUS
 62
     7
 10
-77.67978930982706
 20
-19.26106126821895
 11
-77.65503972279748
 21
-19.27386011716393
  0
LINE
  8
0
  6
CONTINUOUS
 62
     7
 10
-77.57119659251973
 20
-19.33238413861508
 11
-77.55358699598465
 21
-19.34839642523349
  0
LINE
  8
0
  6
CONTINUOUS
 62
     7
 10
-77.53714282649322
 20
-19.36478087428923
 11
-77.52177656036004
 21
-19.38144731074987
  0
LINE
  8
0
  6
CONTINUOUS
 62
     7
 10
-77.7494770784773
 20
-31.76610437750847
 11
-77.76221185440254
 21
-31.76974253015944
  0
LINE
  8
0
  6
CONTINUOUS
 62
     7
 10
-77.55358699598465
 20
-19.34839642523349
 11
-77.53714282649322
 21
-19.36478087428923
  0
LINE
  8
0
  6
CONTINUOUS
 62
     7
 10
-77.70731103174207
 20
-19.24881359578762
 11
-77.69329231949835
 21
-19.25479340804351
  0
LINE
  8
0
  6
CONTINUOUS
 62
     7
 10
-77.471659084916
 20
-19.4476376109328
 11
-77.45120570995685
 21
-19.48228063893141
  0
LINE
  8
0
  6
CONTINUOUS
 62
     7
 10
-77.43360945088524
 20
-19.51779988007691
 11
-77.4187104632353
 21
-19.55407855527589
  0
LINE
  8
0
  6
CONTINUOUS
 62
     7
 10
-77.4187104632353
 20
-19.55407855527589
 11
-77.40333802950046
 21
-19.60177208902562
  0
LINE
  8
0
  6
CONTINUOUS
 62
     7
 10
-77.39222279404707
 20
-19.65073014377961
 11
-77.3854737352791
 21
-19.70080803518663
  0
LINE
  8
0
  6
CONTINUOUS
 62
     7
 10
-77.82937406031904
 20
-19.21726615098602
 11
-77.81889344000321
 21
-19.21861809280304
  0
LINE
  8
0
  6
CONTINUOUS
 62
     7
 10
-77.76193093995948
 20
-21.48981006819482
 11
-77.86037368951399
 21
-21.52082955277163
  0
LINE
  8
0
  6
CONTINUOUS
 62
     7
 10
-77.80402131075299
 20
-19.22096630777446
 11
-77.78943060925243
 21
-19.22375917803294
  0
LINE
  8
0
  6
CONTINUOUS
 62
     7
 10
-77.52177656036004
 20
-19.38144731074987
 11
-77.49512942022837
 21
-19.41398757517446
  0
LINE
  8
0
  6
CONTINUOUS
 62
     7
 10
-77.68989212599548
 20
-29.56137895506906
 11
-77.60735151883298
 21
-29.65440238825995
  0
LINE
  8
0
  6
CONTINUOUS
 62
     7
 10
-77.83825198502355
 20
-31.78368555742756
 11
-77.84940669591418
 21
-31.78464073598187
  0
LINE
  8
0
  6
CONTINUOUS
 62
     7
 10
-77.86064192836302
 20
-31.78533232543136
 11
-77.87191915078624
 21
-31.78575279884816
  0
LINE
  8
0
  6
CONTINUOUS
 62
     7
 10
-77.54722488985917
 20
-21.24868802954852
 11
-77.60808831280892
 21
-21.34660074761347
  0
LINE
  8
0
  6
CONTINUOUS
 62
     7
 10
-77.86037368951399
 20
-21.52082955277163
 11
-77.88319983160004
 21
-21.52195646952194
  0
LINE
  8
0
  6
CONTINUOUS
 62
     7
 10
-77.40333802950046
 20
-19.60177208902562
 11
-77.39222279404707
 21
-19.65073014377961
  0
LINE
  8
0
  6
CONTINUOUS
 62
     7
 10
-77.3854737352791
 20
-19.70080803518663
 11
-77.38319983159998
 21
-19.75186107889532
  0
LINE
  8
0
  6
CONTINUOUS
 62
     7
 10
-77.4016403355617
 20
-12.94018863196523
 11
-77.41571073704164
 21
-13.00905272962097
  0
LINE
  8
0
  6
CONTINUOUS
 62
     7
 10
-77.41571073704164
 20
-13.00905272962097
 11
-77.43148932019967
 21
-13.07024163916973
  0
LINE
  8
0
  6
CONTINUOUS
 62
     7
 10
-77.39146366431666
 20
-12.87128654545747
 11
-77.4016403355617
 21
-12.94018863196523
  0
LINE
  8
0
  6
CONTINUOUS
 62
     7
 10
-77.45048123780036
 20
-13.13121468337528
 11
-77.47285199550154
 21
-13.19167972174726
  0
LINE
  8
0
  6
CONTINUOUS
 62
     7
 10
-77.47285199550154
 20
-13.19167972174726
 11
-77.49876709896083
 21
-13.25134461379527
  0
LINE
  8
0
  6
CONTINUOUS
 62
     7
 10
-77.43148932019967
 20
-13.07024163916973
 11
-77.45048123780036
 21
-13.13121468337528
  0
LINE
  8
0
  6
CONTINUOUS
 62
     7
 10
-77.86064192836302
 20
-13.58728426040099
 11
-77.87191915078624
 21
-13.58804539732714
  0
LINE
  8
0
  6
CONTINUOUS
 62
     7
 10
-77.78943060925243
 20
-13.57087108646197
 11
-77.77515422057687
 21
-13.56510706210707
  0
LINE
  8
0
  6
CONTINUOUS
 62
     7
 10
-77.55358699598465
 20
-13.35304111226199
 11
-77.53714282649322
 21
-13.32536336151944
  0
LINE
  8
0
  6
CONTINUOUS
 62
     7
 10
-77.84940669591418
 20
-13.58603301586626
 11
-77.86064192836302
 21
-13.58728426040099
  0
LINE
  8
0
  6
CONTINUOUS
 62
     7
 10
-77.69538797483328
 20
-13.51709307016911
 11
-77.71573889749668
 21
-13.53198910912107
  0
LINE
  8
0
  6
CONTINUOUS
 62
     7
 10
-77.52177656036004
 20
-13.29744617268159
 11
-77.49512942022837
 21
-13.24362515020084
  0
LINE
  8
0
  6
CONTINUOUS
 62
     7
 10
-77.40333802950046
 20
-12.94966765936043
 11
-77.39222279404707
 21
-12.87759011507678
  0
LINE
  8
0
  6
CONTINUOUS
 62
     7
 10
-77.85072331882344
 20
-13.58620784076703
 11
-77.83999551814043
 21
-13.58461131051564
  0
LINE
  8
0
  6
CONTINUOUS
 62
     7
 10
-77.67978930982706
 20
-13.5042766937463
 11
-77.65503972279748
 21
-13.48171159268916
  0
LINE
  8
0
  6
CONTINUOUS
 62
     7
 10
-77.83999551814043
 20
-13.58461131051564
 11
-77.82937406031904
 21
-13.58258587287798
  0
LINE
  8
0
  6
CONTINUOUS
 62
     7
 10
-77.8615229677237
 20
-13.5873632907301
 11
-77.85072331882344
 21
-13.58620784076703
  0
LINE
  8
0
  6
CONTINUOUS
 62
     7
 10
-77.64023819450556
 20
-13.46664308494797
 11
-77.65766787512403
 21
-13.48426069654816
  0
LINE
  8
0
  6
CONTINUOUS
 62
     7
 10
-77.60808831280892
 20
-13.42980181984016
 11
-77.6237217576626
 21
-13.44843700553384
  0
LINE
  8
0
  6
CONTINUOUS
 62
     7
 10
-77.80402131075299
 20
-13.57590546598859
 11
-77.78943060925243
 21
-13.57087108646197
  0
LINE
  8
0
  6
CONTINUOUS
 62
     7
 10
-77.71573889749668
 20
-13.53198910912107
 11
-77.73712407108098
 21
-13.54565923412149
  0
LINE
  8
0
  6
CONTINUOUS
 62
     7
 10
-77.82721632727502
 20
-13.58211687781847
 11
-77.83825198502355
 21
-13.58430583218479
  0
LINE
  8
0
  6
CONTINUOUS
 62
     7
 10
-77.87191915078624
 20
-13.58804539732714
 11
-77.88319983160004
 21
-13.58830225818295
  0
LINE
  8
0
  6
CONTINUOUS
 62
     7
 10
-77.55860797437937
 20
-13.36088722138416
 11
-77.58229145607838
 21
-13.39590419895576
  0
LINE
  8
0
  6
CONTINUOUS
 62
     7
 10
-77.8615229677237
 20
-13.5873632907301
 11
-77.85072331882344
 21
-13.58620784076703
  0
LINE
  8
0
  6
CONTINUOUS
 62
     7
 10
-77.81633825425244
 20
-13.57948032122905
 11
-77.82721632727502
 21
-13.58211687781847
  0
LINE
  8
0
  6
CONTINUOUS
 62
     7
 10
-77.61026216146078
 20
-13.43288724967324
 11
-77.59005913978329
 21
-13.40697810496334
  0
LINE
  8
0
  6
CONTINUOUS
 62
     7
 10
-77.57119659251973
 20
-13.3803043762848
 11
-77.55358699598465
 21
-13.35304111226199
  0
LINE
  8
0
  6
CONTINUOUS
 62
     7
 10
-77.73453978225338
 20
-13.54410211938185
 11
-77.72184949563083
 21
-13.53608451502298
  0
LINE
  8
0
  6
CONTINUOUS
 62
     7
 10
-77.83825198502355
 20
-13.58430583218479
 11
-77.84940669591418
 21
-13.58603301586626
  0
LINE
  8
0
  6
CONTINUOUS
 62
     7
 10
-77.88319983160004
 20
-13.58830225818301
 11
-77.87235997019732
 21
-13.58806548750275
  0
LINE
  8
0
  6
CONTINUOUS
 62
     7
 10
-77.58229145607838
 20
-13.39590419895576
 11
-77.60808831280892
 21
-13.42980181984016
  0
LINE
  8
0
  6
CONTINUOUS
 62
     7
 10
-77.72184949563083
 20
-13.53608451502298
 11
-77.70731103174207
 21
-13.52600938391272
  0
LINE
  8
0
  6
CONTINUOUS
 62
     7
 10
-77.63189318123716
 20
-13.45785676178999
 11
-77.61026216146078
 21
-13.43288724967324
  0
LINE
  8
0
  6
CONTINUOUS
 62
     7
 10
-77.51699286387155
 20
-13.288384982279
 11
-77.53689079966071
 21
-13.32497333365027
  0
LINE
  8
0
  6
CONTINUOUS
 62
     7
 10
-77.74767592200212
 20
-13.5516560786361
 11
-77.73453978225338
 21
-13.54410211938185
  0
LINE
  8
0
  6
CONTINUOUS
 62
     7
 10
-77.69329231949835
 20
-13.51538249346938
 11
-77.67978930982706
 21
-13.5042766937463
  0
LINE
  8
0
  6
CONTINUOUS
 62
     7
 10
-77.49512942022837
 20
-13.24362515020084
 11
-77.471659084916
 21
-13.18888214397097
  0
LINE
  8
0
  6
CONTINUOUS
 62
     7
 10
-77.77529687939973
 20
-13.56518586091877
 11
-77.78870063401173
 21
-13.57060734249075
  0
LINE
  8
0
  6
CONTINUOUS
 62
     7
 10
-77.67604105130451
 20
-13.50113047880001
 11
-77.69538797483328
 21
-13.51709307016911
  0
LINE
  8
0
  6
CONTINUOUS
 62
     7
 10
-77.85072331882344
 20
-13.58620784076703
 11
-77.83999551814043
 21
-13.58461131051564
  0
LINE
  8
0
  6
CONTINUOUS
 62
     7
 10
-77.81889344000321
 20
-13.58014370075606
 11
-77.80402131075299
 21
-13.57590546598859
  0
LINE
  8
0
  6
CONTINUOUS
 62
     7
 10
-77.77515422057687
 20
-13.56510706210707
 11
-77.76122502980172
 21
-13.55867989285479
  0
LINE
  8
0
  6
CONTINUOUS
 62
     7
 10
-77.53714282649322
 20
-13.32536336151944
 11
-77.52177656036004
 21
-13.29744617268159
  0
LINE
  8
0
  6
CONTINUOUS
 62
     7
 10
-77.80239159878172
 20
-13.57539099000333
 11
-77.81633825425244
 21
-13.57948032122905
  0
LINE
  8
0
  6
CONTINUOUS
 62
     7
 10
-77.70731103174207
 20
-13.52600938391272
 11
-77.69329231949835
 21
-13.51538249346938
  0
LINE
  8
0
  6
CONTINUOUS
 62
     7
 10
-77.43360945088524
 20
-13.07764969030104
 11
-77.4187104632353
 21
-13.02166999787963
  0
LINE
  8
0
  6
CONTINUOUS
 62
     7
 10
-77.39222279404707
 20
-12.87759011507678
 11
-77.3854737352791
 21
-12.80575111479257
  0
LINE
  8
0
  6
CONTINUOUS
 62
     7
 10
-77.87235997019732
 20
-13.58806548750275
 11
-77.8615229677237
 21
-13.5873632907301
  0
LINE
  8
0
  6
CONTINUOUS
 62
     7
 10
-77.88319983160004
 20
-13.58830225818301
 11
-77.87235997019732
 21
-13.58806548750275
  0
LINE
  8
0
  6
CONTINUOUS
 62
     7
 10
-77.87235997019732
 20
-13.58806548750275
 11
-77.8615229677237
 21
-13.5873632907301
  0
LINE
  8
0
  6
CONTINUOUS
 62
     7
 10
-77.82937406031904
 20
-13.58258587287798
 11
-77.81889344000321
 21
-13.58014370075606
  0
LINE
  8
0
  6
CONTINUOUS
 62
     7
 10
-77.3854737352791
 20
-12.80575111479257
 11
-77.38319983159998
 21
-12.73446440827173
  0
LINE
  8
0
  6
CONTINUOUS
 62
     7
 10
-77.7494770784773
 20
-13.55265532450662
 11
-77.76221185440254
 21
-13.55918302751489
  0
LINE
  8
0
  6
CONTINUOUS
 62
     7
 10
-77.65503972279748
 20
-13.48171159268916
 11
-77.63189318123716
 21
-13.45785676178999
  0
LINE
  8
0
  6
CONTINUOUS
 62
     7
 10
-77.88319983160004
 20
-13.58830225818287
 11
-85.3831998316
 21
-13.58830225818298
  0
LINE
  8
0
  6
CONTINUOUS
 62
     7
 10
-77.73712407108098
 20
-13.54565923412149
 11
-77.7494770784773
 21
-13.55265532450662
  0
LINE
  8
0
  6
CONTINUOUS
 62
     7
 10
-77.471659084916
 20
-13.18888214397097
 11
-77.45120570995685
 21
-13.13347203150126
  0
LINE
  8
0
  6
CONTINUOUS
 62
     7
 10
-77.53689079966071
 20
-13.32497333365027
 11
-77.55860797437937
 21
-13.36088722138416
  0
LINE
  8
0
  6
CONTINUOUS
 62
     7
 10
-77.76122502980172
 20
-13.55867989285479
 11
-77.74767592200212
 21
-13.5516560786361
  0
LINE
  8
0
  6
CONTINUOUS
 62
     7
 10
-77.78870063401173
 20
-13.57060734249075
 11
-77.80239159878172
 21
-13.57539099000333
  0
LINE
  8
0
  6
CONTINUOUS
 62
     7
 10
-77.83999551814043
 20
-13.58461131051564
 11
-77.82937406031904
 21
-13.58258587287798
  0
LINE
  8
0
  6
CONTINUOUS
 62
     7
 10
-77.45120570995685
 20
-13.13347203150126
 11
-77.43360945088524
 21
-13.07764969030104
  0
LINE
  8
0
  6
CONTINUOUS
 62
     7
 10
-77.4187104632353
 20
-13.02166999787963
 11
-77.40333802950046
 21
-12.94966765936043
  0
LINE
  8
0
  6
CONTINUOUS
 62
     7
 10
-77.6237217576626
 20
-13.44843700553384
 11
-77.64023819450556
 21
-13.46664308494797
  0
LINE
  8
0
  6
CONTINUOUS
 62
     7
 10
-77.49876709896083
 20
-13.25134461379527
 11
-77.51699286387155
 21
-13.288384982279
  0
LINE
  8
0
  6
CONTINUOUS
 62
     7
 10
-77.65766787512403
 20
-13.48426069654816
 11
-77.67604105130451
 21
-13.50113047880001
  0
LINE
  8
0
  6
CONTINUOUS
 62
     7
 10
-77.82937406031904
 20
-13.58258587287798
 11
-77.81889344000321
 21
-13.58014370075606
  0
LINE
  8
0
  6
CONTINUOUS
 62
     7
 10
-77.59005913978329
 20
-13.40697810496334
 11
-77.57119659251973
 21
-13.3803043762848
  0
LINE
  8
0
  6
CONTINUOUS
 62
     7
 10
-77.76221185440254
 20
-13.55918302751489
 11
-77.77529687939973
 21
-13.56518586091877
  0
LINE
  8
0
  6
CONTINUOUS
 62
     7
 10
-77.74767592200212
 20
-13.5516560786361
 11
-77.73453978225338
 21
-13.54410211938185
  0
LINE
  8
0
  6
CONTINUOUS
 62
     7
 10
-77.76122502980172
 20
-13.55867989285479
 11
-77.74767592200212
 21
-13.5516560786361
  0
LINE
  8
0
  6
CONTINUOUS
 62
     7
 10
-77.81889344000321
 20
-13.58014370075606
 11
-77.80402131075299
 21
-13.57590546598859
  0
LINE
  8
0
  6
CONTINUOUS
 62
     7
 10
-77.77515422057687
 20
-13.56510706210707
 11
-77.76122502980172
 21
-13.55867989285479
  0
LINE
  8
0
  6
CONTINUOUS
 62
     7
 10
-77.80402131075299
 20
-13.57590546598859
 11
-77.78943060925243
 21
-13.57087108646197
  0
LINE
  8
0
  6
CONTINUOUS
 62
     7
 10
-77.78943060925243
 20
-13.57087108646197
 11
-77.77515422057687
 21
-13.56510706210707
  0
LINE
  8
0
  6
CONTINUOUS
 62
     7
 10
9.624035925700005
 20
-19.28679656439999
 11
0.837239361300049
 21
-10.50000000000001
  0
LINE
  8
0
  6
CONTINUOUS
 62
     7
 10
-77.59005913978329
 20
-13.40697810496334
 11
-77.57119659251973
 21
-13.3803043762848
  0
LINE
  8
0
  6
CONTINUOUS
 62
     7
 10
9.624035925700005
 20
-31.7132034356
 11
9.624035925700005
 21
-19.28679656439999
  0
LINE
  8
0
  6
CONTINUOUS
 62
     7
 10
-77.471659084916
 20
-13.18888214397097
 11
-77.45120570995685
 21
-13.13347203150126
  0
LINE
  8
0
  6
CONTINUOUS
 62
     7
 10
-77.73453978225338
 20
-13.54410211938185
 11
-77.72184949563083
 21
-13.53608451502298
  0
LINE
  8
0
  6
CONTINUOUS
 62
     7
 10
-77.65503972279748
 20
-13.48171159268916
 11
-77.63189318123716
 21
-13.45785676178999
  0
LINE
  8
0
  6
CONTINUOUS
 62
     7
 10
-11.58916750989995
 20
-40.50000000000001
 11
0.837239361300049
 21
-40.50000000000001
  0
LINE
  8
0
  6
CONTINUOUS
 62
     7
 10
-77.61026216146078
 20
-13.43288724967324
 11
-77.59005913978329
 21
-13.40697810496334
  0
LINE
  8
0
  6
CENTER
 62
     7
 10
-43.38319983160004
 20
-25.5
 11
-125.3831998316
 21
-25.5
  0
LINE
  8
0
  6
CONTINUOUS
 62
     7
 10
0.837239361300049
 20
-10.50000000000001
 11
-11.58916750989995
 21
-10.50000000000001
  0
LINE
  8
0
  6
CENTER
 62
     7
 10
-25.37596407429992
 20
-25.49999999999999
 11
14.62403592570001
 21
-25.49999999999999
  0
LINE
  8
0
  6
CONTINUOUS
 62
     7
 10
-77.40333802950046
 20
-12.94966765936043
 11
-77.39222279404707
 21
-12.87759011507678
  0
LINE
  8
0
  6
CONTINUOUS
 62
     7
 10
-77.52177656036004
 20
-13.29744617268159
 11
-77.49512942022837
 21
-13.24362515020084
  0
LINE
  8
0
  6
CONTINUOUS
 62
     7
 10
-77.3854737352791
 20
-12.80575111479257
 11
-77.38319983159998
 21
-12.73446440827173
  0
LINE
  8
0
  6
CONTINUOUS
 62
     7
 10
-77.63189318123716
 20
-13.45785676178999
 11
-77.61026216146078
 21
-13.43288724967324
  0
LINE
  8
0
  6
CONTINUOUS
 62
     7
 10
-20.37596407429991
 20
-31.7132034356
 11
-11.58916750989995
 21
-40.50000000000001
  0
LINE
  8
0
  6
CONTINUOUS
 62
     7
 10
-77.72184949563083
 20
-13.53608451502298
 11
-77.70731103174207
 21
-13.52600938391272
  0
LINE
  8
0
  6
CONTINUOUS
 62
     7
 10
-77.49512942022837
 20
-13.24362515020084
 11
-77.471659084916
 21
-13.18888214397097
  0
LINE
  8
0
  6
CONTINUOUS
 62
     7
 10
0.837239361300049
 20
-40.50000000000001
 11
9.624035925700005
 21
-31.7132034356
  0
LINE
  8
0
  6
CONTINUOUS
 62
     7
 10
-77.53714282649322
 20
-13.32536336151944
 11
-77.52177656036004
 21
-13.29744617268159
  0
LINE
  8
0
  6
CONTINUOUS
 62
     7
 10
-77.70731103174207
 20
-13.52600938391272
 11
-77.69329231949835
 21
-13.51538249346938
  0
LINE
  8
0
  6
CONTINUOUS
 62
     7
 10
-77.45120570995685
 20
-13.13347203150126
 11
-77.43360945088524
 21
-13.07764969030104
  0
LINE
  8
0
  6
CENTER
 62
     7
 10
-5.375964074300008
 20
-5.500000000000004
 11
-5.375964074300008
 21
-45.50000000000001
  0
LINE
  8
0
  6
CONTINUOUS
 62
     7
 10
-77.55358699598465
 20
-13.35304111226199
 11
-77.53714282649322
 21
-13.32536336151944
  0
LINE
  8
0
  6
CONTINUOUS
 62
     7
 10
-20.37596407429991
 20
-19.28679656439999
 11
-20.37596407429991
 21
-31.7132034356
  0
LINE
  8
0
  6
CONTINUOUS
 62
     7
 10
-77.43360945088524
 20
-13.07764969030104
 11
-77.4187104632353
 21
-13.02166999787963
  0
LINE
  8
0
  6
CONTINUOUS
 62
     7
 10
-77.69329231949835
 20
-13.51538249346938
 11
-77.67978930982706
 21
-13.5042766937463
  0
LINE
  8
0
  6
CONTINUOUS
 62
     7
 10
-77.67978930982706
 20
-13.5042766937463
 11
-77.65503972279748
 21
-13.48171159268916
  0
LINE
  8
0
  6
CONTINUOUS
 62
     7
 10
-11.58916750989995
 20
-10.50000000000001
 11
-20.37596407429991
 21
-19.28679656439999
  0
LINE
  8
0
  6
CONTINUOUS
 62
     7
 10
-77.4187104632353
 20
-13.02166999787963
 11
-77.40333802950046
 21
-12.94966765936043
  0
LINE
  8
0
  6
CONTINUOUS
 62
     7
 10
-46.3831998316
 20
-14.5
 11
-46.3831998316
 21
-36.5
  0
LINE
  8
0
  6
CONTINUOUS
 62
     7
 10
-77.39222279404707
 20
-12.87759011507678
 11
-77.3854737352791
 21
-12.80575111479257
  0
LINE
  8
0
  6
CONTINUOUS
 62
     7
 10
-77.57119659251973
 20
-13.3803043762848
 11
-77.55358699598465
 21
-13.35304111226199
  0
CIRCLE
  8
0
  6
CONTINUOUS
 62
     7
 10
-5.375964074300008
 20
-25.49999999999999
 40
7.000000000000006
  0
ENDSEC
  0
EOF
