  0
SECTION
  2
HEADER
  9
$ACADVER
  1
AC1004
  9
$INSBASE
 10
0.0
 20
0.0
  9
$EXTMIN
 10
-181.1407785323
 20
-8.22357090909091
  9
$EXTMAX
 10
0.1486214896999905
 20
36.5838239425
  9
$LIMMIN
 10
0.0
 20
0.0
  9
$LIMMAX
 10
12.0
 20
9.0
  9
$ORTHOMODE
 70
     0
  9
$REGENMODE
 70
     1
  9
$FILLMODE
 70
     1
  9
$QTEXTMODE
 70
     0
  9
$DRAGMODE
 70
     2
  9
$LTSCALE
 40
1.0
  9
$OSMODE
 70
    37
  9
$ATTMODE
 70
     1
  9
$TEXTSIZE
 40
0.2
  9
$TRACEWID
 40
0.05
  9
$TEXTSTYLE
  7
STANDARD
  9
$CLAYER
  8
0
  9
$CELTYPE
  6
BYLAYER
  9
$CECOLOR
 62
   256
  9
$DIMSCALE
 40
1.0
  9
$DIMASZ
 40
1.5
  9
$DIMEXO
 40
0.0625
  9
$DIMDLI
 40
0.38
  9
$DIMRND
 40
0.0
  9
$DIMDLE
 40
0.0
  9
$DIMEXE
 40
0.75
  9
$DIMTP
 40
0.0
  9
$DIMTM
 40
0.0
  9
$DIMTXT
 40
3.5
  9
$DIMCEN
 40
0.09
  9
$DIMTSZ
 40
0.0
  9
$DIMTOL
 70
     0
  9
$DIMLIM
 70
     0
  9
$DIMTIH
 70
     1
  9
$DIMTOH
 70
     1
  9
$DIMSE1
 70
     0
  9
$DIMSE2
 70
     0
  9
$DIMTAD
 70
     1
  9
$DIMZIN
 70
     0
  9
$DIMBLK
  1

  9
$DIMASO
 70
     1
  9
$DIMSHO
 70
     1
  9
$DIMPOST
  1

  9
$DIMAPOST
  1

  9
$DIMALT
 70
     0
  9
$DIMALTD
 70
     2
  9
$DIMALTF
 40
25.4
  9
$DIMLFAC
 40
1.0
  9
$DIMTOFL
 70
     0
  9
$DIMTVP
 40
0.0
  9
$DIMTIX
 70
     0
  9
$DIMSOXD
 70
     0
  9
$DIMSAH
 70
     0
  9
$DIMBLK1
  1

  9
$DIMBLK2
  1

  9
$LUNITS
 70
     2
  9
$LUPREC
 70
     4
  9
$SKETCHINC
 40
0.1
  9
$FILLETRAD
 40
0.5
  9
$AUNITS
 70
     0
  9
$AUPREC
 70
     0
  9
$MENU
  1
.
  9
$ELEVATION
 40
0.0
  9
$THICKNESS
 40
0.0
  9
$LIMCHECK
 70
     0
  9
$CHAMFERA
 40
0.0
  9
$CHAMFERB
 40
0.0
  9
$SKPOLY
 70
     0
  9
$TDCREATE
 40
2460262.721421551
  9
$TDUPDATE
 40
2460262.721421666
  9
$TDINDWG
 40
0.0000000116
  9
$TDUSRTIMER
 40
0.0000000116
  9
$USRTIMER
 70
     1
  9
$ANGBASE
 50
0.0
  9
$ANGDIR
 70
     0
  9
$PDMODE
 70
     0
  9
$PDSIZE
 40
0.0
  9
$PLINEWID
 40
0.0
  9
$COORDS
 70
     1
  9
$SPLFRAME
 70
     0
  9
$SPLINETYPE
 70
     6
  9
$SPLINESEGS
 70
     8
  9
$ATTDIA
 70
     0
  9
$ATTREQ
 70
     1
  9
$SURFTAB1
 70
     6
  9
$SURFTAB2
 70
     6
  9
$SURFTYPE
 70
     6
  9
$SURFU
 70
     6
  9
$SURFV
 70
     6
  9
$UCSNAME
  2

  9
$UCSORG
 10
0.0
 20
0.0
 30
0.0
  9
$UCSXDIR
 10
1.0
 20
0.0
 30
0.0
  9
$UCSYDIR
 10
0.0
 20
1.0
 30
0.0
  9
$USERI1
 70
     0
  9
$USERI2
 70
     0
  9
$USERI3
 70
     0
  9
$USERI4
 70
     0
  9
$USERI5
 70
     0
  9
$USERR1
 40
0.0
  9
$USERR2
 40
0.0
  9
$USERR3
 40
0.0
  9
$USERR4
 40
0.0
  9
$USERR5
 40
0.0
  9
$WORLDVIEW
 70
     1
  0
ENDSEC
  0
SECTION
  2
TABLES
  0
TABLE
  2
LTYPE
 70
     2
  0
LTYPE
  2
CONTINUOUS
 70
     0
  3
Solid line
 72
    65
 73
     0
 40
0.0
  0
LTYPE
  2
CENTER
 70
     0
  3

 72
    65
 73
     0
 40
0.0
  0
ENDTAB
  0
TABLE
  2
LAYER
 70
     2
  0
LAYER
  2
0
 70
     0
 62
     7
  6
CONTINUOUS
  0
LAYER
  2
1
 70
     0
 62
     7
  6
CONTINUOUS
  0
ENDTAB
  0
TABLE
  2
STYLE
 70
     2
  0
STYLE
  2
STANDARD
 70
     0
 40
0.0
 41
1.0
 50
0.0
 71
     0
 42
0.2
  3
txt
  4

  0
STYLE
  2
ＭＳ_ゴシック
 70
     0
 40
0.0
 41
1.0
 50
0.0
 71
     0
 42
0.2
  3
ＭＳ ゴシック.shx
  4

  0
ENDTAB
  0
TABLE
  2
VIEW
 70
     0
  0
ENDTAB
  0
ENDSEC
  0
SECTION
  2
BLOCKS
  0
ENDSEC
  0
SECTION
  2
ENTITIES
  0
POLYLINE
  8
1
  6
CONTINUOUS
 62
     7
 66
     1
  0
VERTEX
  8
1
  6
CONTINUOUS
 62
     7
 10
-85.92496105549999
 20
8.650511468995564
  0
VERTEX
  8
1
  6
CONTINUOUS
 62
     7
 10
-86.12005137751612
 20
8.631315037554218
  0
VERTEX
  8
1
  6
CONTINUOUS
 62
     7
 10
-86.30764448786508
 20
8.574463451324984
  0
VERTEX
  8
1
  6
CONTINUOUS
 62
     7
 10
-86.4805312885196
 20
8.48214148488392
  0
VERTEX
  8
1
  6
CONTINUOUS
 62
     7
 10
-86.63206783668655
 20
8.357897019626595
  0
VERTEX
  8
1
  6
CONTINUOUS
 62
     7
 10
-86.75643066780253
 20
8.206504700675755
  0
VERTEX
  8
1
  6
CONTINUOUS
 62
     7
 10
-86.84884058801129
 20
8.033782449946884
  0
VERTEX
  8
1
  6
CONTINUOUS
 62
     7
 10
-86.90574633590322
 20
7.846367886671743
  0
VERTEX
  8
1
  6
CONTINUOUS
 62
     7
 10
-86.92496105549999
 20
7.651463247413698
  0
SEQEND
  8
1
  6
CONTINUOUS
 62
     7
  0
POLYLINE
  8
1
  6
CONTINUOUS
 62
     7
 66
     1
  0
VERTEX
  8
1
  6
CONTINUOUS
 62
     7
 10
-86.92496105549999
 20
22.22134894918634
  0
VERTEX
  8
1
  6
CONTINUOUS
 62
     7
 10
-86.90574633590325
 20
22.02644430992829
  0
VERTEX
  8
1
  6
CONTINUOUS
 62
     7
 10
-86.84884058801131
 20
21.83902974665314
  0
VERTEX
  8
1
  6
CONTINUOUS
 62
     7
 10
-86.75643066780259
 20
21.66630749592426
  0
VERTEX
  8
1
  6
CONTINUOUS
 62
     7
 10
-86.6320678366866
 20
21.51491517697341
  0
VERTEX
  8
1
  6
CONTINUOUS
 62
     7
 10
-86.48053128851966
 20
21.39067071171608
  0
VERTEX
  8
1
  6
CONTINUOUS
 62
     7
 10
-86.30764448786516
 20
21.298348745275
  0
VERTEX
  8
1
  6
CONTINUOUS
 62
     7
 10
-86.1200513775162
 20
21.24149715904575
  0
VERTEX
  8
1
  6
CONTINUOUS
 62
     7
 10
-85.92496105550008
 20
21.22230072760438
  0
SEQEND
  8
1
  6
CONTINUOUS
 62
     7
  0
POLYLINE
  8
1
  6
CONTINUOUS
 62
     7
 66
     1
  0
VERTEX
  8
1
  6
CONTINUOUS
 62
     7
 10
-85.92496105549996
 20
18.914449628778
  0
VERTEX
  8
1
  6
CONTINUOUS
 62
     7
 10
-86.12005137751609
 20
18.90146835237634
  0
VERTEX
  8
1
  6
CONTINUOUS
 62
     7
 10
-86.30764448786506
 20
18.86302338634351
  0
VERTEX
  8
1
  6
CONTINUOUS
 62
     7
 10
-86.48053128851957
 20
18.80059214916394
  0
VERTEX
  8
1
  6
CONTINUOUS
 62
     7
 10
-86.63206783668652
 20
18.71657383827062
  0
VERTEX
  8
1
  6
CONTINUOUS
 62
     7
 10
-86.75643066780252
 20
18.61419723023315
  0
VERTEX
  8
1
  6
CONTINUOUS
 62
     7
 10
-86.84884058801127
 20
18.49739660068497
  0
VERTEX
  8
1
  6
CONTINUOUS
 62
     7
 10
-86.90574633590322
 20
18.37066053231705
  0
VERTEX
  8
1
  6
CONTINUOUS
 62
     7
 10
-86.92496105549999
 20
18.23885942116237
  0
SEQEND
  8
1
  6
CONTINUOUS
 62
     7
  0
POLYLINE
  8
1
  6
CONTINUOUS
 62
     7
 66
     1
  0
VERTEX
  8
1
  6
CONTINUOUS
 62
     7
 10
-86.92496105549999
 20
11.63395277543763
  0
VERTEX
  8
1
  6
CONTINUOUS
 62
     7
 10
-86.90574633590322
 20
11.50215166428295
  0
VERTEX
  8
1
  6
CONTINUOUS
 62
     7
 10
-86.84884058801129
 20
11.37541559591503
  0
VERTEX
  8
1
  6
CONTINUOUS
 62
     7
 10
-86.75643066780253
 20
11.25861496636684
  0
VERTEX
  8
1
  6
CONTINUOUS
 62
     7
 10
-86.63206783668655
 20
11.15623835832938
  0
VERTEX
  8
1
  6
CONTINUOUS
 62
     7
 10
-86.4805312885196
 20
11.07222004743605
  0
VERTEX
  8
1
  6
CONTINUOUS
 62
     7
 10
-86.30764448786508
 20
11.00978881025648
  0
VERTEX
  8
1
  6
CONTINUOUS
 62
     7
 10
-86.12005137751612
 20
10.97134384422364
  0
VERTEX
  8
1
  6
CONTINUOUS
 62
     7
 10
-85.92496105549999
 20
10.95836256782198
  0
SEQEND
  8
1
  6
CONTINUOUS
 62
     7
  0
POLYLINE
  8
1
  6
CONTINUOUS
 62
     7
 66
     1
  0
VERTEX
  8
1
  6
CONTINUOUS
 62
     7
 10
-85.92496105549999
 20
3.024708356482941
  0
VERTEX
  8
1
  6
CONTINUOUS
 62
     7
 10
-86.12005137751605
 20
3.023870222185734
  0
VERTEX
  8
1
  6
CONTINUOUS
 62
     7
 10
-86.30764448786493
 20
3.021388028325124
  0
VERTEX
  8
1
  6
CONTINUOUS
 62
     7
 10
-86.4805312885194
 20
3.017357164219142
  0
VERTEX
  8
1
  6
CONTINUOUS
 62
     7
 10
-86.63206783668632
 20
3.011932533714849
  0
VERTEX
  8
1
  6
CONTINUOUS
 62
     7
 10
-86.75643066780232
 20
3.005322602320355
  0
VERTEX
  8
1
  6
CONTINUOUS
 62
     7
 10
-86.8488405880111
 20
2.997781385992258
  0
VERTEX
  8
1
  6
CONTINUOUS
 62
     7
 10
-86.90574633590312
 20
2.989598689444884
  0
VERTEX
  8
1
  6
CONTINUOUS
 62
     7
 10
-86.92496105549999
 20
2.981088969117639
  0
SEQEND
  8
1
  6
CONTINUOUS
 62
     7
  0
POLYLINE
  8
1
  6
CONTINUOUS
 62
     7
 66
     1
  0
VERTEX
  8
1
  6
CONTINUOUS
 62
     7
 10
-86.92496105549999
 20
26.89172322748235
  0
VERTEX
  8
1
  6
CONTINUOUS
 62
     7
 10
-86.90574633590312
 20
26.88321350715511
  0
VERTEX
  8
1
  6
CONTINUOUS
 62
     7
 10
-86.8488405880111
 20
26.87503081060774
  0
VERTEX
  8
1
  6
CONTINUOUS
 62
     7
 10
-86.75643066780232
 20
26.86748959427964
  0
VERTEX
  8
1
  6
CONTINUOUS
 62
     7
 10
-86.63206783668632
 20
26.86087966288514
  0
VERTEX
  8
1
  6
CONTINUOUS
 62
     7
 10
-86.4805312885194
 20
26.85545503238085
  0
VERTEX
  8
1
  6
CONTINUOUS
 62
     7
 10
-86.30764448786493
 20
26.85142416827487
  0
VERTEX
  8
1
  6
CONTINUOUS
 62
     7
 10
-86.12005137751605
 20
26.84894197441426
  0
VERTEX
  8
1
  6
CONTINUOUS
 62
     7
 10
-85.92496105549999
 20
26.84810384011705
  0
SEQEND
  8
1
  6
CONTINUOUS
 62
     7
  0
POLYLINE
  8
1
  6
CONTINUOUS
 62
     7
 66
     1
  0
VERTEX
  8
1
  6
CONTINUOUS
 62
     7
 10
-85.92496105549999
 20
3.024708356482941
  0
VERTEX
  8
1
  6
CONTINUOUS
 62
     7
 10
-86.12005137751605
 20
3.023870222185734
  0
VERTEX
  8
1
  6
CONTINUOUS
 62
     7
 10
-86.30764448786493
 20
3.021388028325124
  0
VERTEX
  8
1
  6
CONTINUOUS
 62
     7
 10
-86.4805312885194
 20
3.017357164219142
  0
VERTEX
  8
1
  6
CONTINUOUS
 62
     7
 10
-86.63206783668632
 20
3.011932533714849
  0
VERTEX
  8
1
  6
CONTINUOUS
 62
     7
 10
-86.75643066780232
 20
3.005322602320355
  0
VERTEX
  8
1
  6
CONTINUOUS
 62
     7
 10
-86.8488405880111
 20
2.997781385992258
  0
VERTEX
  8
1
  6
CONTINUOUS
 62
     7
 10
-86.90574633590312
 20
2.989598689444884
  0
VERTEX
  8
1
  6
CONTINUOUS
 62
     7
 10
-86.92496105549999
 20
2.981088969117639
  0
SEQEND
  8
1
  6
CONTINUOUS
 62
     7
  0
POLYLINE
  8
1
  6
CONTINUOUS
 62
     7
 66
     1
  0
VERTEX
  8
1
  6
CONTINUOUS
 62
     7
 10
-85.92496105549999
 20
3.024708356482941
  0
VERTEX
  8
1
  6
CONTINUOUS
 62
     7
 10
-86.12005137751605
 20
3.023870222185734
  0
VERTEX
  8
1
  6
CONTINUOUS
 62
     7
 10
-86.30764448786493
 20
3.021388028325124
  0
VERTEX
  8
1
  6
CONTINUOUS
 62
     7
 10
-86.4805312885194
 20
3.017357164219142
  0
VERTEX
  8
1
  6
CONTINUOUS
 62
     7
 10
-86.63206783668632
 20
3.011932533714849
  0
VERTEX
  8
1
  6
CONTINUOUS
 62
     7
 10
-86.75643066780232
 20
3.005322602320355
  0
VERTEX
  8
1
  6
CONTINUOUS
 62
     7
 10
-86.8488405880111
 20
2.997781385992258
  0
VERTEX
  8
1
  6
CONTINUOUS
 62
     7
 10
-86.90574633590312
 20
2.989598689444884
  0
VERTEX
  8
1
  6
CONTINUOUS
 62
     7
 10
-86.92496105549999
 20
2.981088969117639
  0
SEQEND
  8
1
  6
CONTINUOUS
 62
     7
  0
LINE
  8
0
  6
CONTINUOUS
 62
     7
 10
-89.9249610555
 20
31.5864060983
 11
-100.7249610555
 21
31.5864060983
  0
LINE
  8
0
  6
CONTINUOUS
 62
     7
 10
-89.9249610555
 20
-1.713593901700006
 11
-100.7249610555
 21
-1.713593901700006
  0
LINE
  8
0
  6
CONTINUOUS
 62
     7
 10
-78.03689064412836
 20
27.19278094809917
 11
-78.013420308816
 21
27.24752395432904
  0
LINE
  8
0
  6
CONTINUOUS
 62
     7
 10
-78.07890405039322
 20
27.11104273678057
 11
-78.06353778426003
 21
27.13895992561842
  0
LINE
  8
0
  6
CONTINUOUS
 62
     7
 10
-77.94509925340046
 20
27.48673843893958
 11
-77.93398401794707
 21
27.55881598322323
  0
LINE
  8
0
  6
CONTINUOUS
 62
     7
 10
-78.09534821988464
 20
27.08336498603801
 11
-78.07890405039322
 21
27.11104273678057
  0
LINE
  8
0
  6
CONTINUOUS
 62
     7
 10
-78.17365440513716
 20
26.97854933651002
 11
-78.15202338536078
 21
27.00351884862677
  0
LINE
  8
0
  6
CONTINUOUS
 62
     7
 10
-78.24907225564206
 20
26.91039671438729
 11
-78.23505354339835
 21
26.92102360483063
  0
LINE
  8
0
  6
CONTINUOUS
 62
     7
 10
-77.99296693385685
 20
27.30293406679875
 11
-77.97537067478524
 21
27.35875640799896
  0
LINE
  8
0
  6
CONTINUOUS
 62
     7
 10
-78.22155053372707
 20
26.93212940455371
 11
-78.19680094669748
 21
26.95469450561085
  0
LINE
  8
0
  6
CONTINUOUS
 62
     7
 10
-78.15202338536078
 20
27.00351884862677
 11
-78.13182036368329
 21
27.02942799333667
  0
LINE
  8
0
  6
CONTINUOUS
 62
     7
 10
-77.97537067478524
 20
27.35875640799896
 11
-77.9604716871353
 21
27.41473610042037
  0
LINE
  8
0
  6
CONTINUOUS
 62
     7
 10
-77.9272349591791
 20
27.63065498350743
 11
-77.92496105549998
 21
27.70194169002828
  0
LINE
  8
0
  6
CONTINUOUS
 62
     7
 10
-78.19680094669748
 20
26.95469450561085
 11
-78.17365440513716
 21
26.97854933651002
  0
LINE
  8
0
  6
CONTINUOUS
 62
     7
 10
-78.06353778426003
 20
27.13895992561842
 11
-78.03689064412836
 21
27.19278094809917
  0
LINE
  8
0
  6
CONTINUOUS
 62
     7
 10
-78.23505354339835
 20
26.92102360483063
 11
-78.22155053372707
 21
26.93212940455371
  0
LINE
  8
0
  6
CONTINUOUS
 62
     7
 10
-77.93398401794707
 20
27.55881598322323
 11
-77.9272349591791
 21
27.63065498350743
  0
LINE
  8
0
  6
CONTINUOUS
 62
     7
 10
-78.11295781641972
 20
27.05610172201521
 11
-78.09534821988464
 21
27.08336498603801
  0
LINE
  8
0
  6
CONTINUOUS
 62
     7
 10
-77.9604716871353
 20
27.41473610042037
 11
-77.94509925340046
 21
27.48673843893958
  0
LINE
  8
0
  6
CONTINUOUS
 62
     7
 10
-78.013420308816
 20
27.24752395432904
 11
-77.99296693385685
 21
27.30293406679875
  0
LINE
  8
0
  6
CONTINUOUS
 62
     7
 10
-78.13182036368329
 20
27.02942799333667
 11
-78.11295781641972
 21
27.05610172201521
  0
LINE
  8
0
  6
CONTINUOUS
 62
     7
 10
-102.7249610555
 20
10.8758000377
 11
-112.7249610555
 21
10.8758000377
  0
LINE
  8
0
  6
CONTINUOUS
 62
     7
 10
-112.7249610555
 20
9.0485273105
 11
-102.7249610555
 21
9.0485273105
  0
LINE
  8
0
  6
CONTINUOUS
 62
     7
 10
-112.7249610555
 20
11.8909515529
 11
-102.7249610555
 21
11.8909515529
  0
LINE
  8
0
  6
CONTINUOUS
 62
     7
 10
-112.7249610555
 20
7.830345492299995
 11
-102.7249610555
 21
7.830345492299995
  0
LINE
  8
0
  6
CONTINUOUS
 62
     7
 10
-100.7249610555
 20
-1.813593901699995
 11
-112.7249610555
 21
-1.813593901699995
  0
LINE
  8
0
  6
CONTINUOUS
 62
     7
 10
-112.7249610555
 20
3.160648522599993
 11
-102.7249610555
 21
3.160648522599993
  0
LINE
  8
0
  6
CONTINUOUS
 62
     7
 10
-112.7249610555
 20
2.551557613499997
 11
-102.7249610555
 21
2.551557613499997
  0
LINE
  8
0
  6
CONTINUOUS
 62
     7
 10
-112.7249610555
 20
1.9424667044
 11
-102.7249610555
 21
1.9424667044
  0
LINE
  8
0
  6
CONTINUOUS
 62
     7
 10
-112.7249610555
 20
4.581860643799993
 11
-102.7249610555
 21
4.581860643799993
  0
LINE
  8
0
  6
CONTINUOUS
 62
     7
 10
-112.7249610555
 20
4.175800037700003
 11
-102.7249610555
 21
4.175800037700003
  0
LINE
  8
0
  6
CONTINUOUS
 62
     7
 10
-112.7249610555
 20
1.637921249900004
 11
-102.7249610555
 21
1.637921249900004
  0
LINE
  8
0
  6
CONTINUOUS
 62
     7
 10
-112.7249610555
 20
9.454587916500001
 11
-102.7249610555
 21
9.454587916500001
  0
LINE
  8
0
  6
CONTINUOUS
 62
     7
 10
-123.1837801006
 20
0.9888382153000058
 11
-112.7249610555
 21
-1.813593901699995
  0
LINE
  8
0
  6
CONTINUOUS
 62
     7
 10
-123.9249610555
 20
1.954764041499996
 11
-123.9249610555
 21
27.9180481551
  0
LINE
  8
0
  6
CONTINUOUS
 62
     7
 10
-112.7249610555
 20
12.500042462
 11
-102.7249610555
 21
12.500042462
  0
LINE
  8
0
  6
CONTINUOUS
 62
     7
 10
-112.7249610555
 20
7.424284886200005
 11
-102.7249610555
 21
7.424284886200005
  0
LINE
  8
0
  6
CONTINUOUS
 62
     7
 10
-112.7249610555
 20
1.333375795300004
 11
-102.7249610555
 21
1.333375795300004
  0
LINE
  8
0
  6
CONTINUOUS
 62
     7
 10
-112.7249610555
 20
1.028830340799994
 11
-102.7249610555
 21
1.028830340799994
  0
LINE
  8
0
  6
CONTINUOUS
 62
     7
 10
-112.7249610555
 20
-0.1893514773999988
 11
-102.7249610555
 21
-0.1893514773999988
  0
LINE
  8
0
  6
CONTINUOUS
 62
     7
 10
-112.7249610555
 20
2.247012158899997
 11
-102.7249610555
 21
2.247012158899997
  0
LINE
  8
0
  6
CONTINUOUS
 62
     7
 10
-112.7249610555
 20
31.68640609829999
 11
-112.7249610555
 21
-1.813593901700008
  0
LINE
  8
0
  6
CONTINUOUS
 62
     7
 10
-112.7249610555
 20
7.018224280200005
 11
-102.7249610555
 21
7.018224280200005
  0
LINE
  8
0
  6
CONTINUOUS
 62
     7
 10
-100.7249610555
 20
22.40880428730001
 11
-94.2249610555
 21
22.40880428730001
  0
LINE
  8
0
  6
CONTINUOUS
 62
     7
 10
-112.7249610555
 20
4.987921249899996
 11
-102.7249610555
 21
4.987921249899996
  0
LINE
  8
0
  6
CONTINUOUS
 62
     7
 10
-112.7249610555
 20
0.724284886199994
 11
-102.7249610555
 21
0.724284886199994
  0
LINE
  8
0
  6
CONTINUOUS
 62
     7
 10
-112.7249610555
 20
-0.4938969319999986
 11
-102.7249610555
 21
-0.4938969319999986
  0
LINE
  8
0
  6
CONTINUOUS
 62
     7
 10
-89.9249610555
 20
31.5864060983
 11
-89.9249610555
 21
-1.713593901699992
  0
LINE
  8
0
  6
CONTINUOUS
 62
     7
 10
-112.7249610555
 20
0.4197394316999975
 11
-102.7249610555
 21
0.4197394316999975
  0
LINE
  8
0
  6
CONTINUOUS
 62
     7
 10
-112.7249610555
 20
-0.7984423864999951
 11
-102.7249610555
 21
-0.7984423864999951
  0
LINE
  8
0
  6
CONTINUOUS
 62
     7
 10
-112.7249610555
 20
-1.102987841099995
 11
-102.7249610555
 21
-1.102987841099995
  0
LINE
  8
0
  6
CONTINUOUS
 62
     7
 10
-112.7249610555
 20
10.3682242802
 11
-102.7249610555
 21
10.3682242802
  0
LINE
  8
0
  6
CONTINUOUS
 62
     7
 10
-112.7249610555
 20
-1.407533295600005
 11
-102.7249610555
 21
-1.407533295600005
  0
LINE
  8
0
  6
CONTINUOUS
 62
     7
 10
-112.7249610555
 20
6.206103067999999
 11
-102.7249610555
 21
6.206103067999999
  0
LINE
  8
0
  6
CONTINUOUS
 62
     7
 10
-102.7249610555
 20
0.1151939770999977
 11
-112.7249610555
 21
0.1151939770999977
  0
LINE
  8
0
  6
CONTINUOUS
 62
     7
 10
-112.7249610555
 20
13.7182242802
 11
-102.7249610555
 21
13.7182242802
  0
LINE
  8
0
  6
CONTINUOUS
 62
     7
 10
-112.7249610555
 20
8.642466704399999
 11
-102.7249610555
 21
8.642466704399999
  0
LINE
  8
0
  6
CONTINUOUS
 62
     7
 10
-123.1837801006
 20
28.88397398140001
 11
-112.7249610555
 21
31.68640609829999
  0
LINE
  8
0
  6
CONTINUOUS
 62
     7
 10
-102.7249610555
 20
9.860648522600004
 11
-112.7249610555
 21
9.860648522600004
  0
LINE
  8
0
  6
CONTINUOUS
 62
     7
 10
-100.7249610555
 20
-1.813593901699995
 11
-100.7249610555
 21
31.68640609829999
  0
LINE
  8
0
  6
CONTINUOUS
 62
     7
 10
-112.7249610555
 20
11.38337579529999
 11
-102.7249610555
 21
11.38337579529999
  0
LINE
  8
0
  6
CONTINUOUS
 62
     7
 10
-100.7249610555
 20
31.68640609829999
 11
-112.7249610555
 21
31.68640609829999
  0
LINE
  8
0
  6
CONTINUOUS
 62
     7
 10
-112.7249610555
 20
15.5454970074
 11
-102.7249610555
 21
15.5454970074
  0
LINE
  8
0
  6
CONTINUOUS
 62
     7
 10
-112.7249610555
 20
16.1545879165
 11
-102.7249610555
 21
16.1545879165
  0
LINE
  8
0
  6
CONTINUOUS
 62
     7
 10
-112.7249610555
 20
-1.712078750100002
 11
-102.7249610555
 21
-1.712078750100002
  0
LINE
  8
0
  6
CONTINUOUS
 62
     7
 10
-91.9249610555
 20
31.5864060983
 11
-91.9249610555
 21
-1.713593901699992
  0
LINE
  8
0
  6
CONTINUOUS
 62
     7
 10
-112.7249610555
 20
3.769739431700003
 11
-102.7249610555
 21
3.769739431700003
  0
LINE
  8
0
  6
CONTINUOUS
 62
     7
 10
-112.7249610555
 20
16.7636788256
 11
-102.7249610555
 21
16.7636788256
  0
LINE
  8
0
  6
CONTINUOUS
 62
     7
 10
-112.7249610555
 20
17.37276973469999
 11
-102.7249610555
 21
17.37276973469999
  0
LINE
  8
0
  6
CONTINUOUS
 62
     7
 10
-112.7249610555
 20
13.10913337109999
 11
-102.7249610555
 21
13.10913337109999
  0
LINE
  8
0
  6
CONTINUOUS
 62
     7
 10
-112.7249610555
 20
6.612163674100002
 11
-102.7249610555
 21
6.612163674100002
  0
LINE
  8
0
  6
CONTINUOUS
 62
     7
 10
-112.7249610555
 20
17.98186064380002
 11
-102.7249610555
 21
17.98186064380002
  0
LINE
  8
0
  6
CONTINUOUS
 62
     7
 10
-112.7249610555
 20
18.48943640140001
 11
-102.7249610555
 21
18.48943640140001
  0
LINE
  8
0
  6
CONTINUOUS
 62
     7
 10
-102.7249610555
 20
18.9970121589
 11
-112.7249610555
 21
18.9970121589
  0
LINE
  8
0
  6
CONTINUOUS
 62
     7
 10
-112.7249610555
 20
3.465193977100003
 11
-102.7249610555
 21
3.465193977100003
  0
LINE
  8
0
  6
CONTINUOUS
 62
     7
 10
-100.7249610555
 20
7.464007909399994
 11
-94.2249610555
 21
7.464007909399994
  0
LINE
  8
0
  6
CONTINUOUS
 62
     7
 10
-102.7249610555
 20
2.856103067999993
 11
-112.7249610555
 21
2.856103067999993
  0
LINE
  8
0
  6
CONTINUOUS
 62
     7
 10
-112.7249610555
 20
19.50458791649999
 11
-102.7249610555
 21
19.50458791649999
  0
LINE
  8
0
  6
CONTINUOUS
 62
     7
 10
-112.7249610555
 20
5.393981855899995
 11
-102.7249610555
 21
5.393981855899995
  0
LINE
  8
0
  6
CONTINUOUS
 62
     7
 10
-102.7249610555
 20
31.68640609829999
 11
-102.7249610555
 21
-1.813593901700008
  0
LINE
  8
0
  6
CONTINUOUS
 62
     7
 10
-112.7249610555
 20
8.236406098299994
 11
-102.7249610555
 21
8.236406098299994
  0
LINE
  8
0
  6
CONTINUOUS
 62
     7
 10
-112.7249610555
 20
5.800042461999999
 11
-102.7249610555
 21
5.800042461999999
  0
LINE
  8
0
  6
CONTINUOUS
 62
     7
 10
-112.7249610555
 20
14.3273151892
 11
-102.7249610555
 21
14.3273151892
  0
LINE
  8
0
  6
CONTINUOUS
 62
     7
 10
-78.40328419162371
 20
26.8490428075699
 11
-78.39248454272344
 21
26.85019825753297
  0
LINE
  8
0
  6
CONTINUOUS
 62
     7
 10
-112.7249610555
 20
21.63640609829999
 11
-102.7249610555
 21
21.63640609829999
  0
LINE
  8
0
  6
CONTINUOUS
 62
     7
 10
-112.7249610555
 20
24.0727697347
 11
-102.7249610555
 21
24.0727697347
  0
LINE
  8
0
  6
CONTINUOUS
 62
     7
 10
-112.7249610555
 20
28.84398185589999
 11
-102.7249610555
 21
28.84398185589999
  0
LINE
  8
0
  6
CENTER
 62
     7
 10
-181.1407785323
 20
14.93640609830001
 11
-136.2646401302
 21
14.93640609830001
  0
LINE
  8
0
  6
CONTINUOUS
 62
     7
 10
-78.42496105550003
 20
26.848103840117
 11
-78.41412119409732
 21
26.84834061079726
  0
LINE
  8
0
  6
CONTINUOUS
 62
     7
 10
-112.7249610555
 20
24.47883034079999
 11
-102.7249610555
 21
24.47883034079999
  0
LINE
  8
0
  6
CONTINUOUS
 62
     7
 10
-112.7249610555
 20
28.2348909468
 11
-102.7249610555
 21
28.2348909468
  0
LINE
  8
0
  6
CONTINUOUS
 62
     7
 10
-89.9249610555
 20
8.723202662700006
 11
-86.9249610555
 21
8.723202662700006
  0
LINE
  8
0
  6
CONTINUOUS
 62
     7
 10
-112.7249610555
 20
30.3667091286
 11
-102.7249610555
 21
30.3667091286
  0
LINE
  8
0
  6
CONTINUOUS
 62
     7
 10
-89.9249610555
 20
29.93640609829999
 11
-86.9249610555
 21
29.93640609829999
  0
LINE
  8
0
  6
CONTINUOUS
 62
     7
 10
-112.7249610555
 20
23.2606485226
 11
-102.7249610555
 21
23.2606485226
  0
LINE
  8
0
  6
CONTINUOUS
 62
     7
 10
-36.9751512019
 20
8.723202662700006
 11
-28.1883546375
 21
-0.063593901700007
  0
LINE
  8
0
  6
CONTINUOUS
 62
     7
 10
-15.76194776629999
 20
29.93640609829999
 11
-28.1883546375
 21
29.93640609829999
  0
LINE
  8
0
  6
CONTINUOUS
 62
     7
 10
-112.7249610555
 20
20.4182242802
 11
-102.7249610555
 21
20.4182242802
  0
LINE
  8
0
  6
CONTINUOUS
 62
     7
 10
-112.7249610555
 20
22.85458791650001
 11
-102.7249610555
 21
22.85458791650001
  0
LINE
  8
0
  6
CONTINUOUS
 62
     7
 10
-112.7249610555
 20
27.6258000377
 11
-102.7249610555
 21
27.6258000377
  0
LINE
  8
0
  6
CONTINUOUS
 62
     7
 10
-112.7249610555
 20
27.93034549229999
 11
-102.7249610555
 21
27.93034549229999
  0
LINE
  8
0
  6
CONTINUOUS
 62
     7
 10
-6.975151201899996
 20
8.723202662700006
 11
-6.975151201899996
 21
21.14960953390001
  0
LINE
  8
0
  6
CONTINUOUS
 62
     7
 10
-94.2249610555
 20
22.40880428730001
 11
-94.2249610555
 21
7.193750863000004
  0
LINE
  8
0
  6
CONTINUOUS
 62
     7
 10
-77.92496105549998
 20
27.93640609829999
 11
-73.9249610555
 21
27.93640609829999
  0
LINE
  8
0
  6
CONTINUOUS
 62
     7
 10
-112.7249610555
 20
26.103072765
 11
-102.7249610555
 21
26.103072765
  0
LINE
  8
0
  6
CONTINUOUS
 62
     7
 10
-112.7249610555
 20
29.45307276499999
 11
-102.7249610555
 21
29.45307276499999
  0
LINE
  8
0
  6
CONTINUOUS
 62
     7
 10
-112.7249610555
 20
25.69701215890001
 11
-102.7249610555
 21
25.69701215890001
  0
LINE
  8
0
  6
CONTINUOUS
 62
     7
 10
-112.7249610555
 20
23.66670912860001
 11
-102.7249610555
 21
23.66670912860001
  0
LINE
  8
0
  6
CONTINUOUS
 62
     7
 10
-112.7249610555
 20
25.29095155289999
 11
-102.7249610555
 21
25.29095155289999
  0
LINE
  8
0
  6
CONTINUOUS
 62
     7
 10
-112.7249610555
 20
26.40761821950001
 11
-102.7249610555
 21
26.40761821950001
  0
LINE
  8
0
  6
CONTINUOUS
 62
     7
 10
-71.9249610555
 20
25.93640609829999
 11
-46.9249610555
 21
25.93640609829999
  0
LINE
  8
0
  6
CONTINUOUS
 62
     7
 10
-28.1883546375
 20
29.93640609829999
 11
-36.9751512019
 21
21.14960953390001
  0
LINE
  8
0
  6
CONTINUOUS
 62
     7
 10
-112.7249610555
 20
29.14852731050001
 11
-102.7249610555
 21
29.14852731050001
  0
LINE
  8
0
  6
CENTER
 62
     7
 10
-156.5533531251
 20
36.5838239425
 11
-156.5533531251
 21
-6.76244610489999
  0
LINE
  8
0
  6
CONTINUOUS
 62
     7
 10
-112.7249610555
 20
24.88489094680001
 11
-102.7249610555
 21
24.88489094680001
  0
LINE
  8
0
  6
CONTINUOUS
 62
     7
 10
-112.7249610555
 20
21.2303454923
 11
-102.7249610555
 21
21.2303454923
  0
LINE
  8
0
  6
CONTINUOUS
 62
     7
 10
-112.7249610555
 20
28.53943640140001
 11
-102.7249610555
 21
28.53943640140001
  0
LINE
  8
0
  6
CONTINUOUS
 62
     7
 10
-77.92496105549998
 20
1.936406098299995
 11
-73.9249610555
 21
1.936406098299995
  0
LINE
  8
0
  6
CONTINUOUS
 62
     7
 10
-15.76194776629999
 20
-0.0635939016999931
 11
-6.975151201899996
 21
8.723202662700006
  0
LINE
  8
0
  6
CONTINUOUS
 62
     7
 10
-112.7249610555
 20
30.06216367410001
 11
-102.7249610555
 21
30.06216367410001
  0
LINE
  8
0
  6
CONTINUOUS
 62
     7
 10
-6.975151201899996
 20
21.14960953390001
 11
-15.76194776629999
 21
29.93640609829999
  0
LINE
  8
0
  6
CONTINUOUS
 62
     7
 10
-102.7249610555
 20
20.01216367410001
 11
-112.7249610555
 21
20.01216367410001
  0
LINE
  8
0
  6
CENTER
 62
     7
 10
-127.5953861207
 20
14.93640609830001
 11
-45.4924510897
 21
14.93640609830001
  0
LINE
  8
0
  6
CONTINUOUS
 62
     7
 10
-112.7249610555
 20
26.71216367409999
 11
-102.7249610555
 21
26.71216367409999
  0
LINE
  8
0
  6
CONTINUOUS
 62
     7
 10
-71.9249610555
 20
3.936406098299996
 11
-46.9249610555
 21
3.936406098299996
  0
LINE
  8
0
  6
CENTER
 62
     7
 10
-21.97515120189999
 20
36.07386782430001
 11
-21.97515120189999
 21
-3.702709395699999
  0
LINE
  8
0
  6
CONTINUOUS
 62
     7
 10
-112.7249610555
 20
30.97580003769999
 11
-102.7249610555
 21
30.97580003769999
  0
LINE
  8
0
  6
CONTINUOUS
 62
     7
 10
-72.9249610555
 20
2.936406098299996
 11
-72.9249610555
 21
26.93640609829999
  0
LINE
  8
0
  6
CONTINUOUS
 62
     7
 10
-112.7249610555
 20
20.82428488620002
 11
-102.7249610555
 21
20.82428488620002
  0
LINE
  8
0
  6
CONTINUOUS
 62
     7
 10
-102.7249610555
 20
29.7576182195
 11
-112.7249610555
 21
29.7576182195
  0
LINE
  8
0
  6
CONTINUOUS
 62
     7
 10
-102.7249610555
 20
27.01670912860001
 11
-112.7249610555
 21
27.01670912860001
  0
LINE
  8
0
  6
CONTINUOUS
 62
     7
 10
-36.9751512019
 20
21.14960953390001
 11
-36.9751512019
 21
8.723202662700006
  0
LINE
  8
0
  6
CONTINUOUS
 62
     7
 10
-112.7249610555
 20
31.58489094679999
 11
-102.7249610555
 21
31.58489094679999
  0
LINE
  8
0
  6
CONTINUOUS
 62
     7
 10
-78.42496105550003
 20
28.52755089100471
 11
-85.92496105549999
 21
28.52755089100471
  0
LINE
  8
0
  6
CONTINUOUS
 62
     7
 10
-77.92496105549998
 20
28.02755089100468
 11
-77.92496105549998
 21
27.70194169002825
  0
LINE
  8
0
  6
CONTINUOUS
 62
     7
 10
-89.9249610555
 20
-0.0635939016999931
 11
-86.9249610555
 21
-0.0635939016999931
  0
LINE
  8
0
  6
CONTINUOUS
 62
     7
 10
-112.7249610555
 20
22.04246670440001
 11
-102.7249610555
 21
22.04246670440001
  0
LINE
  8
0
  6
CONTINUOUS
 62
     7
 10
-112.7249610555
 20
22.4485273105
 11
-102.7249610555
 21
22.4485273105
  0
LINE
  8
0
  6
CONTINUOUS
 62
     7
 10
-112.7249610555
 20
31.28034549230001
 11
-102.7249610555
 21
31.28034549230001
  0
LINE
  8
0
  6
CENTER
 62
     7
 10
-41.6677802032
 20
14.93640609830001
 11
0.1486214896999905
 21
14.93640609830001
  0
LINE
  8
0
  6
CONTINUOUS
 62
     7
 10
-89.9249610555
 20
21.14960953390001
 11
-86.9249610555
 21
21.14960953390001
  0
LINE
  8
0
  6
CONTINUOUS
 62
     7
 10
-78.41412119409732
 20
26.84834061079726
 11
-78.40328419162371
 21
26.8490428075699
  0
LINE
  8
0
  6
CONTINUOUS
 62
     7
 10
-112.7249610555
 20
27.32125458319999
 11
-102.7249610555
 21
27.32125458319999
  0
LINE
  8
0
  6
CONTINUOUS
 62
     7
 10
-112.7249610555
 20
30.67125458320001
 11
-102.7249610555
 21
30.67125458320001
  0
LINE
  8
0
  6
CONTINUOUS
 62
     7
 10
-28.1883546375
 20
-0.0635939016999931
 11
-15.76194776629999
 21
-0.0635939016999931
  0
LINE
  8
0
  6
CONTINUOUS
 62
     7
 10
-86.9249610555
 20
-0.0635939016999931
 11
-86.9249610555
 21
29.93640609829999
  0
LINE
  8
0
  6
CONTINUOUS
 62
     7
 10
-77.92704402697373
 20
20.73338580885735
 11
-77.93322488821666
 21
20.78133578213885
  0
LINE
  8
0
  6
CONTINUOUS
 62
     7
 10
-78.33046185791173
 20
21.21250062428497
 11
-78.34415282268172
 21
21.21515459692174
  0
LINE
  8
0
  6
CONTINUOUS
 62
     7
 10
-78.14984953670891
 20
21.13281072578448
 11
-78.16548298156259
 21
21.14353481626539
  0
LINE
  8
0
  6
CONTINUOUS
 62
     7
 10
-78.39248454272344
 20
26.85019825753297
 11
-78.38175674204042
 21
26.85179478778436
  0
LINE
  8
0
  6
CONTINUOUS
 62
     7
 10
-78.33119183315243
 20
26.86553501183804
 11
-78.31691544447686
 21
26.87129903619294
  0
LINE
  8
0
  6
CONTINUOUS
 62
     7
 10
-78.35809947815245
 20
21.21742063901592
 11
-78.36897755117502
 21
21.2188804149963
  0
LINE
  8
0
  6
CONTINUOUS
 62
     7
 10
-78.28943714590211
 20
26.88475001966391
 11
-78.27630100615337
 21
26.89230397891816
  0
LINE
  8
0
  6
CONTINUOUS
 62
     7
 10
-78.2912383023773
 20
21.20251047580844
 11
-78.30397307830253
 21
21.20614862845942
  0
LINE
  8
0
  6
CONTINUOUS
 62
     7
 10
-78.18199941840557
 20
21.15395657928386
 11
-78.19942909902403
 21
21.16399240487564
  0
LINE
  8
0
  6
CONTINUOUS
 62
     7
 10
-78.11295781641972
 20
27.05610172201521
 11
-78.09534821988464
 21
27.08336498603801
  0
LINE
  8
0
  6
CONTINUOUS
 62
     7
 10
-77.97325054409967
 20
20.91384467780514
 11
-77.99224246170036
 21
20.95270641732959
  0
LINE
  8
0
  6
CONTINUOUS
 62
     7
 10
-78.16548298156259
 20
21.14353481626539
 11
-78.18199941840557
 21
21.15395657928386
  0
LINE
  8
0
  6
CONTINUOUS
 62
     7
 10
-78.07890405039322
 20
27.11104273678057
 11
-78.06353778426003
 21
27.13895992561842
  0
LINE
  8
0
  6
CONTINUOUS
 62
     7
 10
-85.92496105549999
 20
26.848103840117
 11
-78.42496105549992
 21
26.84810384011708
  0
LINE
  8
0
  6
CONTINUOUS
 62
     7
 10
-78.04052832286082
 20
21.02712236757347
 11
-78.05875408777155
 21
21.04951497544526
  0
LINE
  8
0
  6
CONTINUOUS
 62
     7
 10
-77.93322488821666
 20
20.78133578213885
 11
-77.94340155946169
 21
20.82826796183544
  0
LINE
  8
0
  6
CONTINUOUS
 62
     7
 10
-78.23505354339835
 20
26.92102360483063
 11
-78.22155053372707
 21
26.93212940455371
  0
LINE
  8
0
  6
CONTINUOUS
 62
     7
 10
-78.10036919827937
 20
21.09264141957327
 11
-78.12405267997838
 21
21.11315162310066
  0
LINE
  8
0
  6
CONTINUOUS
 62
     7
 10
-78.38001320892354
 20
21.22009165572756
 11
-78.39116791981418
 21
21.22104683428187
  0
LINE
  8
0
  6
CONTINUOUS
 62
     7
 10
-78.12405267997838
 20
21.11315162310066
 11
-78.14984953670891
 21
21.13281072578448
  0
LINE
  8
0
  6
CONTINUOUS
 62
     7
 10
-78.19942909902403
 20
21.16399240487564
 11
-78.2178022752045
 21
21.17355868307645
  0
LINE
  8
0
  6
CONTINUOUS
 62
     7
 10
-78.37113528421905
 20
26.85382022542203
 11
-78.3606546639032
 21
26.85626239754395
  0
LINE
  8
0
  6
CONTINUOUS
 62
     7
 10
-78.2178022752045
 20
21.17355868307645
 11
-78.23714919873328
 21
21.18257180392207
  0
LINE
  8
0
  6
CONTINUOUS
 62
     7
 10
-78.41368037468624
 20
21.22215889714817
 11
-78.42496105550003
 21
21.22230072760438
  0
LINE
  8
0
  6
CONTINUOUS
 62
     7
 10
-77.99296693385685
 20
27.30293406679875
 11
-77.97537067478524
 21
27.35875640799896
  0
LINE
  8
0
  6
CONTINUOUS
 62
     7
 10
-78.38175674204042
 20
26.85179478778436
 11
-78.37113528421905
 21
26.85382022542203
  0
LINE
  8
0
  6
CONTINUOUS
 62
     7
 10
-78.3606546639032
 20
26.85626239754395
 11
-78.34578253465298
 21
26.86050063231142
  0
LINE
  8
0
  6
CONTINUOUS
 62
     7
 10
-78.26361071953083
 20
26.90032158327703
 11
-78.24907225564206
 21
26.91039671438729
  0
LINE
  8
0
  6
CONTINUOUS
 62
     7
 10
-77.94509925340046
 20
27.48673843893958
 11
-77.93398401794707
 21
27.55881598322323
  0
LINE
  8
0
  6
CONTINUOUS
 62
     7
 10
-77.93398401794707
 20
27.55881598322323
 11
-77.9272349591791
 21
27.63065498350743
  0
LINE
  8
0
  6
CONTINUOUS
 62
     7
 10
-77.95747196094163
 20
20.8740553705337
 11
-77.97325054409967
 21
20.91384467780514
  0
LINE
  8
0
  6
CONTINUOUS
 62
     7
 10
-77.92496105549998
 20
20.68454501940463
 11
-77.92704402697373
 21
20.73338580885735
  0
LINE
  8
0
  6
CONTINUOUS
 62
     7
 10
-78.31705810329973
 20
21.20948865637461
 11
-78.33046185791173
 21
21.21250062428497
  0
LINE
  8
0
  6
CONTINUOUS
 62
     7
 10
-78.27888529498098
 20
21.19860413369056
 11
-78.2912383023773
 21
21.20251047580844
  0
LINE
  8
0
  6
CONTINUOUS
 62
     7
 10
-78.15202338536078
 20
27.00351884862677
 11
-78.13182036368329
 21
27.02942799333667
  0
LINE
  8
0
  6
CONTINUOUS
 62
     7
 10
-78.40240315226302
 20
21.22173842373136
 11
-78.41368037468624
 21
21.22215889714817
  0
LINE
  8
0
  6
CONTINUOUS
 62
     7
 10
-78.13182036368329
 20
27.02942799333667
 11
-78.11295781641972
 21
27.05610172201521
  0
LINE
  8
0
  6
CONTINUOUS
 62
     7
 10
-77.9604716871353
 20
27.41473610042037
 11
-77.94509925340046
 21
27.48673843893958
  0
LINE
  8
0
  6
CONTINUOUS
 62
     7
 10
-78.07865202356071
 20
21.07139193156664
 11
-78.10036919827937
 21
21.09264141957327
  0
LINE
  8
0
  6
CONTINUOUS
 62
     7
 10
-78.17365440513716
 20
26.97854933651002
 11
-78.15202338536078
 21
27.00351884862677
  0
LINE
  8
0
  6
CONTINUOUS
 62
     7
 10
-78.34415282268172
 20
21.21515459692174
 11
-78.35809947815245
 21
21.21742063901592
  0
LINE
  8
0
  6
CONTINUOUS
 62
     7
 10
-78.23714919873328
 20
21.18257180392207
 11
-78.25750012139667
 21
21.19094815744814
  0
LINE
  8
0
  6
CONTINUOUS
 62
     7
 10
-78.36897755117502
 20
21.2188804149963
 11
-78.38001320892354
 21
21.22009165572756
  0
LINE
  8
0
  6
CONTINUOUS
 62
     7
 10
-78.31691544447686
 20
26.87129903619294
 11
-78.30298625370172
 21
26.87772620544522
  0
LINE
  8
0
  6
CONTINUOUS
 62
     7
 10
-78.39116791981418
 20
21.22104683428187
 11
-78.40240315226302
 21
21.22173842373136
  0
LINE
  8
0
  6
CONTINUOUS
 62
     7
 10
-77.92496105549998
 20
20.68454501940463
 11
-77.92496105549998
 21
19.89845487037377
  0
LINE
  8
0
  6
CONTINUOUS
 62
     7
 10
-78.34578253465298
 20
26.86050063231142
 11
-78.33119183315243
 21
26.86553501183804
  0
LINE
  8
0
  6
CONTINUOUS
 62
     7
 10
-78.24907225564206
 20
26.91039671438729
 11
-78.23505354339835
 21
26.92102360483063
  0
LINE
  8
0
  6
CONTINUOUS
 62
     7
 10
-78.27630100615337
 20
26.89230397891816
 11
-78.26361071953083
 21
26.90032158327703
  0
LINE
  8
0
  6
CONTINUOUS
 62
     7
 10
-78.19680094669748
 20
26.95469450561085
 11
-78.17365440513716
 21
26.97854933651002
  0
LINE
  8
0
  6
CONTINUOUS
 62
     7
 10
-78.06353778426003
 20
27.13895992561842
 11
-78.03689064412836
 21
27.19278094809917
  0
LINE
  8
0
  6
CONTINUOUS
 62
     7
 10
-78.03689064412836
 20
27.19278094809917
 11
-78.013420308816
 21
27.24752395432904
  0
LINE
  8
0
  6
CONTINUOUS
 62
     7
 10
-78.013420308816
 20
27.24752395432904
 11
-77.99296693385685
 21
27.30293406679875
  0
LINE
  8
0
  6
CONTINUOUS
 62
     7
 10
-78.01461321940154
 20
20.990509382716
 11
-78.04052832286082
 21
21.02712236757347
  0
LINE
  8
0
  6
CONTINUOUS
 62
     7
 10
-78.30298625370172
 20
26.87772620544522
 11
-78.28943714590211
 21
26.88475001966391
  0
LINE
  8
0
  6
CONTINUOUS
 62
     7
 10
-78.09534821988464
 20
27.08336498603801
 11
-78.07890405039322
 21
27.11104273678057
  0
LINE
  8
0
  6
CONTINUOUS
 62
     7
 10
-77.94340155946169
 20
20.82826796183544
 11
-77.95747196094163
 21
20.8740553705337
  0
LINE
  8
0
  6
CONTINUOUS
 62
     7
 10
-78.25750012139667
 20
21.19094815744814
 11
-78.27888529498098
 21
21.19860413369056
  0
LINE
  8
0
  6
CONTINUOUS
 62
     7
 10
-78.22155053372707
 20
26.93212940455371
 11
-78.19680094669748
 21
26.95469450561085
  0
LINE
  8
0
  6
CONTINUOUS
 62
     7
 10
-77.97537067478524
 20
27.35875640799896
 11
-77.9604716871353
 21
27.41473610042037
  0
LINE
  8
0
  6
CONTINUOUS
 62
     7
 10
-77.99224246170036
 20
20.95270641732959
 11
-78.01461321940154
 21
20.990509382716
  0
LINE
  8
0
  6
CONTINUOUS
 62
     7
 10
-78.30397307830253
 20
21.20614862845942
 11
-78.31705810329973
 21
21.20948865637461
  0
LINE
  8
0
  6
CONTINUOUS
 62
     7
 10
-78.05875408777155
 20
21.04951497544526
 11
-78.07865202356071
 21
21.07139193156664
  0
LINE
  8
0
  6
CONTINUOUS
 62
     7
 10
-77.9272349591791
 20
27.63065498350743
 11
-77.92496105549998
 21
27.70194169002828
  0
LINE
  8
0
  6
CONTINUOUS
 62
     7
 10
-78.18199941840557
 20
2.903049183247963
 11
-78.19942909902403
 21
2.920666794848148
  0
LINE
  8
0
  6
CONTINUOUS
 62
     7
 10
-78.33119183315243
 20
8.660165276332926
 11
-78.31691544447686
 21
8.663367568637586
  0
LINE
  8
0
  6
CONTINUOUS
 62
     7
 10
-78.28943714590211
 20
8.670859486421906
 11
-78.27630100615337
 21
8.675078645419775
  0
LINE
  8
0
  6
CONTINUOUS
 62
     7
 10
-78.15202338536078
 20
8.738242851120125
 11
-78.13182036368329
 21
8.753240287766472
  0
LINE
  8
0
  6
CONTINUOUS
 62
     7
 10
-78.11295781641972
 20
8.76879023691507
 11
-78.09534821988464
 21
8.784802523533475
  0
LINE
  8
0
  6
CONTINUOUS
 62
     7
 10
-78.013420308816
 20
8.884043709232792
 11
-77.99296693385685
 21
8.918686737231395
  0
LINE
  8
0
  6
CONTINUOUS
 62
     7
 10
-78.41412119409732
 20
8.650642211486147
 11
-78.40328419162371
 21
8.651030127678954
  0
LINE
  8
0
  6
CONTINUOUS
 62
     7
 10
-78.38175674204042
 20
8.652551613497373
 11
-78.37113528421905
 21
8.653672249286009
  0
LINE
  8
0
  6
CONTINUOUS
 62
     7
 10
-77.93398401794707
 20
9.087136242079602
 11
-77.9272349591791
 21
9.137214133486616
  0
LINE
  8
0
  6
CONTINUOUS
 62
     7
 10
-78.17365440513716
 20
8.72388810200847
 11
-78.15202338536078
 21
8.738242851120125
  0
LINE
  8
0
  6
CONTINUOUS
 62
     7
 10
-77.9272349591791
 20
9.137214133486616
 11
-77.92496105549998
 21
9.188267177195314
  0
LINE
  8
0
  6
CONTINUOUS
 62
     7
 10
-78.06353778426003
 20
8.817853409049864
 11
-78.03689064412836
 21
8.850393673474455
  0
LINE
  8
0
  6
CONTINUOUS
 62
     7
 10
-78.22071948881128
 20
10.86495847964922
 11
-78.3036921638595
 21
10.92621616649481
  0
LINE
  8
0
  6
CONTINUOUS
 62
     7
 10
-78.24907225564206
 20
8.685219694087614
 11
-78.23505354339835
 21
8.691199506343505
  0
LINE
  8
0
  6
CONTINUOUS
 62
     7
 10
-78.37113528421905
 20
8.653672249286009
 11
-78.3606546639032
 21
8.655024191103033
  0
LINE
  8
0
  6
CONTINUOUS
 62
     7
 10
-78.14984953670891
 20
10.78300684591346
 11
-78.22071948881128
 21
10.86495847964922
  0
LINE
  8
0
  6
CONTINUOUS
 62
     7
 10
-78.07890405039322
 20
8.80118697258922
 11
-78.06353778426003
 21
8.817853409049864
  0
LINE
  8
0
  6
CONTINUOUS
 62
     7
 10
-85.92496105549999
 20
8.650511468995564
 11
-78.42496105549992
 21
8.650511468995564
  0
LINE
  8
0
  6
CONTINUOUS
 62
     7
 10
-85.92496105549999
 20
1.34526130559523
 11
-78.42496105550003
 21
1.34526130559523
  0
LINE
  8
0
  6
CONTINUOUS
 62
     7
 10
-78.08898611375916
 20
10.68509412784852
 11
-78.14984953670891
 21
10.78300684591346
  0
LINE
  8
0
  6
CONTINUOUS
 62
     7
 10
-78.3036921638595
 20
10.92621616649481
 11
-78.40213491341399
 21
10.95723565107162
  0
LINE
  8
0
  6
CONTINUOUS
 62
     7
 10
-78.34578253465298
 20
8.657372406074447
 11
-78.33119183315243
 21
8.660165276332926
  0
LINE
  8
0
  6
CONTINUOUS
 62
     7
 10
-78.22155053372707
 20
8.697467366518941
 11
-78.19680094669748
 21
8.71026621546392
  0
LINE
  8
0
  6
CONTINUOUS
 62
     7
 10
-78.03689064412836
 20
8.850393673474455
 11
-78.013420308816
 21
8.884043709232792
  0
LINE
  8
0
  6
CONTINUOUS
 62
     7
 10
-77.9604716871353
 20
8.99048465357588
 11
-77.94509925340046
 21
9.038178187325608
  0
LINE
  8
0
  6
CONTINUOUS
 62
     7
 10
-77.92704402697373
 20
2.239026568994162
 11
-77.93322488821666
 21
2.307692643757464
  0
LINE
  8
0
  6
CONTINUOUS
 62
     7
 10
-78.42496105550003
 20
18.91444962877802
 11
-78.3228003833836
 21
18.93718371850182
  0
LINE
  8
0
  6
CONTINUOUS
 62
     7
 10
-77.93322488821666
 20
2.307692643757464
 11
-77.94340155946169
 21
2.376594730265219
  0
LINE
  8
0
  6
CONTINUOUS
 62
     7
 10
-78.40328419162371
 20
8.651030127678954
 11
-78.39248454272344
 21
8.651668750655539
  0
LINE
  8
0
  6
CONTINUOUS
 62
     7
 10
-77.99224246170036
 20
2.567620781675273
 11
-78.01461321940154
 21
2.628085820047255
  0
LINE
  8
0
  6
CONTINUOUS
 62
     7
 10
-85.92496105549999
 20
18.91444962877802
 11
-78.42496105549992
 21
18.91444962877802
  0
LINE
  8
0
  6
CONTINUOUS
 62
     7
 10
-78.09534821988464
 20
8.784802523533475
 11
-78.07890405039322
 21
8.80118697258922
  0
LINE
  8
0
  6
CONTINUOUS
 62
     7
 10
-78.23165334989548
 20
18.99778505336906
 11
-78.14911274273298
 21
19.09080848655996
  0
LINE
  8
0
  6
CONTINUOUS
 62
     7
 10
-78.01461321940154
 20
2.628085820047255
 11
-78.04052832286082
 21
2.68775071209526
  0
LINE
  8
0
  6
CONTINUOUS
 62
     7
 10
-78.05875408777155
 20
2.724791080578992
 11
-78.07865202356071
 21
2.761379431950262
  0
LINE
  8
0
  6
CONTINUOUS
 62
     7
 10
-78.10036919827937
 20
2.797293319684147
 11
-78.12405267997838
 21
2.832310297255752
  0
LINE
  8
0
  6
CONTINUOUS
 62
     7
 10
-78.42496105550003
 20
8.650511468995564
 11
-78.41412119409732
 21
8.650642211486147
  0
LINE
  8
0
  6
CONTINUOUS
 62
     7
 10
-77.99296693385685
 20
8.918686737231395
 11
-77.97537067478524
 21
8.9542059783769
  0
LINE
  8
0
  6
CONTINUOUS
 62
     7
 10
-77.94509925340046
 20
9.038178187325608
 11
-77.93398401794707
 21
9.087136242079602
  0
LINE
  8
0
  6
CONTINUOUS
 62
     7
 10
-78.40213491341399
 20
10.95723565107162
 11
-78.42496105550003
 21
10.95836256782193
  0
LINE
  8
0
  6
CONTINUOUS
 62
     7
 10
-77.92496105549998
 20
9.974357326226091
 11
-77.92496105549998
 21
9.188267177195286
  0
LINE
  8
0
  6
CONTINUOUS
 62
     7
 10
-78.3606546639032
 20
8.655024191103033
 11
-78.34578253465298
 21
8.657372406074447
  0
LINE
  8
0
  6
CONTINUOUS
 62
     7
 10
-77.92496105549998
 20
2.170870506571665
 11
-77.92704402697373
 21
2.239026568994162
  0
LINE
  8
0
  6
CONTINUOUS
 62
     7
 10
-78.31691544447686
 20
8.663367568637586
 11
-78.30298625370172
 21
8.66694404974755
  0
LINE
  8
0
  6
CONTINUOUS
 62
     7
 10
-78.07865202356071
 20
2.761379431950262
 11
-78.10036919827937
 21
2.797293319684147
  0
LINE
  8
0
  6
CONTINUOUS
 62
     7
 10
-78.13182036368329
 20
8.753240287766472
 11
-78.11295781641972
 21
8.76879023691507
  0
LINE
  8
0
  6
CONTINUOUS
 62
     7
 10
-78.26361071953083
 20
8.679566293500251
 11
-78.24907225564206
 21
8.685219694087614
  0
LINE
  8
0
  6
CONTINUOUS
 62
     7
 10
-78.12405267997838
 20
2.832310297255752
 11
-78.14984953670891
 21
2.866207918140157
  0
LINE
  8
0
  6
CONTINUOUS
 62
     7
 10
-78.14984953670891
 20
2.866207918140157
 11
-78.16548298156259
 21
2.884843103833828
  0
LINE
  8
0
  6
CONTINUOUS
 62
     7
 10
-78.16548298156259
 20
2.884843103833828
 11
-78.18199941840557
 21
2.903049183247963
  0
LINE
  8
0
  6
CONTINUOUS
 62
     7
 10
-78.3228003833836
 20
18.93718371850182
 11
-78.23165334989548
 21
18.99778505336906
  0
LINE
  8
0
  6
CONTINUOUS
 62
     7
 10
-78.19942909902403
 20
2.920666794848148
 11
-78.2178022752045
 21
2.937536577099997
  0
LINE
  8
0
  6
CONTINUOUS
 62
     7
 10
-78.2178022752045
 20
2.937536577099997
 11
-78.23714919873328
 21
2.953499168469098
  0
LINE
  8
0
  6
CONTINUOUS
 62
     7
 10
-78.04052832286082
 20
2.68775071209526
 11
-78.05875408777155
 21
2.724791080578992
  0
LINE
  8
0
  6
CONTINUOUS
 62
     7
 10
-78.27630100615337
 20
8.675078645419775
 11
-78.26361071953083
 21
8.679566293500251
  0
LINE
  8
0
  6
CONTINUOUS
 62
     7
 10
-77.97537067478524
 20
8.9542059783769
 11
-77.9604716871353
 21
8.99048465357588
  0
LINE
  8
0
  6
CONTINUOUS
 62
     7
 10
-78.39248454272344
 20
8.651668750655539
 11
-78.38175674204042
 21
8.652551613497373
  0
LINE
  8
0
  6
CONTINUOUS
 62
     7
 10
-78.30298625370172
 20
8.66694404974755
 11
-78.28943714590211
 21
8.670859486421906
  0
LINE
  8
0
  6
CONTINUOUS
 62
     7
 10
-78.19680094669748
 20
8.71026621546392
 11
-78.17365440513716
 21
8.72388810200847
  0
LINE
  8
0
  6
CONTINUOUS
 62
     7
 10
-77.94340155946169
 20
2.376594730265219
 11
-77.95747196094163
 21
2.445458827920965
  0
LINE
  8
0
  6
CONTINUOUS
 62
     7
 10
-77.92496105549998
 20
2.170870506571692
 11
-77.92496105549998
 21
1.84526130559523
  0
LINE
  8
0
  6
CONTINUOUS
 62
     7
 10
-77.95747196094163
 20
2.445458827920965
 11
-77.97325054409967
 21
2.506647737469725
  0
LINE
  8
0
  6
CONTINUOUS
 62
     7
 10
-77.97325054409967
 20
2.506647737469725
 11
-77.99224246170036
 21
2.567620781675273
  0
LINE
  8
0
  6
CONTINUOUS
 62
     7
 10
-78.23505354339835
 20
8.691199506343505
 11
-78.22155053372707
 21
8.697467366518941
  0
LINE
  8
0
  6
CONTINUOUS
 62
     7
 10
-78.06353778426003
 20
2.733852270981579
 11
-78.03689064412836
 21
2.68003124850083
  0
LINE
  8
0
  6
CONTINUOUS
 62
     7
 10
-77.9272349591791
 20
2.242157213092566
 11
-77.92496105549998
 21
2.17087050657172
  0
LINE
  8
0
  6
CONTINUOUS
 62
     7
 10
-78.37113528421905
 20
3.01899197117797
 11
-78.3606546639032
 21
3.016549799056051
  0
LINE
  8
0
  6
CONTINUOUS
 62
     7
 10
-78.26361071953083
 20
2.97249061332297
 11
-78.24907225564206
 21
2.96241548221271
  0
LINE
  8
0
  6
CONTINUOUS
 62
     7
 10
-78.11295781641972
 20
2.816710474584788
 11
-78.09534821988464
 21
2.789447210561985
  0
LINE
  8
0
  6
CONTINUOUS
 62
     7
 10
-78.34578253465298
 20
3.012311564288578
 11
-78.33119183315243
 21
3.007277184761958
  0
LINE
  8
0
  6
CONTINUOUS
 62
     7
 10
-78.15202338536078
 20
2.869293347973228
 11
-78.13182036368329
 21
2.843384203263327
  0
LINE
  8
0
  6
CONTINUOUS
 62
     7
 10
-77.9604716871353
 20
2.458076096179623
 11
-77.94509925340046
 21
2.386073757660423
  0
LINE
  8
0
  6
CONTINUOUS
 62
     7
 10
-78.3606546639032
 20
3.016549799056051
 11
-78.34578253465298
 21
3.012311564288578
  0
LINE
  8
0
  6
CONTINUOUS
 62
     7
 10
-78.34578253465298
 20
3.012311564288578
 11
-78.33119183315243
 21
3.007277184761958
  0
LINE
  8
0
  6
CONTINUOUS
 62
     7
 10
-78.33119183315243
 20
3.007277184761958
 11
-78.31691544447686
 21
3.00151316040706
  0
LINE
  8
0
  6
CONTINUOUS
 62
     7
 10
-78.03689064412836
 20
2.68003124850083
 11
-78.013420308816
 21
2.625288242270956
  0
LINE
  8
0
  6
CONTINUOUS
 62
     7
 10
-78.31691544447686
 20
3.00151316040706
 11
-78.30298625370172
 21
2.995085991154778
  0
LINE
  8
0
  6
CONTINUOUS
 62
     7
 10
-78.30298625370172
 20
2.995085991154778
 11
-78.28943714590211
 21
2.98806217693609
  0
LINE
  8
0
  6
CONTINUOUS
 62
     7
 10
-78.28943714590211
 20
2.98806217693609
 11
-78.27630100615337
 21
2.980508217681837
  0
LINE
  8
0
  6
CONTINUOUS
 62
     7
 10
-78.2912383023773
 20
2.98906142280661
 11
-78.30397307830253
 21
2.995589125814879
  0
LINE
  8
0
  6
CONTINUOUS
 62
     7
 10
-78.42496105550003
 20
1.345261305595286
 11
-85.92496105549999
 21
1.345261305595286
  0
LINE
  8
0
  6
CONTINUOUS
 62
     7
 10
-78.31691544447686
 20
3.00151316040706
 11
-78.30298625370172
 21
2.995085991154778
  0
LINE
  8
0
  6
CONTINUOUS
 62
     7
 10
-78.37113528421905
 20
3.01899197117797
 11
-78.3606546639032
 21
3.016549799056051
  0
LINE
  8
0
  6
CONTINUOUS
 62
     7
 10
-78.23505354339835
 20
2.951788591769366
 11
-78.22155053372707
 21
2.94068279204629
  0
LINE
  8
0
  6
CONTINUOUS
 62
     7
 10
-85.92496105549999
 20
3.024708356482997
 11
-78.42496105549992
 21
3.024708356482913
  0
LINE
  8
0
  6
CONTINUOUS
 62
     7
 10
-78.41368037468624
 20
3.024451495627134
 11
-78.42496105550003
 21
3.024708356482941
  0
LINE
  8
0
  6
CONTINUOUS
 62
     7
 10
-78.42496105550003
 20
3.024708356482997
 11
-78.41412119409732
 21
3.02447158580274
  0
LINE
  8
0
  6
CONTINUOUS
 62
     7
 10
-78.40328419162371
 20
3.023769389030095
 11
-78.39248454272344
 21
3.022613939067026
  0
LINE
  8
0
  6
CONTINUOUS
 62
     7
 10
-78.34415282268172
 20
3.011797088303319
 11
-78.35809947815245
 21
3.015886419529046
  0
LINE
  8
0
  6
CONTINUOUS
 62
     7
 10
-78.27888529498098
 20
2.982065332421485
 11
-78.2912383023773
 21
2.98906142280661
  0
LINE
  8
0
  6
CONTINUOUS
 62
     7
 10
-78.36897755117502
 20
3.018522976118459
 11
-78.38001320892354
 21
3.020711930484782
  0
LINE
  8
0
  6
CONTINUOUS
 62
     7
 10
-78.42496105550003
 20
3.024708356482858
 11
-85.92496105549999
 21
3.024708356482969
  0
LINE
  8
0
  6
CONTINUOUS
 62
     7
 10
-78.38175674204042
 20
3.021017408815635
 11
-78.37113528421905
 21
3.01899197117797
  0
LINE
  8
0
  6
CONTINUOUS
 62
     7
 10
-78.17365440513716
 20
2.89426286008998
 11
-78.15202338536078
 21
2.869293347973228
  0
LINE
  8
0
  6
CONTINUOUS
 62
     7
 10
-78.25750012139667
 20
2.968395207421065
 11
-78.27888529498098
 21
2.982065332421485
  0
LINE
  8
0
  6
CONTINUOUS
 62
     7
 10
-78.3606546639032
 20
3.016549799056051
 11
-78.34578253465298
 21
3.012311564288578
  0
LINE
  8
0
  6
CONTINUOUS
 62
     7
 10
-78.35809947815245
 20
3.015886419529046
 11
-78.36897755117502
 21
3.018522976118459
  0
LINE
  8
0
  6
CONTINUOUS
 62
     7
 10
-78.09534821988464
 20
2.789447210561985
 11
-78.07890405039322
 21
2.76176945981943
  0
LINE
  8
0
  6
CONTINUOUS
 62
     7
 10
-78.41412119409732
 20
3.02447158580274
 11
-78.40328419162371
 21
3.023769389030095
  0
LINE
  8
0
  6
CONTINUOUS
 62
     7
 10
-77.99296693385685
 20
2.569878129801251
 11
-77.97537067478524
 21
2.514055788601033
  0
LINE
  8
0
  6
CONTINUOUS
 62
     7
 10
-77.93398401794707
 20
2.313996213376773
 11
-77.9272349591791
 21
2.242157213092566
  0
LINE
  8
0
  6
CONTINUOUS
 62
     7
 10
-78.24907225564206
 20
2.96241548221271
 11
-78.23505354339835
 21
2.951788591769366
  0
LINE
  8
0
  6
CONTINUOUS
 62
     7
 10
-78.42496105550003
 20
1.345261305595286
 11
-85.92496105549999
 21
1.345261305595286
  0
LINE
  8
0
  6
CONTINUOUS
 62
     7
 10
-78.39116791981418
 20
3.022439114166247
 11
-78.40240315226302
 21
3.023690358700981
  0
LINE
  8
0
  6
CONTINUOUS
 62
     7
 10
-78.39248454272344
 20
3.022613939067026
 11
-78.38175674204042
 21
3.021017408815635
  0
LINE
  8
0
  6
CONTINUOUS
 62
     7
 10
-78.013420308816
 20
2.625288242270956
 11
-77.99296693385685
 21
2.569878129801251
  0
LINE
  8
0
  6
CONTINUOUS
 62
     7
 10
-77.94509925340046
 20
2.386073757660423
 11
-77.93398401794707
 21
2.313996213376773
  0
LINE
  8
0
  6
CONTINUOUS
 62
     7
 10
-78.42496105550003
 20
3.024708356482997
 11
-78.41412119409732
 21
3.02447158580274
  0
LINE
  8
0
  6
CONTINUOUS
 62
     7
 10
-78.41412119409732
 20
3.02447158580274
 11
-78.40328419162371
 21
3.023769389030095
  0
LINE
  8
0
  6
CONTINUOUS
 62
     7
 10
-77.92496105549998
 20
1.936406098300009
 11
-77.92496105549998
 21
2.170870506571748
  0
LINE
  8
0
  6
CONTINUOUS
 62
     7
 10
-78.31705810329973
 20
3.001591959218758
 11
-78.33046185791173
 21
3.00701344079074
  0
LINE
  8
0
  6
CONTINUOUS
 62
     7
 10
-78.33046185791173
 20
3.00701344079074
 11
-78.34415282268172
 21
3.011797088303319
  0
LINE
  8
0
  6
CONTINUOUS
 62
     7
 10
-78.27630100615337
 20
2.980508217681837
 11
-78.26361071953083
 21
2.97249061332297
  0
LINE
  8
0
  6
CONTINUOUS
 62
     7
 10
-78.38001320892354
 20
3.020711930484782
 11
-78.39116791981418
 21
3.022439114166247
  0
LINE
  8
0
  6
CONTINUOUS
 62
     7
 10
-78.28943714590211
 20
2.98806217693609
 11
-78.27630100615337
 21
2.980508217681837
  0
LINE
  8
0
  6
CONTINUOUS
 62
     7
 10
-78.19680094669748
 20
2.918117690989153
 11
-78.17365440513716
 21
2.89426286008998
  0
LINE
  8
0
  6
CONTINUOUS
 62
     7
 10
-78.07890405039322
 20
2.76176945981943
 11
-78.06353778426003
 21
2.733852270981579
  0
LINE
  8
0
  6
CONTINUOUS
 62
     7
 10
-78.13182036368329
 20
2.843384203263327
 11
-78.11295781641972
 21
2.816710474584788
  0
LINE
  8
0
  6
CONTINUOUS
 62
     7
 10
-78.30298625370172
 20
2.995085991154778
 11
-78.28943714590211
 21
2.98806217693609
  0
LINE
  8
0
  6
CONTINUOUS
 62
     7
 10
-78.40328419162371
 20
3.023769389030095
 11
-78.39248454272344
 21
3.022613939067026
  0
LINE
  8
0
  6
CONTINUOUS
 62
     7
 10
-78.23714919873328
 20
2.953499168469098
 11
-78.25750012139667
 21
2.968395207421065
  0
LINE
  8
0
  6
CONTINUOUS
 62
     7
 10
-78.22155053372707
 20
2.94068279204629
 11
-78.19680094669748
 21
2.918117690989153
  0
LINE
  8
0
  6
CONTINUOUS
 62
     7
 10
-78.40240315226302
 20
3.023690358700981
 11
-78.41368037468624
 21
3.024451495627134
  0
LINE
  8
0
  6
CONTINUOUS
 62
     7
 10
-78.39248454272344
 20
3.022613939067026
 11
-78.38175674204042
 21
3.021017408815635
  0
LINE
  8
0
  6
CONTINUOUS
 62
     7
 10
-78.30397307830253
 20
2.995589125814879
 11
-78.31705810329973
 21
3.001591959218758
  0
LINE
  8
0
  6
CONTINUOUS
 62
     7
 10
-78.38175674204042
 20
3.021017408815635
 11
-78.37113528421905
 21
3.01899197117797
  0
LINE
  8
0
  6
CONTINUOUS
 62
     7
 10
-78.33119183315243
 20
3.007277184761958
 11
-78.31691544447686
 21
3.00151316040706
  0
LINE
  8
0
  6
CONTINUOUS
 62
     7
 10
-77.97537067478524
 20
2.514055788601033
 11
-77.9604716871353
 21
2.458076096179623
  0
LINE
  8
0
  6
CONTINUOUS
 62
     7
 10
-78.24907225564206
 20
2.96241548221271
 11
-78.23505354339835
 21
2.951788591769366
  0
LINE
  8
0
  6
CONTINUOUS
 62
     7
 10
-77.99296693385685
 20
2.569878129801251
 11
-77.97537067478524
 21
2.514055788601033
  0
LINE
  8
0
  6
CONTINUOUS
 62
     7
 10
-77.93398401794707
 20
2.313996213376773
 11
-77.9272349591791
 21
2.242157213092566
  0
LINE
  8
0
  6
CONTINUOUS
 62
     7
 10
-77.92496105549998
 20
9.18826717719537
 11
-77.92704402697373
 21
9.139426387742622
  0
LINE
  8
0
  6
CONTINUOUS
 62
     7
 10
-77.92704402697373
 20
9.139426387742622
 11
-77.93322488821666
 21
9.091476414461146
  0
LINE
  8
0
  6
CONTINUOUS
 62
     7
 10
-78.13182036368329
 20
2.843384203263327
 11
-78.11295781641972
 21
2.816710474584788
  0
LINE
  8
0
  6
CONTINUOUS
 62
     7
 10
-77.93322488821666
 20
9.091476414461146
 11
-77.94340155946169
 21
9.044544234764528
  0
LINE
  8
0
  6
CONTINUOUS
 62
     7
 10
-78.10036919827937
 20
8.780170777026724
 11
-78.12405267997838
 21
8.759660573499334
  0
LINE
  8
0
  6
CONTINUOUS
 62
     7
 10
-78.18199941840557
 20
8.718855617316112
 11
-78.19942909902403
 21
8.708819791724359
  0
LINE
  8
0
  6
CONTINUOUS
 62
     7
 10
-78.30397307830253
 20
8.666663568140553
 11
-78.31705810329973
 21
8.663323540225393
  0
LINE
  8
0
  6
CONTINUOUS
 62
     7
 10
-77.95747196094163
 20
8.998756826066268
 11
-77.97325054409967
 21
8.958967518794825
  0
LINE
  8
0
  6
CONTINUOUS
 62
     7
 10
-78.07865202356071
 20
8.801420265033332
 11
-78.10036919827937
 21
8.780170777026724
  0
LINE
  8
0
  6
CONTINUOUS
 62
     7
 10
-78.25750012139667
 20
8.681864039151831
 11
-78.27888529498098
 21
8.674208062909416
  0
LINE
  8
0
  6
CONTINUOUS
 62
     7
 10
-78.013420308816
 20
2.625288242270956
 11
-77.99296693385685
 21
2.569878129801251
  0
LINE
  8
0
  6
CONTINUOUS
 62
     7
 10
-78.31705810329973
 20
8.663323540225393
 11
-78.33046185791173
 21
8.660311572315004
  0
LINE
  8
0
  6
CONTINUOUS
 62
     7
 10
-78.33046185791173
 20
8.660311572315004
 11
-78.34415282268172
 21
8.657657599678236
  0
LINE
  8
0
  6
CONTINUOUS
 62
     7
 10
-78.39116791981418
 20
8.651765362318125
 11
-78.40240315226302
 21
8.651073772868639
  0
LINE
  8
0
  6
CONTINUOUS
 62
     7
 10
-78.40240315226302
 20
8.651073772868639
 11
-78.41368037468624
 21
8.650653299451832
  0
LINE
  8
0
  6
CONTINUOUS
 62
     7
 10
-77.97325054409967
 20
8.958967518794825
 11
-77.99224246170036
 21
8.92010577927041
  0
LINE
  8
0
  6
CONTINUOUS
 62
     7
 10
-78.2912383023773
 20
8.670301720791528
 11
-78.30397307830253
 21
8.666663568140553
  0
LINE
  8
0
  6
CONTINUOUS
 62
     7
 10
-78.17365440513716
 20
2.89426286008998
 11
-78.15202338536078
 21
2.869293347973228
  0
LINE
  8
0
  6
CONTINUOUS
 62
     7
 10
-78.03689064412836
 20
2.68003124850083
 11
-78.013420308816
 21
2.625288242270956
  0
LINE
  8
0
  6
CONTINUOUS
 62
     7
 10
-78.15202338536078
 20
2.869293347973228
 11
-78.13182036368329
 21
2.843384203263327
  0
LINE
  8
0
  6
CONTINUOUS
 62
     7
 10
-77.97537067478524
 20
2.514055788601033
 11
-77.9604716871353
 21
2.458076096179623
  0
LINE
  8
0
  6
CONTINUOUS
 62
     7
 10
-78.19680094669748
 20
2.918117690989153
 11
-78.17365440513716
 21
2.89426286008998
  0
LINE
  8
0
  6
CONTINUOUS
 62
     7
 10
-78.06353778426003
 20
2.733852270981579
 11
-78.03689064412836
 21
2.68003124850083
  0
LINE
  8
0
  6
CONTINUOUS
 62
     7
 10
-77.94340155946169
 20
9.044544234764528
 11
-77.95747196094163
 21
8.998756826066268
  0
LINE
  8
0
  6
CONTINUOUS
 62
     7
 10
-78.12405267997838
 20
8.759660573499334
 11
-78.14984953670891
 21
8.740001470815494
  0
LINE
  8
0
  6
CONTINUOUS
 62
     7
 10
-78.27888529498098
 20
8.674208062909416
 11
-78.2912383023773
 21
8.670301720791528
  0
LINE
  8
0
  6
CONTINUOUS
 62
     7
 10
-78.35809947815245
 20
8.655391557584046
 11
-78.36897755117502
 21
8.653931781603703
  0
LINE
  8
0
  6
CONTINUOUS
 62
     7
 10
-78.27630100615337
 20
2.980508217681837
 11
-78.26361071953083
 21
2.97249061332297
  0
LINE
  8
0
  6
CONTINUOUS
 62
     7
 10
-78.41368037468624
 20
8.650653299451832
 11
-78.42496105550003
 21
8.650511468995619
  0
LINE
  8
0
  6
CONTINUOUS
 62
     7
 10
-78.14984953670891
 20
8.740001470815494
 11
-78.16548298156259
 21
8.729277380334576
  0
LINE
  8
0
  6
CONTINUOUS
 62
     7
 10
-78.23714919873328
 20
8.690240392677934
 11
-78.25750012139667
 21
8.681864039151831
  0
LINE
  8
0
  6
CONTINUOUS
 62
     7
 10
-77.9604716871353
 20
2.458076096179623
 11
-77.94509925340046
 21
2.386073757660423
  0
LINE
  8
0
  6
CONTINUOUS
 62
     7
 10
-77.99224246170036
 20
8.92010577927041
 11
-78.01461321940154
 21
8.882302813883996
  0
LINE
  8
0
  6
CONTINUOUS
 62
     7
 10
-78.36897755117502
 20
8.653931781603703
 11
-78.38001320892354
 21
8.652720540872433
  0
LINE
  8
0
  6
CONTINUOUS
 62
     7
 10
-78.07890405039322
 20
2.76176945981943
 11
-78.06353778426003
 21
2.733852270981579
  0
LINE
  8
0
  6
CONTINUOUS
 62
     7
 10
-78.16548298156259
 20
8.729277380334576
 11
-78.18199941840557
 21
8.718855617316112
  0
LINE
  8
0
  6
CONTINUOUS
 62
     7
 10
-78.34415282268172
 20
8.657657599678236
 11
-78.35809947815245
 21
8.655391557584046
  0
LINE
  8
0
  6
CONTINUOUS
 62
     7
 10
-78.38001320892354
 20
8.652720540872433
 11
-78.39116791981418
 21
8.651765362318125
  0
LINE
  8
0
  6
CONTINUOUS
 62
     7
 10
-77.92496105549998
 20
9.18826717719537
 11
-77.92496105549998
 21
9.974357326226201
  0
LINE
  8
0
  6
CONTINUOUS
 62
     7
 10
-78.11295781641972
 20
2.816710474584788
 11
-78.09534821988464
 21
2.789447210561985
  0
LINE
  8
0
  6
CONTINUOUS
 62
     7
 10
-78.09534821988464
 20
2.789447210561985
 11
-78.07890405039322
 21
2.76176945981943
  0
LINE
  8
0
  6
CONTINUOUS
 62
     7
 10
-78.04052832286082
 20
8.845689829026531
 11
-78.05875408777155
 21
8.823297221154712
  0
LINE
  8
0
  6
CONTINUOUS
 62
     7
 10
-78.42496105550003
 20
10.95836256782196
 11
-78.3228003833836
 21
10.93562847809815
  0
LINE
  8
0
  6
CONTINUOUS
 62
     7
 10
-78.3228003833836
 20
10.93562847809815
 11
-78.23165334989548
 21
10.87502714323094
  0
LINE
  8
0
  6
CONTINUOUS
 62
     7
 10
-78.23165334989548
 20
10.87502714323094
 11
-78.14911274273298
 21
10.78200371004004
  0
LINE
  8
0
  6
CONTINUOUS
 62
     7
 10
-85.92496105549999
 20
10.95836256782198
 11
-78.42496105549992
 21
10.95836256782198
  0
LINE
  8
0
  6
CONTINUOUS
 62
     7
 10
-78.01461321940154
 20
8.882302813883996
 11
-78.04052832286082
 21
8.845689829026531
  0
LINE
  8
0
  6
CONTINUOUS
 62
     7
 10
-77.94509925340046
 20
2.386073757660423
 11
-77.93398401794707
 21
2.313996213376773
  0
LINE
  8
0
  6
CONTINUOUS
 62
     7
 10
-78.08898611375916
 20
19.18771806875145
 11
-78.14984953670891
 21
19.08980535068654
  0
LINE
  8
0
  6
CONTINUOUS
 62
     7
 10
-78.22155053372707
 20
2.94068279204629
 11
-78.19680094669748
 21
2.918117690989153
  0
LINE
  8
0
  6
CONTINUOUS
 62
     7
 10
-85.92496105549999
 20
3.024708356482997
 11
-78.42496105549992
 21
3.024708356482913
  0
LINE
  8
0
  6
CONTINUOUS
 62
     7
 10
-78.19942909902403
 20
8.708819791724359
 11
-78.2178022752045
 21
8.699253513523548
  0
LINE
  8
0
  6
CONTINUOUS
 62
     7
 10
-78.23505354339835
 20
2.951788591769366
 11
-78.22155053372707
 21
2.94068279204629
  0
LINE
  8
0
  6
CONTINUOUS
 62
     7
 10
-77.9272349591791
 20
2.242157213092566
 11
-77.92496105549998
 21
2.17087050657172
  0
LINE
  8
0
  6
CONTINUOUS
 62
     7
 10
-78.05875408777155
 20
8.823297221154712
 11
-78.07865202356071
 21
8.801420265033332
  0
LINE
  8
0
  6
CONTINUOUS
 62
     7
 10
-78.2178022752045
 20
8.699253513523548
 11
-78.23714919873328
 21
8.690240392677934
  0
LINE
  8
0
  6
CONTINUOUS
 62
     7
 10
-78.26361071953083
 20
2.97249061332297
 11
-78.24907225564206
 21
2.96241548221271
  0
LINE
  8
0
  6
CONTINUOUS
 62
     7
 10
-77.97537067478524
 20
20.9186062182231
 11
-77.9604716871353
 21
20.88232754302409
  0
LINE
  8
0
  6
CONTINUOUS
 62
     7
 10
-78.11295781641972
 20
21.1040219596849
 11
-78.09534821988464
 21
21.08800967306649
  0
LINE
  8
0
  6
CONTINUOUS
 62
     7
 10
-78.27630100615337
 20
21.1977335511802
 11
-78.26361071953083
 21
21.19324590309972
  0
LINE
  8
0
  6
CONTINUOUS
 62
     7
 10
-78.40213491341399
 20
18.91557654552837
 11
-78.42496105550003
 21
18.91444962877807
  0
LINE
  8
0
  6
CONTINUOUS
 62
     7
 10
-77.93398401794707
 20
20.7856759545204
 11
-77.9272349591791
 21
20.73559806311335
  0
LINE
  8
0
  6
CONTINUOUS
 62
     7
 10
-78.26361071953083
 20
21.19324590309972
 11
-78.24907225564206
 21
21.18759250251238
  0
LINE
  8
0
  6
CONTINUOUS
 62
     7
 10
-77.9272349591791
 20
20.73559806311335
 11
-77.92496105549998
 21
20.68454501940468
  0
LINE
  8
0
  6
CONTINUOUS
 62
     7
 10
-85.92496105549999
 20
21.22230072760443
 11
-78.42496105549992
 21
21.22230072760443
  0
LINE
  8
0
  6
CONTINUOUS
 62
     7
 10
-78.33119183315243
 20
21.21264692026707
 11
-78.31691544447686
 21
21.20944462796241
  0
LINE
  8
0
  6
CONTINUOUS
 62
     7
 10
-77.93322488821666
 20
27.56511955284254
 11
-77.94340155946169
 21
27.49621746633478
  0
LINE
  8
0
  6
CONTINUOUS
 62
     7
 10
-78.39248454272344
 20
21.22114344594443
 11
-78.38175674204042
 21
21.2202605831026
  0
LINE
  8
0
  6
CONTINUOUS
 62
     7
 10
-77.92496105549998
 20
19.89845487037388
 11
-77.92496105549998
 21
20.68454501940468
  0
LINE
  8
0
  6
CONTINUOUS
 62
     7
 10
-78.013420308816
 20
20.98876848736718
 11
-77.99296693385685
 21
20.95412545936857
  0
LINE
  8
0
  6
CONTINUOUS
 62
     7
 10
-77.94340155946169
 20
27.49621746633478
 11
-77.95747196094163
 21
27.42735336867903
  0
LINE
  8
0
  6
CONTINUOUS
 62
     7
 10
-77.95747196094163
 20
27.42735336867903
 11
-77.97325054409967
 21
27.36616445913027
  0
LINE
  8
0
  6
CONTINUOUS
 62
     7
 10
-78.42496105550003
 20
21.22230072760443
 11
-78.41412119409732
 21
21.22216998511382
  0
LINE
  8
0
  6
CONTINUOUS
 62
     7
 10
-78.41412119409732
 20
21.22216998511382
 11
-78.40328419162371
 21
21.22178206892104
  0
LINE
  8
0
  6
CONTINUOUS
 62
     7
 10
-78.28943714590211
 20
21.20195271017809
 11
-78.27630100615337
 21
21.1977335511802
  0
LINE
  8
0
  6
CONTINUOUS
 62
     7
 10
-77.92496105549998
 20
27.70194169002833
 11
-77.92704402697373
 21
27.63378562760584
  0
LINE
  8
0
  6
CONTINUOUS
 62
     7
 10
-78.01461321940154
 20
27.24472637655274
 11
-78.04052832286082
 21
27.18506148450474
  0
LINE
  8
0
  6
CONTINUOUS
 62
     7
 10
-78.09534821988464
 20
21.08800967306649
 11
-78.07890405039322
 21
21.07162522401078
  0
LINE
  8
0
  6
CONTINUOUS
 62
     7
 10
-78.05875408777155
 20
27.14802111602101
 11
-78.07865202356071
 21
27.11143276464974
  0
LINE
  8
0
  6
CONTINUOUS
 62
     7
 10
-78.13182036368329
 20
21.1195719088335
 11
-78.11295781641972
 21
21.1040219596849
  0
LINE
  8
0
  6
CONTINUOUS
 62
     7
 10
-78.24907225564206
 20
21.18759250251238
 11
-78.23505354339835
 21
21.18161269025646
  0
LINE
  8
0
  6
CONTINUOUS
 62
     7
 10
-78.3036921638595
 20
18.94659603010516
 11
-78.40213491341399
 21
18.91557654552837
  0
LINE
  8
0
  6
CONTINUOUS
 62
     7
 10
-78.06353778426003
 20
21.05495878755013
 11
-78.03689064412836
 21
21.02241852312552
  0
LINE
  8
0
  6
CONTINUOUS
 62
     7
 10
-77.9604716871353
 20
20.88232754302409
 11
-77.94509925340046
 21
20.83463400927436
  0
LINE
  8
0
  6
CONTINUOUS
 62
     7
 10
-78.10036919827937
 20
27.07551887691585
 11
-78.12405267997838
 21
27.04050189934425
  0
LINE
  8
0
  6
CONTINUOUS
 62
     7
 10
-78.19680094669748
 20
21.16254598113608
 11
-78.17365440513716
 21
21.1489240945915
  0
LINE
  8
0
  6
CONTINUOUS
 62
     7
 10
-77.92704402697373
 20
27.63378562760584
 11
-77.93322488821666
 21
27.56511955284254
  0
LINE
  8
0
  6
CONTINUOUS
 62
     7
 10
-78.12405267997838
 20
27.04050189934425
 11
-78.14984953670891
 21
27.00660427845984
  0
LINE
  8
0
  6
CONTINUOUS
 62
     7
 10
-78.14984953670891
 20
27.00660427845984
 11
-78.16548298156259
 21
26.98796909276617
  0
LINE
  8
0
  6
CONTINUOUS
 62
     7
 10
-78.16548298156259
 20
26.98796909276617
 11
-78.18199941840557
 21
26.96976301335204
  0
LINE
  8
0
  6
CONTINUOUS
 62
     7
 10
-78.23505354339835
 20
21.18161269025646
 11
-78.22155053372707
 21
21.17534483008103
  0
LINE
  8
0
  6
CONTINUOUS
 62
     7
 10
-78.18199941840557
 20
26.96976301335204
 11
-78.19942909902403
 21
26.95214540175185
  0
LINE
  8
0
  6
CONTINUOUS
 62
     7
 10
-78.38175674204042
 20
21.2202605831026
 11
-78.37113528421905
 21
21.21913994731399
  0
LINE
  8
0
  6
CONTINUOUS
 62
     7
 10
-78.07865202356071
 20
27.11143276464974
 11
-78.10036919827937
 21
27.07551887691585
  0
LINE
  8
0
  6
CONTINUOUS
 62
     7
 10
-77.94509925340046
 20
20.83463400927436
 11
-77.93398401794707
 21
20.7856759545204
  0
LINE
  8
0
  6
CONTINUOUS
 62
     7
 10
-78.22155053372707
 20
21.17534483008103
 11
-78.19680094669748
 21
21.16254598113608
  0
LINE
  8
0
  6
CONTINUOUS
 62
     7
 10
-78.19942909902403
 20
26.95214540175185
 11
-78.2178022752045
 21
26.9352756195
  0
LINE
  8
0
  6
CONTINUOUS
 62
     7
 10
-78.2178022752045
 20
26.9352756195
 11
-78.23714919873328
 21
26.9193130281309
  0
LINE
  8
0
  6
CONTINUOUS
 62
     7
 10
-78.23714919873328
 20
26.9193130281309
 11
-78.25750012139667
 21
26.90441698917893
  0
LINE
  8
0
  6
CONTINUOUS
 62
     7
 10
-78.34578253465298
 20
21.21543979052552
 11
-78.33119183315243
 21
21.21264692026707
  0
LINE
  8
0
  6
CONTINUOUS
 62
     7
 10
-78.07890405039322
 20
21.07162522401078
 11
-78.06353778426003
 21
21.05495878755013
  0
LINE
  8
0
  6
CONTINUOUS
 62
     7
 10
-78.03689064412836
 20
21.02241852312552
 11
-78.013420308816
 21
20.98876848736718
  0
LINE
  8
0
  6
CONTINUOUS
 62
     7
 10
-77.99296693385685
 20
20.95412545936857
 11
-77.97537067478524
 21
20.9186062182231
  0
LINE
  8
0
  6
CONTINUOUS
 62
     7
 10
-78.37113528421905
 20
21.21913994731399
 11
-78.3606546639032
 21
21.21778800549694
  0
LINE
  8
0
  6
CONTINUOUS
 62
     7
 10
-77.97325054409967
 20
27.36616445913027
 11
-77.99224246170036
 21
27.30519141492472
  0
LINE
  8
0
  6
CONTINUOUS
 62
     7
 10
-77.99224246170036
 20
27.30519141492472
 11
-78.01461321940154
 21
27.24472637655274
  0
LINE
  8
0
  6
CONTINUOUS
 62
     7
 10
-78.04052832286082
 20
27.18506148450474
 11
-78.05875408777155
 21
27.14802111602101
  0
LINE
  8
0
  6
CONTINUOUS
 62
     7
 10
-78.3606546639032
 20
21.21778800549694
 11
-78.34578253465298
 21
21.21543979052552
  0
LINE
  8
0
  6
CONTINUOUS
 62
     7
 10
-78.17365440513716
 20
21.1489240945915
 11
-78.15202338536078
 21
21.13456934547984
  0
LINE
  8
0
  6
CONTINUOUS
 62
     7
 10
-78.14984953670891
 20
19.08980535068654
 11
-78.22071948881128
 21
19.00785371695078
  0
LINE
  8
0
  6
CONTINUOUS
 62
     7
 10
-78.40328419162371
 20
21.22178206892104
 11
-78.39248454272344
 21
21.22114344594443
  0
LINE
  8
0
  6
CONTINUOUS
 62
     7
 10
-78.22071948881128
 20
19.00785371695078
 11
-78.3036921638595
 21
18.94659603010516
  0
LINE
  8
0
  6
CONTINUOUS
 62
     7
 10
-78.30298625370172
 20
21.20586814685242
 11
-78.28943714590211
 21
21.20195271017809
  0
LINE
  8
0
  6
CONTINUOUS
 62
     7
 10
-78.31691544447686
 20
21.20944462796241
 11
-78.30298625370172
 21
21.20586814685242
  0
LINE
  8
0
  6
CONTINUOUS
 62
     7
 10
-78.15202338536078
 20
21.13456934547984
 11
-78.13182036368329
 21
21.1195719088335
  0
LINE
  8
0
  6
CONTINUOUS
 62
     7
 10
-78.40240315226302
 20
26.84912183789902
 11
-78.41368037468624
 21
26.84836070097287
  0
LINE
  8
0
  6
CONTINUOUS
 62
     7
 10
-78.15202338536078
 20
27.00351884862677
 11
-78.13182036368329
 21
27.02942799333667
  0
LINE
  8
0
  6
CONTINUOUS
 62
     7
 10
-78.03689064412836
 20
27.19278094809917
 11
-78.013420308816
 21
27.24752395432904
  0
LINE
  8
0
  6
CONTINUOUS
 62
     7
 10
-78.33119183315243
 20
26.86553501183804
 11
-78.31691544447686
 21
26.87129903619294
  0
LINE
  8
0
  6
CONTINUOUS
 62
     7
 10
-77.9272349591791
 20
27.63065498350743
 11
-77.92496105549998
 21
27.70194169002828
  0
LINE
  8
0
  6
CONTINUOUS
 62
     7
 10
-78.35809947815245
 20
26.85692577707095
 11
-78.36897755117502
 21
26.85428922048154
  0
LINE
  8
0
  6
CONTINUOUS
 62
     7
 10
-78.37113528421905
 20
26.85382022542203
 11
-78.3606546639032
 21
26.85626239754395
  0
LINE
  8
0
  6
CONTINUOUS
 62
     7
 10
-78.3606546639032
 20
26.85626239754395
 11
-78.34578253465298
 21
26.86050063231142
  0
LINE
  8
0
  6
CONTINUOUS
 62
     7
 10
-78.34578253465298
 20
26.86050063231142
 11
-78.33119183315243
 21
26.86553501183804
  0
LINE
  8
0
  6
CONTINUOUS
 62
     7
 10
-78.39248454272344
 20
26.85019825753297
 11
-78.38175674204042
 21
26.85179478778436
  0
LINE
  8
0
  6
CONTINUOUS
 62
     7
 10
-78.33119183315243
 20
26.86553501183804
 11
-78.31691544447686
 21
26.87129903619294
  0
LINE
  8
0
  6
CONTINUOUS
 62
     7
 10
-78.26361071953083
 20
26.90032158327703
 11
-78.24907225564206
 21
26.91039671438729
  0
LINE
  8
0
  6
CONTINUOUS
 62
     7
 10
-78.38175674204042
 20
26.85179478778436
 11
-78.37113528421905
 21
26.85382022542203
  0
LINE
  8
0
  6
CONTINUOUS
 62
     7
 10
-78.30298625370172
 20
26.87772620544522
 11
-78.28943714590211
 21
26.88475001966391
  0
LINE
  8
0
  6
CONTINUOUS
 62
     7
 10
-78.28943714590211
 20
26.88475001966391
 11
-78.27630100615337
 21
26.89230397891816
  0
LINE
  8
0
  6
CONTINUOUS
 62
     7
 10
-78.26361071953083
 20
26.90032158327703
 11
-78.24907225564206
 21
26.91039671438729
  0
LINE
  8
0
  6
CONTINUOUS
 62
     7
 10
-78.42496105550003
 20
26.848103840117
 11
-78.41412119409732
 21
26.84834061079726
  0
LINE
  8
0
  6
CONTINUOUS
 62
     7
 10
-78.09534821988464
 20
27.08336498603801
 11
-78.07890405039322
 21
27.11104273678057
  0
LINE
  8
0
  6
CONTINUOUS
 62
     7
 10
-78.06353778426003
 20
27.13895992561842
 11
-78.03689064412836
 21
27.19278094809917
  0
LINE
  8
0
  6
CONTINUOUS
 62
     7
 10
-78.41368037468624
 20
26.84836070097287
 11
-78.42496105550003
 21
26.84810384011706
  0
LINE
  8
0
  6
CONTINUOUS
 62
     7
 10
-78.34415282268172
 20
26.86101510829668
 11
-78.35809947815245
 21
26.85692577707095
  0
LINE
  8
0
  6
CONTINUOUS
 62
     7
 10
-78.31691544447686
 20
26.87129903619294
 11
-78.30298625370172
 21
26.87772620544522
  0
LINE
  8
0
  6
CONTINUOUS
 62
     7
 10
-78.27630100615337
 20
26.89230397891816
 11
-78.26361071953083
 21
26.90032158327703
  0
LINE
  8
0
  6
CONTINUOUS
 62
     7
 10
-78.31705810329973
 20
26.87122023738124
 11
-78.33046185791173
 21
26.86579875580926
  0
LINE
  8
0
  6
CONTINUOUS
 62
     7
 10
-78.3606546639032
 20
26.85626239754395
 11
-78.34578253465298
 21
26.86050063231142
  0
LINE
  8
0
  6
CONTINUOUS
 62
     7
 10
-78.34578253465298
 20
26.86050063231142
 11
-78.33119183315243
 21
26.86553501183804
  0
LINE
  8
0
  6
CONTINUOUS
 62
     7
 10
-78.31691544447686
 20
26.87129903619294
 11
-78.30298625370172
 21
26.87772620544522
  0
LINE
  8
0
  6
CONTINUOUS
 62
     7
 10
-78.27630100615337
 20
26.89230397891816
 11
-78.26361071953083
 21
26.90032158327703
  0
LINE
  8
0
  6
CONTINUOUS
 62
     7
 10
-77.97537067478524
 20
27.35875640799896
 11
-77.9604716871353
 21
27.41473610042037
  0
LINE
  8
0
  6
CONTINUOUS
 62
     7
 10
-78.33046185791173
 20
26.86579875580926
 11
-78.34415282268172
 21
26.86101510829668
  0
LINE
  8
0
  6
CONTINUOUS
 62
     7
 10
-78.25750012139667
 20
26.90441698917893
 11
-78.27888529498098
 21
26.89074686417851
  0
LINE
  8
0
  6
CONTINUOUS
 62
     7
 10
-77.93398401794707
 20
27.55881598322323
 11
-77.9272349591791
 21
27.63065498350743
  0
LINE
  8
0
  6
CONTINUOUS
 62
     7
 10
-78.19680094669748
 20
26.95469450561085
 11
-78.17365440513716
 21
26.97854933651002
  0
LINE
  8
0
  6
CONTINUOUS
 62
     7
 10
-78.36897755117502
 20
26.85428922048154
 11
-78.38001320892354
 21
26.85210026611522
  0
LINE
  8
0
  6
CONTINUOUS
 62
     7
 10
-78.42496105550003
 20
26.848103840117
 11
-78.41412119409732
 21
26.84834061079726
  0
LINE
  8
0
  6
CONTINUOUS
 62
     7
 10
-78.37113528421905
 20
26.85382022542203
 11
-78.3606546639032
 21
26.85626239754395
  0
LINE
  8
0
  6
CONTINUOUS
 62
     7
 10
-78.39248454272344
 20
26.85019825753297
 11
-78.38175674204042
 21
26.85179478778436
  0
LINE
  8
0
  6
CONTINUOUS
 62
     7
 10
-78.24907225564206
 20
26.91039671438729
 11
-78.23505354339835
 21
26.92102360483063
  0
LINE
  8
0
  6
CONTINUOUS
 62
     7
 10
-78.23505354339835
 20
26.92102360483063
 11
-78.22155053372707
 21
26.93212940455371
  0
LINE
  8
0
  6
CONTINUOUS
 62
     7
 10
-77.9604716871353
 20
27.41473610042037
 11
-77.94509925340046
 21
27.48673843893958
  0
LINE
  8
0
  6
CONTINUOUS
 62
     7
 10
-78.41412119409732
 20
26.84834061079726
 11
-78.40328419162371
 21
26.8490428075699
  0
LINE
  8
0
  6
CONTINUOUS
 62
     7
 10
-78.40328419162371
 20
26.8490428075699
 11
-78.39248454272344
 21
26.85019825753297
  0
LINE
  8
0
  6
CONTINUOUS
 62
     7
 10
-78.40328419162371
 20
26.8490428075699
 11
-78.39248454272344
 21
26.85019825753297
  0
LINE
  8
0
  6
CONTINUOUS
 62
     7
 10
-78.22155053372707
 20
26.93212940455371
 11
-78.19680094669748
 21
26.95469450561085
  0
LINE
  8
0
  6
CONTINUOUS
 62
     7
 10
-78.17365440513716
 20
26.97854933651002
 11
-78.15202338536078
 21
27.00351884862677
  0
LINE
  8
0
  6
CONTINUOUS
 62
     7
 10
-78.11295781641972
 20
27.05610172201521
 11
-78.09534821988464
 21
27.08336498603801
  0
LINE
  8
0
  6
CONTINUOUS
 62
     7
 10
-77.94509925340046
 20
27.48673843893958
 11
-77.93398401794707
 21
27.55881598322323
  0
LINE
  8
0
  6
CONTINUOUS
 62
     7
 10
-78.27888529498098
 20
26.89074686417851
 11
-78.2912383023773
 21
26.88375077379339
  0
LINE
  8
0
  6
CONTINUOUS
 62
     7
 10
-78.2912383023773
 20
26.88375077379339
 11
-78.30397307830253
 21
26.87722307078512
  0
LINE
  8
0
  6
CONTINUOUS
 62
     7
 10
-78.39116791981418
 20
26.85037308243375
 11
-78.40240315226302
 21
26.84912183789902
  0
LINE
  8
0
  6
CONTINUOUS
 62
     7
 10
-78.42496105550003
 20
26.84810384011714
 11
-85.92496105549999
 21
26.84810384011703
  0
LINE
  8
0
  6
CONTINUOUS
 62
     7
 10
-78.30298625370172
 20
26.87772620544522
 11
-78.28943714590211
 21
26.88475001966391
  0
LINE
  8
0
  6
CONTINUOUS
 62
     7
 10
-78.07890405039322
 20
27.11104273678057
 11
-78.06353778426003
 21
27.13895992561842
  0
LINE
  8
0
  6
CONTINUOUS
 62
     7
 10
-78.13182036368329
 20
27.02942799333667
 11
-78.11295781641972
 21
27.05610172201521
  0
LINE
  8
0
  6
CONTINUOUS
 62
     7
 10
-78.41412119409732
 20
26.84834061079726
 11
-78.40328419162371
 21
26.8490428075699
  0
LINE
  8
0
  6
CONTINUOUS
 62
     7
 10
-77.99296693385685
 20
27.30293406679875
 11
-77.97537067478524
 21
27.35875640799896
  0
LINE
  8
0
  6
CONTINUOUS
 62
     7
 10
-78.013420308816
 20
27.24752395432904
 11
-77.99296693385685
 21
27.30293406679875
  0
LINE
  8
0
  6
CONTINUOUS
 62
     7
 10
-78.28943714590211
 20
26.88475001966391
 11
-78.27630100615337
 21
26.89230397891816
  0
LINE
  8
0
  6
CONTINUOUS
 62
     7
 10
-78.38175674204042
 20
26.85179478778436
 11
-78.37113528421905
 21
26.85382022542203
  0
LINE
  8
0
  6
CONTINUOUS
 62
     7
 10
-78.38001320892354
 20
26.85210026611522
 11
-78.39116791981418
 21
26.85037308243375
  0
LINE
  8
0
  6
CONTINUOUS
 62
     7
 10
-78.30397307830253
 20
26.87722307078512
 11
-78.31705810329973
 21
26.87122023738124
  0
ARC
  8
0
  6
CONTINUOUS
 62
     7
 10
-85.92496105549999
 20
29.52755089100472
 40
1.000000000000001
 50
180.0
 51
270.0
  0
ARC
  8
0
  6
CONTINUOUS
 62
     7
 10
-78.42496105550003
 20
28.02755089100471
 40
0.500000000000056
 50
0.0
 51
90.0
  0
ARC
  8
0
  6
CONTINUOUS
 62
     7
 10
-79.50871002147888
 20
9.9831524160989
 40
1.583773386834467
 50
359.6818205657367
 51
26.30877130965825
  0
ARC
  8
0
  6
CONTINUOUS
 62
     7
 10
-78.42496105550003
 20
1.84526130559523
 40
0.5000000000000004
 50
270.0
 51
0.0
  0
ARC
  8
0
  6
CONTINUOUS
 62
     7
 10
-79.35921917238079
 20
19.86158607004378
 40
1.434731910245295
 50
327.5048916246389
 51
1.472511484584345
  0
ARC
  8
0
  6
CONTINUOUS
 62
     7
 10
-122.9249610555
 20
27.9180481551
 40
1.000000000000004
 50
105.0000000000003
 51
180.0
  0
ARC
  8
0
  6
CONTINUOUS
 62
     7
 10
-73.9249610555
 20
26.93640609829999
 40
1.000000000000001
 50
0.0
 51
90.0
  0
ARC
  8
0
  6
CONTINUOUS
 62
     7
 10
-73.9249610555
 20
2.936406098299996
 40
1.000000000000001
 50
270.0
 51
0.0
  0
ARC
  8
0
  6
CONTINUOUS
 62
     7
 10
-79.50871002147888
 20
19.8896597805011
 40
1.583773386834517
 50
333.6912286903421
 51
0.3181794342623334
  0
ARC
  8
0
  6
CONTINUOUS
 62
     7
 10
-71.9249610555
 20
2.936406098299996
 40
1.000000000000001
 50
90.0
 51
180.0
  0
ARC
  8
0
  6
CONTINUOUS
 62
     7
 10
-78.42496105550003
 20
1.845261305595286
 40
0.500000000000056
 50
270.0
 51
0.0
  0
ARC
  8
0
  6
CONTINUOUS
 62
     7
 10
-79.35921917238079
 20
10.01122612655619
 40
1.434731910245343
 50
358.5274885154157
 51
32.49510837536235
  0
ARC
  8
0
  6
CONTINUOUS
 62
     7
 10
-122.9249610555
 20
1.954764041499996
 40
1.000000000000001
 50
180.0
 51
254.9999999999995
  0
ARC
  8
0
  6
CONTINUOUS
 62
     7
 10
-85.92496105549999
 20
0.3452613055952292
 40
1.000000000000001
 50
90.0
 51
180.0
  0
ARC
  8
0
  6
CONTINUOUS
 62
     7
 10
-85.92496105549999
 20
0.3452613055952847
 40
1.000000000000001
 50
90.0
 51
180.0
  0
ARC
  8
0
  6
CONTINUOUS
 62
     7
 10
-71.9249610555
 20
26.93640609829999
 40
1.000000000000001
 50
180.0
 51
270.0
  0
LINE
  8
0
  6
CONTINUOUS
 62
     7
 10
-46.9249610555
 20
25.93640609829999
 11
-46.9249610555
 21
3.936406098299996
  0
CIRCLE
  8
0
  6
CONTINUOUS
 62
     7
 10
-156.5533531251
 20
14.93640609830001
 40
10.0
  0
CIRCLE
  8
0
  6
CONTINUOUS
 62
     7
 10
-156.5533531251
 20
14.93640609830001
 40
8.69
  0
CIRCLE
  8
0
  6
CONTINUOUS
 62
     7
 10
-21.97515120189999
 20
14.93640609830001
 40
8.8
  0
CIRCLE
  8
0
  6
CONTINUOUS
 62
     7
 10
-21.97515120189999
 20
14.93640609830001
 40
16.65
  0
CIRCLE
  8
0
  6
CONTINUOUS
 62
     7
 10
-21.97515120189999
 20
14.93640609830001
 40
6.6
  0
CIRCLE
  8
0
  6
CONTINUOUS
 62
     7
 10
-156.5533531251
 20
14.93640609830001
 40
11.1
  0
CIRCLE
  8
0
  6
CONTINUOUS
 62
     7
 10
-21.97515120189999
 20
14.93640609830001
 40
13.0
  0
CIRCLE
  8
0
  6
CONTINUOUS
 62
     7
 10
-156.5533531251
 20
14.93640609830001
 40
7.45
  0
CIRCLE
  8
0
  6
CONTINUOUS
 62
     7
 10
-21.97515120189999
 20
14.93640609830001
 40
11.0
  0
CIRCLE
  8
0
  6
CONTINUOUS
 62
     7
 10
-156.5533531251
 20
14.93640609830001
 40
16.65
  0
CIRCLE
  8
0
  6
CONTINUOUS
 62
     7
 10
-156.5533531251
 20
14.93640609830001
 40
7.1009105859
  0
TEXT
  8
1
  6
CONTINUOUS
 62
     7
 10
-39.99567783511004
 20
-8.60538909090909
 40
3.5
  1
ＭＰＶＥ－１４
 41
0.998775
  0
ENDSEC
  0
EOF
