  0
SECTION
  2
HEADER
  9
$ACADVER
  1
AC1004
  9
$INSBASE
 10
0.0
 20
0.0
  9
$EXTMIN
 10
-209.3946326967
 20
87.00668609090908
  9
$EXTMAX
 10
-18.3830278456
 20
135.676206611
  9
$LIMMIN
 10
0.0
 20
0.0
  9
$LIMMAX
 10
12.0
 20
9.0
  9
$ORTHOMODE
 70
     0
  9
$REGENMODE
 70
     1
  9
$FILLMODE
 70
     1
  9
$QTEXTMODE
 70
     0
  9
$DRAGMODE
 70
     2
  9
$LTSCALE
 40
1.0
  9
$OSMODE
 70
    37
  9
$ATTMODE
 70
     1
  9
$TEXTSIZE
 40
0.2
  9
$TRACEWID
 40
0.05
  9
$TEXTSTYLE
  7
STANDARD
  9
$CLAYER
  8
0
  9
$CELTYPE
  6
BYLAYER
  9
$CECOLOR
 62
   256
  9
$DIMSCALE
 40
1.0
  9
$DIMASZ
 40
1.5
  9
$DIMEXO
 40
0.0625
  9
$DIMDLI
 40
0.38
  9
$DIMRND
 40
0.0
  9
$DIMDLE
 40
0.0
  9
$DIMEXE
 40
0.75
  9
$DIMTP
 40
0.0
  9
$DIMTM
 40
0.0
  9
$DIMTXT
 40
3.5
  9
$DIMCEN
 40
0.09
  9
$DIMTSZ
 40
0.0
  9
$DIMTOL
 70
     0
  9
$DIMLIM
 70
     0
  9
$DIMTIH
 70
     1
  9
$DIMTOH
 70
     1
  9
$DIMSE1
 70
     0
  9
$DIMSE2
 70
     0
  9
$DIMTAD
 70
     1
  9
$DIMZIN
 70
     0
  9
$DIMBLK
  1

  9
$DIMASO
 70
     1
  9
$DIMSHO
 70
     1
  9
$DIMPOST
  1

  9
$DIMAPOST
  1

  9
$DIMALT
 70
     0
  9
$DIMALTD
 70
     2
  9
$DIMALTF
 40
25.4
  9
$DIMLFAC
 40
1.0
  9
$DIMTOFL
 70
     0
  9
$DIMTVP
 40
0.0
  9
$DIMTIX
 70
     0
  9
$DIMSOXD
 70
     0
  9
$DIMSAH
 70
     0
  9
$DIMBLK1
  1

  9
$DIMBLK2
  1

  9
$LUNITS
 70
     2
  9
$LUPREC
 70
     4
  9
$SKETCHINC
 40
0.1
  9
$FILLETRAD
 40
0.5
  9
$AUNITS
 70
     0
  9
$AUPREC
 70
     0
  9
$MENU
  1
.
  9
$ELEVATION
 40
0.0
  9
$THICKNESS
 40
0.0
  9
$LIMCHECK
 70
     0
  9
$CHAMFERA
 40
0.0
  9
$CHAMFERB
 40
0.0
  9
$SKPOLY
 70
     0
  9
$TDCREATE
 40
2460262.721253356
  9
$TDUPDATE
 40
2460262.721253553
  9
$TDINDWG
 40
0.0000000116
  9
$TDUSRTIMER
 40
0.0000000116
  9
$USRTIMER
 70
     1
  9
$ANGBASE
 50
0.0
  9
$ANGDIR
 70
     0
  9
$PDMODE
 70
     0
  9
$PDSIZE
 40
0.0
  9
$PLINEWID
 40
0.0
  9
$COORDS
 70
     1
  9
$SPLFRAME
 70
     0
  9
$SPLINETYPE
 70
     6
  9
$SPLINESEGS
 70
     8
  9
$ATTDIA
 70
     0
  9
$ATTREQ
 70
     1
  9
$SURFTAB1
 70
     6
  9
$SURFTAB2
 70
     6
  9
$SURFTYPE
 70
     6
  9
$SURFU
 70
     6
  9
$SURFV
 70
     6
  9
$UCSNAME
  2

  9
$UCSORG
 10
0.0
 20
0.0
 30
0.0
  9
$UCSXDIR
 10
1.0
 20
0.0
 30
0.0
  9
$UCSYDIR
 10
0.0
 20
1.0
 30
0.0
  9
$USERI1
 70
     0
  9
$USERI2
 70
     0
  9
$USERI3
 70
     0
  9
$USERI4
 70
     0
  9
$USERI5
 70
     0
  9
$USERR1
 40
0.0
  9
$USERR2
 40
0.0
  9
$USERR3
 40
0.0
  9
$USERR4
 40
0.0
  9
$USERR5
 40
0.0
  9
$WORLDVIEW
 70
     1
  0
ENDSEC
  0
SECTION
  2
TABLES
  0
TABLE
  2
LTYPE
 70
     2
  0
LTYPE
  2
CONTINUOUS
 70
     0
  3
Solid line
 72
    65
 73
     0
 40
0.0
  0
LTYPE
  2
CENTER
 70
     0
  3

 72
    65
 73
     0
 40
0.0
  0
ENDTAB
  0
TABLE
  2
LAYER
 70
     2
  0
LAYER
  2
0
 70
     0
 62
     7
  6
CONTINUOUS
  0
LAYER
  2
1
 70
     0
 62
     7
  6
CONTINUOUS
  0
ENDTAB
  0
TABLE
  2
STYLE
 70
     2
  0
STYLE
  2
STANDARD
 70
     0
 40
0.0
 41
1.0
 50
0.0
 71
     0
 42
0.2
  3
txt
  4

  0
STYLE
  2
ＭＳ_ゴシック
 70
     0
 40
0.0
 41
1.0
 50
0.0
 71
     0
 42
0.2
  3
ＭＳ ゴシック.shx
  4

  0
ENDTAB
  0
TABLE
  2
VIEW
 70
     0
  0
ENDTAB
  0
ENDSEC
  0
SECTION
  2
BLOCKS
  0
ENDSEC
  0
SECTION
  2
ENTITIES
  0
POLYLINE
  8
1
  6
CONTINUOUS
 62
     7
 66
     1
  0
VERTEX
  8
1
  6
CONTINUOUS
 62
     7
 10
-113.2120888736999
 20
119.2911309827862
  0
VERTEX
  8
1
  6
CONTINUOUS
 62
     7
 10
-113.1928741541031
 20
119.0962263435282
  0
VERTEX
  8
1
  6
CONTINUOUS
 62
     7
 10
-113.1359684062112
 20
118.908811780253
  0
VERTEX
  8
1
  6
CONTINUOUS
 62
     7
 10
-113.0435584860024
 20
118.7360895295241
  0
VERTEX
  8
1
  6
CONTINUOUS
 62
     7
 10
-112.9191956548864
 20
118.5846972105733
  0
VERTEX
  8
1
  6
CONTINUOUS
 62
     7
 10
-112.7676591067195
 20
118.460452745316
  0
VERTEX
  8
1
  6
CONTINUOUS
 62
     7
 10
-112.594772306065
 20
118.3681307788749
  0
VERTEX
  8
1
  6
CONTINUOUS
 62
     7
 10
-112.407179195716
 20
118.3112791926457
  0
VERTEX
  8
1
  6
CONTINUOUS
 62
     7
 10
-112.2120888736999
 20
118.2920827612043
  0
SEQEND
  8
1
  6
CONTINUOUS
 62
     7
  0
POLYLINE
  8
1
  6
CONTINUOUS
 62
     7
 66
     1
  0
VERTEX
  8
1
  6
CONTINUOUS
 62
     7
 10
-112.2120888737
 20
115.9842316623781
  0
VERTEX
  8
1
  6
CONTINUOUS
 62
     7
 10
-112.4071791957161
 20
115.9712503859764
  0
VERTEX
  8
1
  6
CONTINUOUS
 62
     7
 10
-112.5947723060651
 20
115.9328054199436
  0
VERTEX
  8
1
  6
CONTINUOUS
 62
     7
 10
-112.7676591067196
 20
115.870374182764
  0
VERTEX
  8
1
  6
CONTINUOUS
 62
     7
 10
-112.9191956548866
 20
115.7863558718707
  0
VERTEX
  8
1
  6
CONTINUOUS
 62
     7
 10
-113.0435584860026
 20
115.6839792638332
  0
VERTEX
  8
1
  6
CONTINUOUS
 62
     7
 10
-113.1359684062114
 20
115.5671786342851
  0
VERTEX
  8
1
  6
CONTINUOUS
 62
     7
 10
-113.1928741541033
 20
115.4404425659171
  0
VERTEX
  8
1
  6
CONTINUOUS
 62
     7
 10
-113.2120888737001
 20
115.3086414547625
  0
SEQEND
  8
1
  6
CONTINUOUS
 62
     7
  0
POLYLINE
  8
1
  6
CONTINUOUS
 62
     7
 66
     1
  0
VERTEX
  8
1
  6
CONTINUOUS
 62
     7
 10
-113.2120888737001
 20
108.7037348090376
  0
VERTEX
  8
1
  6
CONTINUOUS
 62
     7
 10
-113.1928741541033
 20
108.5719336978829
  0
VERTEX
  8
1
  6
CONTINUOUS
 62
     7
 10
-113.1359684062114
 20
108.445197629515
  0
VERTEX
  8
1
  6
CONTINUOUS
 62
     7
 10
-113.0435584860026
 20
108.3283969999668
  0
VERTEX
  8
1
  6
CONTINUOUS
 62
     7
 10
-112.9191956548866
 20
108.2260203919293
  0
VERTEX
  8
1
  6
CONTINUOUS
 62
     7
 10
-112.7676591067196
 20
108.142002081036
  0
VERTEX
  8
1
  6
CONTINUOUS
 62
     7
 10
-112.5947723060651
 20
108.0795708438564
  0
VERTEX
  8
1
  6
CONTINUOUS
 62
     7
 10
-112.4071791957161
 20
108.0411258778236
  0
VERTEX
  8
1
  6
CONTINUOUS
 62
     7
 10
-112.2120888737
 20
108.0281446014219
  0
SEQEND
  8
1
  6
CONTINUOUS
 62
     7
  0
POLYLINE
  8
1
  6
CONTINUOUS
 62
     7
 66
     1
  0
VERTEX
  8
1
  6
CONTINUOUS
 62
     7
 10
-113.2120888737001
 20
108.7037348090376
  0
VERTEX
  8
1
  6
CONTINUOUS
 62
     7
 10
-113.1928741541033
 20
108.5719336978829
  0
VERTEX
  8
1
  6
CONTINUOUS
 62
     7
 10
-113.1359684062114
 20
108.445197629515
  0
VERTEX
  8
1
  6
CONTINUOUS
 62
     7
 10
-113.0435584860026
 20
108.3283969999668
  0
VERTEX
  8
1
  6
CONTINUOUS
 62
     7
 10
-112.9191956548866
 20
108.2260203919293
  0
VERTEX
  8
1
  6
CONTINUOUS
 62
     7
 10
-112.7676591067196
 20
108.142002081036
  0
VERTEX
  8
1
  6
CONTINUOUS
 62
     7
 10
-112.5947723060651
 20
108.0795708438564
  0
VERTEX
  8
1
  6
CONTINUOUS
 62
     7
 10
-112.4071791957161
 20
108.0411258778236
  0
VERTEX
  8
1
  6
CONTINUOUS
 62
     7
 10
-112.2120888737
 20
108.0281446014219
  0
SEQEND
  8
1
  6
CONTINUOUS
 62
     7
  0
POLYLINE
  8
1
  6
CONTINUOUS
 62
     7
 66
     1
  0
VERTEX
  8
1
  6
CONTINUOUS
 62
     7
 10
-112.2120888736999
 20
105.7202935025957
  0
VERTEX
  8
1
  6
CONTINUOUS
 62
     7
 10
-112.4071791957161
 20
105.7010970711543
  0
VERTEX
  8
1
  6
CONTINUOUS
 62
     7
 10
-112.5947723060651
 20
105.6442454849251
  0
VERTEX
  8
1
  6
CONTINUOUS
 62
     7
 10
-112.7676591067196
 20
105.551923518484
  0
VERTEX
  8
1
  6
CONTINUOUS
 62
     7
 10
-112.9191956548866
 20
105.4276790532267
  0
VERTEX
  8
1
  6
CONTINUOUS
 62
     7
 10
-113.0435584860026
 20
105.2762867342759
  0
VERTEX
  8
1
  6
CONTINUOUS
 62
     7
 10
-113.1359684062114
 20
105.103564483547
  0
VERTEX
  8
1
  6
CONTINUOUS
 62
     7
 10
-113.1928741541033
 20
104.9161499202719
  0
VERTEX
  8
1
  6
CONTINUOUS
 62
     7
 10
-113.2120888737001
 20
104.7212452810138
  0
SEQEND
  8
1
  6
CONTINUOUS
 62
     7
  0
POLYLINE
  8
1
  6
CONTINUOUS
 62
     7
 66
     1
  0
VERTEX
  8
1
  6
CONTINUOUS
 62
     7
 10
-112.2120888737
 20
105.7202935025957
  0
VERTEX
  8
1
  6
CONTINUOUS
 62
     7
 10
-112.4071791957161
 20
105.7010970711543
  0
VERTEX
  8
1
  6
CONTINUOUS
 62
     7
 10
-112.5947723060651
 20
105.6442454849251
  0
VERTEX
  8
1
  6
CONTINUOUS
 62
     7
 10
-112.7676591067196
 20
105.551923518484
  0
VERTEX
  8
1
  6
CONTINUOUS
 62
     7
 10
-112.9191956548866
 20
105.4276790532267
  0
VERTEX
  8
1
  6
CONTINUOUS
 62
     7
 10
-113.0435584860026
 20
105.2762867342759
  0
VERTEX
  8
1
  6
CONTINUOUS
 62
     7
 10
-113.1359684062114
 20
105.103564483547
  0
VERTEX
  8
1
  6
CONTINUOUS
 62
     7
 10
-113.1928741541033
 20
104.9161499202718
  0
VERTEX
  8
1
  6
CONTINUOUS
 62
     7
 10
-113.2120888737001
 20
104.7212452810138
  0
SEQEND
  8
1
  6
CONTINUOUS
 62
     7
  0
POLYLINE
  8
1
  6
CONTINUOUS
 62
     7
 66
     1
  0
VERTEX
  8
1
  6
CONTINUOUS
 62
     7
 10
-113.2120888736999
 20
119.2911309827862
  0
VERTEX
  8
1
  6
CONTINUOUS
 62
     7
 10
-113.1928741541031
 20
119.0962263435282
  0
VERTEX
  8
1
  6
CONTINUOUS
 62
     7
 10
-113.1359684062112
 20
118.908811780253
  0
VERTEX
  8
1
  6
CONTINUOUS
 62
     7
 10
-113.0435584860024
 20
118.7360895295241
  0
VERTEX
  8
1
  6
CONTINUOUS
 62
     7
 10
-112.9191956548864
 20
118.5846972105733
  0
VERTEX
  8
1
  6
CONTINUOUS
 62
     7
 10
-112.7676591067195
 20
118.460452745316
  0
VERTEX
  8
1
  6
CONTINUOUS
 62
     7
 10
-112.594772306065
 20
118.3681307788749
  0
VERTEX
  8
1
  6
CONTINUOUS
 62
     7
 10
-112.407179195716
 20
118.3112791926457
  0
VERTEX
  8
1
  6
CONTINUOUS
 62
     7
 10
-112.2120888736999
 20
118.2920827612043
  0
SEQEND
  8
1
  6
CONTINUOUS
 62
     7
  0
POLYLINE
  8
1
  6
CONTINUOUS
 62
     7
 66
     1
  0
VERTEX
  8
1
  6
CONTINUOUS
 62
     7
 10
-112.2120888737
 20
115.9842316623781
  0
VERTEX
  8
1
  6
CONTINUOUS
 62
     7
 10
-112.4071791957161
 20
115.9712503859764
  0
VERTEX
  8
1
  6
CONTINUOUS
 62
     7
 10
-112.5947723060651
 20
115.9328054199436
  0
VERTEX
  8
1
  6
CONTINUOUS
 62
     7
 10
-112.7676591067196
 20
115.870374182764
  0
VERTEX
  8
1
  6
CONTINUOUS
 62
     7
 10
-112.9191956548866
 20
115.7863558718707
  0
VERTEX
  8
1
  6
CONTINUOUS
 62
     7
 10
-113.0435584860026
 20
115.6839792638332
  0
VERTEX
  8
1
  6
CONTINUOUS
 62
     7
 10
-113.1359684062114
 20
115.5671786342851
  0
VERTEX
  8
1
  6
CONTINUOUS
 62
     7
 10
-113.1928741541033
 20
115.4404425659171
  0
VERTEX
  8
1
  6
CONTINUOUS
 62
     7
 10
-113.2120888737001
 20
115.3086414547625
  0
SEQEND
  8
1
  6
CONTINUOUS
 62
     7
  0
POLYLINE
  8
1
  6
CONTINUOUS
 62
     7
 66
     1
  0
VERTEX
  8
1
  6
CONTINUOUS
 62
     7
 10
-112.2120888737
 20
100.094490390083
  0
VERTEX
  8
1
  6
CONTINUOUS
 62
     7
 10
-112.4071791957161
 20
100.0936522557858
  0
VERTEX
  8
1
  6
CONTINUOUS
 62
     7
 10
-112.594772306065
 20
100.0911700619252
  0
VERTEX
  8
1
  6
CONTINUOUS
 62
     7
 10
-112.7676591067195
 20
100.0871391978192
  0
VERTEX
  8
1
  6
CONTINUOUS
 62
     7
 10
-112.9191956548865
 20
100.0817145673149
  0
VERTEX
  8
1
  6
CONTINUOUS
 62
     7
 10
-113.0435584860024
 20
100.0751046359204
  0
VERTEX
  8
1
  6
CONTINUOUS
 62
     7
 10
-113.1359684062112
 20
100.0675634195923
  0
VERTEX
  8
1
  6
CONTINUOUS
 62
     7
 10
-113.1928741541031
 20
100.0593807230449
  0
VERTEX
  8
1
  6
CONTINUOUS
 62
     7
 10
-113.2120888736999
 20
100.0508710027177
  0
SEQEND
  8
1
  6
CONTINUOUS
 62
     7
  0
POLYLINE
  8
1
  6
CONTINUOUS
 62
     7
 66
     1
  0
VERTEX
  8
1
  6
CONTINUOUS
 62
     7
 10
-113.2120888737001
 20
123.9615052610824
  0
VERTEX
  8
1
  6
CONTINUOUS
 62
     7
 10
-113.1928741541033
 20
123.9529955407551
  0
VERTEX
  8
1
  6
CONTINUOUS
 62
     7
 10
-113.1359684062114
 20
123.9448128442077
  0
VERTEX
  8
1
  6
CONTINUOUS
 62
     7
 10
-113.0435584860026
 20
123.9372716278796
  0
VERTEX
  8
1
  6
CONTINUOUS
 62
     7
 10
-112.9191956548866
 20
123.9306616964851
  0
VERTEX
  8
1
  6
CONTINUOUS
 62
     7
 10
-112.7676591067196
 20
123.9252370659808
  0
VERTEX
  8
1
  6
CONTINUOUS
 62
     7
 10
-112.5947723060651
 20
123.9212062018748
  0
VERTEX
  8
1
  6
CONTINUOUS
 62
     7
 10
-112.4071791957161
 20
123.9187240080142
  0
VERTEX
  8
1
  6
CONTINUOUS
 62
     7
 10
-112.2120888737
 20
123.917885873717
  0
SEQEND
  8
1
  6
CONTINUOUS
 62
     7
  0
POLYLINE
  8
1
  6
CONTINUOUS
 62
     7
 66
     1
  0
VERTEX
  8
1
  6
CONTINUOUS
 62
     7
 10
-112.2120888737
 20
100.094490390083
  0
VERTEX
  8
1
  6
CONTINUOUS
 62
     7
 10
-112.4071791957161
 20
100.0936522557858
  0
VERTEX
  8
1
  6
CONTINUOUS
 62
     7
 10
-112.594772306065
 20
100.0911700619252
  0
VERTEX
  8
1
  6
CONTINUOUS
 62
     7
 10
-112.7676591067195
 20
100.0871391978192
  0
VERTEX
  8
1
  6
CONTINUOUS
 62
     7
 10
-112.9191956548865
 20
100.0817145673149
  0
VERTEX
  8
1
  6
CONTINUOUS
 62
     7
 10
-113.0435584860024
 20
100.0751046359204
  0
VERTEX
  8
1
  6
CONTINUOUS
 62
     7
 10
-113.1359684062112
 20
100.0675634195923
  0
VERTEX
  8
1
  6
CONTINUOUS
 62
     7
 10
-113.1928741541031
 20
100.0593807230449
  0
VERTEX
  8
1
  6
CONTINUOUS
 62
     7
 10
-113.2120888736999
 20
100.0508710027177
  0
SEQEND
  8
1
  6
CONTINUOUS
 62
     7
  0
LINE
  8
0
  6
CONTINUOUS
 62
     7
 10
-104.9473392106086
 20
118.2543460217914
 11
-104.9761041716001
 21
118.2621852598243
  0
LINE
  8
0
  6
CONTINUOUS
 62
     7
 10
-104.3307044609944
 20
125.0296159173958
 11
-104.3504841257047
 21
125.0676118041246
  0
LINE
  8
0
  6
CONTINUOUS
 62
     7
 10
-104.4012168474717
 20
106.1571484291366
 11
-104.3655872890663
 21
106.2125445465795
  0
LINE
  8
0
  6
CONTINUOUS
 62
     7
 10
-104.6932354905884
 20
118.1388051000334
 11
-104.727430752854
 21
118.1597135439294
  0
LINE
  8
0
  6
CONTINUOUS
 62
     7
 10
-105.0352338611679
 20
118.2753622978859
 11
-105.0654322077208
 21
118.2806126653661
  0
LINE
  8
0
  6
CONTINUOUS
 62
     7
 10
-104.4405951495004
 20
106.1036158965532
 11
-104.4012168474717
 21
106.1571484291366
  0
LINE
  8
0
  6
CONTINUOUS
 62
     7
 10
-105.1266799493066
 20
118.2882185158541
 11
-105.1550374572562
 21
118.2903586768506
  0
LINE
  8
0
  6
CONTINUOUS
 62
     7
 10
-105.1550374572562
 20
118.2903586768506
 11
-105.1835388982886
 21
118.291650079622
  0
LINE
  8
0
  6
CONTINUOUS
 62
     7
 10
-104.8782395257998
 20
100.0208955052075
 11
-104.9761041716001
 21
100.0580155426582
  0
LINE
  8
0
  6
CONTINUOUS
 62
     7
 10
-104.2606413943269
 20
124.851637822451
 11
-104.2747836141817
 21
124.8956781603253
  0
LINE
  8
0
  6
CONTINUOUS
 62
     7
 10
-104.3504841257047
 20
125.0676118041245
 11
-104.372064969421
 21
125.1053628986178
  0
LINE
  8
0
  6
CONTINUOUS
 62
     7
 10
-104.372064969421
 20
125.1053628986179
 11
-104.3955451303086
 21
125.1428420270568
  0
LINE
  8
0
  6
CONTINUOUS
 62
     7
 10
-104.3097916916575
 20
124.9850046411319
 11
-104.3307044609944
 21
125.0296159173958
  0
LINE
  8
0
  6
CONTINUOUS
 62
     7
 10
-104.2911244556285
 20
124.9401733060962
 11
-104.3097916916575
 21
124.9850046411319
  0
LINE
  8
0
  6
CONTINUOUS
 62
     7
 10
-104.3955451303084
 20
125.1428420270568
 11
-104.4210375242005
 21
125.1800138494853
  0
LINE
  8
0
  6
CONTINUOUS
 62
     7
 10
-104.3336810624755
 20
117.742754475558
 11
-104.365587289066
 21
117.7998317172206
  0
LINE
  8
0
  6
CONTINUOUS
 62
     7
 10
-104.4405951495004
 20
117.908760367247
 11
-104.4716817859601
 21
117.9465057262592
  0
LINE
  8
0
  6
CONTINUOUS
 62
     7
 10
-104.4716817859601
 20
117.9465057262592
 11
-104.5049492334106
 21
117.9832246514815
  0
LINE
  8
0
  6
CONTINUOUS
 62
     7
 10
-104.6605350899831
 20
118.1169667968485
 11
-104.6932354905882
 21
118.1388051000333
  0
LINE
  8
0
  6
CONTINUOUS
 62
     7
 10
-104.6181904201388
 20
118.0857882155973
 11
-104.6605350899834
 21
118.1169667968485
  0
LINE
  8
0
  6
CONTINUOUS
 62
     7
 10
-104.6181904201388
 20
105.9265880482028
 11
-104.5781681526571
 21
105.9593669067685
  0
LINE
  8
0
  6
CONTINUOUS
 62
     7
 10
-104.5049492334106
 20
117.9832246514815
 11
-104.5404328896952
 21
118.0187736820327
  0
LINE
  8
0
  6
CONTINUOUS
 62
     7
 10
-104.5404328896954
 20
118.0187736820326
 11
-104.5781681526571
 21
118.0530093570316
  0
LINE
  8
0
  6
CONTINUOUS
 62
     7
 10
-104.5781681526571
 20
118.0530093570317
 11
-104.6181904201388
 21
118.0857882155973
  0
LINE
  8
0
  6
CONTINUOUS
 62
     7
 10
-104.727430752854
 20
118.1597135439294
 11
-104.7630748321439
 21
118.1795613681189
  0
LINE
  8
0
  6
CONTINUOUS
 62
     7
 10
-104.9192184268274
 20
118.245731259456
 11
-104.9473392106088
 21
118.2543460217914
  0
LINE
  8
0
  6
CONTINUOUS
 62
     7
 10
-105.0654322077208
 20
118.280612665366
 11
-105.0959419674377
 21
118.2849126434468
  0
LINE
  8
0
  6
CONTINUOUS
 62
     7
 10
-105.1835388982886
 20
118.291650079622
 11
-105.2120888736998
 21
118.2920827612044
  0
LINE
  8
0
  6
CONTINUOUS
 62
     7
 10
-104.8782395257998
 20
118.2314335182703
 11
-104.9192184268272
 21
118.245731259456
  0
LINE
  8
0
  6
CONTINUOUS
 62
     7
 10
-105.0054301187905
 20
118.2692052572806
 11
-105.0352338611679
 21
118.2753622978859
  0
LINE
  8
0
  6
CONTINUOUS
 62
     7
 10
-104.9699346867387
 20
123.9562620155469
 11
-104.8385252632528
 21
124.0104939049602
  0
LINE
  8
0
  6
CONTINUOUS
 62
     7
 10
-104.7630748321439
 20
99.95917205933557
 11
-104.8782395258001
 21
100.0208955052075
  0
LINE
  8
0
  6
CONTINUOUS
 62
     7
 10
-105.2120888736998
 20
123.9178858737171
 11
-105.0886549172917
 21
123.927941252138
  0
LINE
  8
0
  6
CONTINUOUS
 62
     7
 10
-104.8385252632528
 20
124.0104939049602
 11
-104.727430752854
 21
124.0765371212454
  0
LINE
  8
0
  6
CONTINUOUS
 62
     7
 10
-105.2120888736998
 20
100.094490390083
 11
-112.2120888736997
 21
100.094490390083
  0
LINE
  8
0
  6
CONTINUOUS
 62
     7
 10
-104.3336810624755
 20
106.2696217882421
 11
-104.3054727558914
 21
106.3281976934846
  0
LINE
  8
0
  6
CONTINUOUS
 62
     7
 10
-105.0959419674377
 20
118.2849126434469
 11
-105.1266799493068
 21
118.2882185158541
  0
LINE
  8
0
  6
CONTINUOUS
 62
     7
 10
-104.6605350899831
 20
105.8954094669516
 11
-104.6181904201386
 21
105.9265880482028
  0
LINE
  8
0
  6
CONTINUOUS
 62
     7
 10
-112.2120888736999
 20
123.9178858737171
 11
-105.2120888737
 21
123.9178858737171
  0
LINE
  8
0
  6
CONTINUOUS
 62
     7
 10
-104.2438430371479
 20
99.37509969463298
 11
-104.3054727558914
 21
99.42318306296518
  0
LINE
  8
0
  6
CONTINUOUS
 62
     7
 10
-104.2438430371481
 20
124.7794676407781
 11
-104.2499465368082
 21
124.8134631863971
  0
LINE
  8
0
  6
CONTINUOUS
 62
     7
 10
-104.4716817859601
 20
106.065870537541
 11
-104.4405951495004
 21
106.1036158965532
  0
LINE
  8
0
  6
CONTINUOUS
 62
     7
 10
-104.9761041716001
 20
100.0580155426581
 11
-105.0959419674375
 21
100.0857081817032
  0
LINE
  8
0
  6
CONTINUOUS
 62
     7
 10
-104.3054727558914
 20
99.42318306296521
 11
-104.3655872890663
 21
99.53992580515353
  0
LINE
  8
0
  6
CONTINUOUS
 62
     7
 10
-105.2120888736998
 20
118.2920827612044
 11
-112.2120888736997
 21
118.2920827612044
  0
LINE
  8
0
  6
CONTINUOUS
 62
     7
 10
-104.7630748321439
 20
118.1795613681188
 11
-104.8001216838223
 21
118.1982178121839
  0
LINE
  8
0
  6
CONTINUOUS
 62
     7
 10
-105.0959419674377
 20
100.0857081817032
 11
-105.2120888737
 21
100.094490390083
  0
LINE
  8
0
  6
CONTINUOUS
 62
     7
 10
-104.2486421627615
 20
99.20420719697609
 11
-104.2438430371479
 21
99.23290862302203
  0
LINE
  8
0
  6
CONTINUOUS
 62
     7
 10
-105.088654917292
 20
123.927941252138
 11
-104.9699346867387
 21
123.9562620155469
  0
LINE
  8
0
  6
CONTINUOUS
 62
     7
 10
-104.5404328896954
 20
105.9936025817675
 11
-104.5049492334109
 21
106.0291516123187
  0
LINE
  8
0
  6
CONTINUOUS
 62
     7
 10
-104.5049492334106
 20
106.0291516123187
 11
-104.4716817859601
 21
106.065870537541
  0
LINE
  8
0
  6
CONTINUOUS
 62
     7
 10
-104.8385252632528
 20
118.215552115707
 11
-104.8782395257998
 21
118.2314335182703
  0
LINE
  8
0
  6
CONTINUOUS
 62
     7
 10
-104.4012168474717
 20
117.8552278346635
 11
-104.4405951495004
 21
117.9087603672469
  0
LINE
  8
0
  6
CONTINUOUS
 62
     7
 10
-104.6605350899831
 20
99.88612836582416
 11
-104.7630748321439
 21
99.9591720593356
  0
LINE
  8
0
  6
CONTINUOUS
 62
     7
 10
-104.3054727558914
 20
124.5891932008349
 11
-104.2438430371479
 21
124.6372765691671
  0
LINE
  8
0
  6
CONTINUOUS
 62
     7
 10
-104.5781681526571
 20
105.9593669067684
 11
-104.5404328896954
 21
105.9936025817674
  0
LINE
  8
0
  6
CONTINUOUS
 62
     7
 10
-104.2438430371481
 20
124.637276569167
 11
-104.2438430371481
 21
124.7794676407775
  0
LINE
  8
0
  6
CONTINUOUS
 62
     7
 10
-104.2499343436076
 20
124.813416593797
 11
-104.2606413943269
 21
124.851637822451
  0
LINE
  8
0
  6
CONTINUOUS
 62
     7
 10
-104.8001216838221
 20
118.198217812184
 11
-104.8385252632528
 21
118.2155521157071
  0
LINE
  8
0
  6
CONTINUOUS
 62
     7
 10
-104.9761041716001
 20
118.2621852598243
 11
-105.0054301187905
 21
118.2692052572806
  0
LINE
  8
0
  6
CONTINUOUS
 62
     7
 10
-104.2438430371479
 20
99.23290862302252
 11
-104.2438430371479
 21
99.37509969463298
  0
LINE
  8
0
  6
CONTINUOUS
 62
     7
 10
-104.3054727558914
 20
117.6841785703155
 11
-104.3336810624755
 21
117.742754475558
  0
LINE
  8
0
  6
CONTINUOUS
 62
     7
 10
-104.3655872890663
 20
117.7998317172206
 11
-104.4012168474717
 21
117.8552278346636
  0
LINE
  8
0
  6
CONTINUOUS
 62
     7
 10
-104.2747836141817
 20
124.8956781603253
 11
-104.2911244556285
 21
124.9401733060962
  0
LINE
  8
0
  6
CONTINUOUS
 62
     7
 10
-104.5382295319416
 20
125.3169366303919
 11
-104.5669175971013
 21
125.3440262354729
  0
LINE
  8
0
  6
CONTINUOUS
 62
     7
 10
-104.8807191347003
 20
125.5367758577395
 11
-104.9190095869945
 21
125.5502719139588
  0
LINE
  8
0
  6
CONTINUOUS
 62
     7
 10
-104.9190095869947
 20
125.5502719139588
 11
-104.9582295497797
 21
125.5622277181565
  0
LINE
  8
0
  6
CONTINUOUS
 62
     7
 10
-104.7681047019621
 20
125.4858545035673
 11
-104.8069270271518
 21
125.5053955014359
  0
LINE
  8
0
  6
CONTINUOUS
 62
     7
 10
-104.9582295497795
 20
125.5622277181566
 11
-104.9983775395424
 21
125.5725765381816
  0
LINE
  8
0
  6
CONTINUOUS
 62
     7
 10
-104.4486721278983
 20
125.2168332746784
 11
-104.478598865501
 21
125.2532434027292
  0
LINE
  8
0
  6
CONTINUOUS
 62
     7
 10
-104.5969955267875
 20
125.3702852750917
 11
-104.6285139356115
 21
125.395661545832
  0
LINE
  8
0
  6
CONTINUOUS
 62
     7
 10
-104.9744381144428
 20
98.44574330733474
 11
-104.8557920000348
 21
98.48538908156773
  0
LINE
  8
0
  6
CONTINUOUS
 62
     7
 10
-104.6285139356115
 20
125.395661545832
 11
-104.6615281757876
 21
125.420093803006
  0
LINE
  8
0
  6
CONTINUOUS
 62
     7
 10
-104.6615281757878
 20
125.420093803006
 11
-104.695467336082
 21
125.443101892549
  0
LINE
  8
0
  6
CONTINUOUS
 62
     7
 10
-104.7309701260445
 20
125.4650522605976
 11
-104.7681047019621
 21
125.4858545035673
  0
LINE
  8
0
  6
CONTINUOUS
 62
     7
 10
-104.2498069638444
 20
99.19944709748351
 11
-104.2485848461491
 21
99.20416844770988
  0
LINE
  8
0
  6
CONTINUOUS
 62
     7
 10
-104.7398414152247
 20
98.54215915432806
 11
-104.6316529754294
 21
98.61429996332188
  0
LINE
  8
0
  6
CONTINUOUS
 62
     7
 10
-104.478598865501
 20
125.2532434027293
 11
-104.5109912928157
 21
125.2891728404137
  0
LINE
  8
0
  6
CONTINUOUS
 62
     7
 10
-104.5669175971015
 20
125.3440262354729
 11
-104.5969955267875
 21
125.3702852750917
  0
LINE
  8
0
  6
CONTINUOUS
 62
     7
 10
-104.6954673360818
 20
125.443101892549
 11
-104.7309701260445
 21
125.4650522605975
  0
LINE
  8
0
  6
CONTINUOUS
 62
     7
 10
-105.1243579221343
 20
125.5932006368912
 11
-105.1680219348969
 21
125.5962909931949
  0
LINE
  8
0
  6
CONTINUOUS
 62
     7
 10
-112.2120888736999
 20
98.41504333919538
 11
-105.2120888737
 21
98.41504333919538
  0
LINE
  8
0
  6
CONTINUOUS
 62
     7
 10
-104.8069270271518
 20
125.5053955014359
 11
-104.8433585280248
 21
125.5217993482527
  0
LINE
  8
0
  6
CONTINUOUS
 62
     7
 10
-105.2120888736998
 20
125.5973329246047
 11
-112.2120888736997
 21
125.5973329246047
  0
LINE
  8
0
  6
CONTINUOUS
 62
     7
 10
-104.4210375242005
 20
125.1800138494854
 11
-104.4486721278983
 21
125.2168332746784
  0
LINE
  8
0
  6
CONTINUOUS
 62
     7
 10
-105.0394509126222
 20
125.5812443297365
 11
-105.0814459305737
 21
125.5881491959085
  0
LINE
  8
0
  6
CONTINUOUS
 62
     7
 10
-104.8433585280248
 20
125.5217993482527
 11
-104.8807191347003
 21
125.5367758577395
  0
LINE
  8
0
  6
CONTINUOUS
 62
     7
 10
-104.9983775395426
 20
125.5725765381816
 11
-105.0394509126222
 21
125.5812443297365
  0
LINE
  8
0
  6
CONTINUOUS
 62
     7
 10
-104.8557920000348
 20
98.48538908156773
 11
-104.7398414152247
 21
98.54215915432806
  0
LINE
  8
0
  6
CONTINUOUS
 62
     7
 10
-105.2120888736998
 20
98.41504421229152
 11
-105.0938549231137
 21
98.42255932431159
  0
LINE
  8
0
  6
CONTINUOUS
 62
     7
 10
-104.5109912928157
 20
125.2891728404137
 11
-104.5382295319416
 21
125.3169366303919
  0
LINE
  8
0
  6
CONTINUOUS
 62
     7
 10
-105.0814459305735
 20
125.5881491959085
 11
-105.1243579221343
 21
125.5932006368911
  0
LINE
  8
0
  6
CONTINUOUS
 62
     7
 10
-105.1680219348971
 20
125.5962909931949
 11
-105.2120888737
 21
125.5973320515086
  0
LINE
  8
0
  6
CONTINUOUS
 62
     7
 10
-105.0938549231139
 20
98.42255932431154
 11
-104.9744381144428
 21
98.44574330733471
  0
CIRCLE
  8
0
  6
CONTINUOUS
 62
     7
 10
-36.6629966366
 20
112.0061881319
 40
9.0
  0
CIRCLE
  8
0
  6
CONTINUOUS
 62
     7
 10
-36.6629966366
 20
112.0061881319
 40
13.0
  0
CIRCLE
  8
0
  6
CONTINUOUS
 62
     7
 10
-36.6629966366
 20
112.0061881319
 40
17.5
  0
CIRCLE
  8
0
  6
CONTINUOUS
 62
     7
 10
-187.5238063194
 20
112.0061881319
 40
14.0
  0
CIRCLE
  8
0
  6
CONTINUOUS
 62
     7
 10
-36.6629966366
 20
112.0061881319
 40
10.8
  0
CIRCLE
  8
0
  6
CONTINUOUS
 62
     7
 10
-187.5238063194
 20
112.0061881319
 40
10.75
  0
CIRCLE
  8
0
  6
CONTINUOUS
 62
     7
 10
-187.5238063194
 20
112.0061881319
 40
11.75
  0
CIRCLE
  8
0
  6
CONTINUOUS
 62
     7
 10
-36.6629966366
 20
112.0061881319
 40
7.45
  0
CIRCLE
  8
0
  6
CONTINUOUS
 62
     7
 10
-187.5238063194
 20
112.0061881319
 40
17.5
  0
CIRCLE
  8
0
  6
CONTINUOUS
 62
     7
 10
-187.5238063194
 20
112.0061881319
 40
8.0
  0
CIRCLE
  8
0
  6
CONTINUOUS
 62
     7
 10
-187.5238063194
 20
112.0061881319
 40
9.0
  0
CIRCLE
  8
0
  6
CONTINUOUS
 62
     7
 10
-187.5238063194
 20
112.0061881319
 40
7.45
  0
ARC
  8
0
  6
CONTINUOUS
 62
     7
 10
-151.2120888737
 20
125.7378301887
 40
1.000000000000004
 50
105.0000000000003
 51
180.0
  0
ARC
  8
0
  6
CONTINUOUS
 62
     7
 10
-112.2120888736999
 20
126.5973329246047
 40
0.9999999999998899
 50
180.0
 51
270.0
  0
ARC
  8
0
  6
CONTINUOUS
 62
     7
 10
-105.9091229132871
 20
106.6408354677921
 40
1.674741978656472
 50
16.7541303793206
 51
41.79446283010368
  0
ARC
  8
0
  6
CONTINUOUS
 62
     7
 10
-112.2120888736999
 20
126.5973329246047
 40
0.9999999999998899
 50
180.0
 51
270.0
  0
ARC
  8
0
  6
CONTINUOUS
 62
     7
 10
-105.4550901159465
 20
98.91046410123482
 40
1.25826803443475
 50
30.01723119374528
 51
50.84154500438854
  0
ARC
  8
0
  6
CONTINUOUS
 62
     7
 10
-105.2932946178073
 20
99.46322661070694
 40
1.076311346947988
 50
307.9323560669906
 51
345.8135961510354
  0
ARC
  8
0
  6
CONTINUOUS
 62
     7
 10
-112.2120888736999
 20
97.41504333919536
 40
1.000000000000001
 50
90.0
 51
180.0
  0
ARC
  8
0
  6
CONTINUOUS
 62
     7
 10
-151.2120888737
 20
98.27454607510002
 40
1.000000000000001
 50
180.0
 51
254.9999999999997
  0
ARC
  8
0
  6
CONTINUOUS
 62
     7
 10
-105.860926986186
 20
117.3445229259161
 40
1.620847883548477
 50
317.782128176603
 51
343.6692786139679
  0
ARC
  8
0
  6
CONTINUOUS
 62
     7
 10
-112.2120888736999
 20
97.41504333919536
 40
1.000000000000001
 50
90.0
 51
180.0
  0
ARC
  8
0
  6
CONTINUOUS
 62
     7
 10
-105.4550901159465
 20
98.91046410123482
 40
1.258268034434723
 50
30.0172311937431
 51
50.84154500439914
  0
ARC
  8
0
  6
CONTINUOUS
 62
     7
 10
-105.4523620095899
 20
125.1031960560612
 40
1.256803045600139
 50
305.2261901616269
 51
335.8594464413605
  0
ARC
  8
0
  6
CONTINUOUS
 62
     7
 10
-105.860926986186
 20
117.3445229259162
 40
1.620847883548642
 50
317.7821281766081
 51
343.6692786139675
  0
ARC
  8
0
  6
CONTINUOUS
 62
     7
 10
-105.4523620095901
 20
125.1031960560615
 40
1.256803045600357
 50
305.2261901616322
 51
335.859446441347
  0
ARC
  8
0
  6
CONTINUOUS
 62
     7
 10
-105.9091229132869
 20
106.6408354677922
 40
1.674741978656211
 50
16.75413037931735
 51
41.79446283010422
  0
LINE
  8
0
  6
CONTINUOUS
 62
     7
 10
-140.2120888737
 20
100.2304305561
 11
-130.2120888737
 21
100.2304305561
  0
LINE
  8
0
  6
CONTINUOUS
 62
     7
 10
-140.2120888737
 20
100.8395214652
 11
-130.2120888737
 21
100.8395214652
  0
LINE
  8
0
  6
CONTINUOUS
 62
     7
 10
-140.2120888737
 20
106.5243699501
 11
-130.2120888737
 21
106.5243699501
  0
LINE
  8
0
  6
CONTINUOUS
 62
     7
 10
-140.2120888737
 20
105.3061881319
 11
-130.2120888737
 21
105.3061881319
  0
LINE
  8
0
  6
CONTINUOUS
 62
     7
 10
-140.2120888737
 20
106.118309344
 11
-130.2120888737
 21
106.118309344
  0
LINE
  8
0
  6
CONTINUOUS
 62
     7
 10
-140.2120888737
 20
99.62133964700001
 11
-130.2120888737
 21
99.62133964700001
  0
LINE
  8
0
  6
CONTINUOUS
 62
     7
 10
-140.2120888737
 20
102.0577032834
 11
-130.2120888737
 21
102.0577032834
  0
LINE
  8
0
  6
CONTINUOUS
 62
     7
 10
-140.2120888737
 20
98.0986123743
 11
-130.2120888737
 21
98.0986123743
  0
LINE
  8
0
  6
CONTINUOUS
 62
     7
 10
-140.2120888737
 20
97.7940669198
 11
-130.2120888737
 21
97.7940669198
  0
LINE
  8
0
  6
CONTINUOUS
 62
     7
 10
-120.7120888737
 20
104.1334828971
 11
-120.7120888737
 21
119.8788933666
  0
LINE
  8
0
  6
CONTINUOUS
 62
     7
 10
-140.2120888737
 20
100.5349760107
 11
-130.2120888737
 21
100.5349760107
  0
LINE
  8
0
  6
CONTINUOUS
 62
     7
 10
-140.2120888737
 20
97.48952146520001
 11
-130.2120888737
 21
97.48952146520001
  0
LINE
  8
0
  6
CONTINUOUS
 62
     7
 10
-140.2120888737
 20
110.1789154046
 11
-130.2120888737
 21
110.1789154046
  0
LINE
  8
0
  6
CONTINUOUS
 62
     7
 10
-128.2120888737
 20
104.1334828971
 11
-120.7120888737
 21
104.1334828971
  0
LINE
  8
0
  6
CONTINUOUS
 62
     7
 10
-130.2120888737
 20
107.9455820713
 11
-140.2120888737
 21
107.9455820713
  0
LINE
  8
0
  6
CONTINUOUS
 62
     7
 10
-116.2120888737
 20
129.2561881319
 11
-116.2120888737
 21
94.7561881319
  0
LINE
  8
0
  6
CONTINUOUS
 62
     7
 10
-130.2120888737
 20
129.5061881319
 11
-130.2120888737
 21
94.5061881319
  0
LINE
  8
0
  6
CONTINUOUS
 62
     7
 10
-118.2120888737
 20
129.2561881319
 11
-118.2120888737
 21
94.7561881319
  0
LINE
  8
0
  6
CONTINUOUS
 62
     7
 10
-128.2120888737
 20
94.5061881319
 11
-140.2120888737
 21
94.5061881319
  0
LINE
  8
0
  6
CONTINUOUS
 62
     7
 10
-140.2120888737
 20
108.9607335864
 11
-130.2120888737
 21
108.9607335864
  0
LINE
  8
0
  6
CONTINUOUS
 62
     7
 10
-140.2120888737
 20
104.4940669198
 11
-130.2120888737
 21
104.4940669198
  0
LINE
  8
0
  6
CONTINUOUS
 62
     7
 10
-140.2120888737
 20
102.4637638895
 11
-130.2120888737
 21
102.4637638895
  0
LINE
  8
0
  6
CONTINUOUS
 62
     7
 10
-140.2120888737
 20
99.3167941925
 11
-130.2120888737
 21
99.3167941925
  0
LINE
  8
0
  6
CONTINUOUS
 62
     7
 10
-140.2120888737
 20
99.01224873790001
 11
-130.2120888737
 21
99.01224873790001
  0
LINE
  8
0
  6
CONTINUOUS
 62
     7
 10
-130.2120888737
 20
97.1849760107
 11
-140.2120888737
 21
97.1849760107
  0
LINE
  8
0
  6
CONTINUOUS
 62
     7
 10
-140.2120888737
 20
96.88043055610001
 11
-130.2120888737
 21
96.88043055610001
  0
LINE
  8
0
  6
CONTINUOUS
 62
     7
 10
-140.2120888737
 20
98.70770328340001
 11
-130.2120888737
 21
98.70770328340001
  0
LINE
  8
0
  6
CONTINUOUS
 62
     7
 10
-140.2120888737
 20
129.5061881319
 11
-140.2120888737
 21
94.5061881319
  0
LINE
  8
0
  6
CONTINUOUS
 62
     7
 10
-140.2120888737
 20
104.9001275258
 11
-130.2120888737
 21
104.9001275258
  0
LINE
  8
0
  6
CONTINUOUS
 62
     7
 10
-140.2120888737
 20
104.0880063137
 11
-130.2120888737
 21
104.0880063137
  0
LINE
  8
0
  6
CONTINUOUS
 62
     7
 10
-128.2120888737
 20
119.8788933666
 11
-120.7120888737
 21
119.8788933666
  0
LINE
  8
0
  6
CONTINUOUS
 62
     7
 10
-140.2120888737
 20
103.6819457076
 11
-130.2120888737
 21
103.6819457076
  0
LINE
  8
0
  6
CONTINUOUS
 62
     7
 10
-140.2120888737
 20
103.2758851016
 11
-130.2120888737
 21
103.2758851016
  0
LINE
  8
0
  6
CONTINUOUS
 62
     7
 10
-140.2120888737
 20
102.8698244955
 11
-130.2120888737
 21
102.8698244955
  0
LINE
  8
0
  6
CONTINUOUS
 62
     7
 10
-140.2120888737
 20
105.7122487379
 11
-130.2120888737
 21
105.7122487379
  0
LINE
  8
0
  6
CONTINUOUS
 62
     7
 10
-140.2120888737
 20
101.6516426773
 11
-130.2120888737
 21
101.6516426773
  0
LINE
  8
0
  6
CONTINUOUS
 62
     7
 10
-140.2120888737
 20
101.2455820713
 11
-130.2120888737
 21
101.2455820713
  0
LINE
  8
0
  6
CONTINUOUS
 62
     7
 10
-130.2120888737
 20
99.9258851016
 11
-140.2120888737
 21
99.9258851016
  0
LINE
  8
0
  6
CONTINUOUS
 62
     7
 10
-140.2120888737
 20
98.40315782890002
 11
-130.2120888737
 21
98.40315782890002
  0
LINE
  8
0
  6
CONTINUOUS
 62
     7
 10
-130.2120888737
 20
106.9304305561
 11
-140.2120888737
 21
106.9304305561
  0
LINE
  8
0
  6
CONTINUOUS
 62
     7
 10
-140.2120888737
 20
109.5698244955
 11
-130.2120888737
 21
109.5698244955
  0
LINE
  8
0
  6
CONTINUOUS
 62
     7
 10
-128.2120888737
 20
94.5061881319
 11
-128.2120888737
 21
129.5061881319
  0
LINE
  8
0
  6
CONTINUOUS
 62
     7
 10
-140.2120888737
 20
110.7880063137
 11
-130.2120888737
 21
110.7880063137
  0
LINE
  8
0
  6
CONTINUOUS
 62
     7
 10
-152.2120888737
 20
98.27454607510002
 11
-152.2120888737
 21
125.7378301887
  0
LINE
  8
0
  6
CONTINUOUS
 62
     7
 10
-140.2120888737
 20
108.4531578289
 11
-130.2120888737
 21
108.4531578289
  0
LINE
  8
0
  6
CONTINUOUS
 62
     7
 10
-140.2120888737
 20
107.4380063137
 11
-130.2120888737
 21
107.4380063137
  0
LINE
  8
0
  6
CONTINUOUS
 62
     7
 10
-151.4709079188
 20
97.3086202488
 11
-140.2120888737
 21
94.5061881319
  0
LINE
  8
0
  6
CONTINUOUS
 62
     7
 10
-140.2120888737
 20
111.3970972228
 11
-130.2120888737
 21
111.3970972228
  0
LINE
  8
0
  6
CONTINUOUS
 62
     7
 10
-140.2120888737
 20
121.9546729804
 11
-130.2120888737
 21
121.9546729804
  0
LINE
  8
0
  6
CONTINUOUS
 62
     7
 10
-140.2120888737
 20
126.218309344
 11
-130.2120888737
 21
126.218309344
  0
LINE
  8
0
  6
CONTINUOUS
 62
     7
 10
-140.2120888737
 20
95.35770328340001
 11
-130.2120888737
 21
95.35770328340001
  0
LINE
  8
0
  6
CONTINUOUS
 62
     7
 10
-140.2120888737
 20
126.5228547985
 11
-130.2120888737
 21
126.5228547985
  0
LINE
  8
0
  6
CONTINUOUS
 62
     7
 10
-140.2120888737
 20
118.3001275258
 11
-130.2120888737
 21
118.3001275258
  0
LINE
  8
0
  6
CONTINUOUS
 62
     7
 10
-140.2120888737
 20
119.1122487379
 11
-130.2120888737
 21
119.1122487379
  0
LINE
  8
0
  6
CONTINUOUS
 62
     7
 10
-140.2120888737
 20
128.9592184349
 11
-130.2120888737
 21
128.9592184349
  0
LINE
  8
0
  6
CONTINUOUS
 62
     7
 10
-140.2120888737
 20
96.27133964700002
 11
-130.2120888737
 21
96.27133964700002
  0
LINE
  8
0
  6
CONTINUOUS
 62
     7
 10
-140.2120888737
 20
116.5743699501
 11
-130.2120888737
 21
116.5743699501
  0
LINE
  8
0
  6
CONTINUOUS
 62
     7
 10
-140.2120888737
 20
117.8940669198
 11
-130.2120888737
 21
117.8940669198
  0
LINE
  8
0
  6
CONTINUOUS
 62
     7
 10
-140.2120888737
 20
120.3304305561
 11
-130.2120888737
 21
120.3304305561
  0
LINE
  8
0
  6
CONTINUOUS
 62
     7
 10
-140.2120888737
 20
117.4880063137
 11
-130.2120888737
 21
117.4880063137
  0
LINE
  8
0
  6
CONTINUOUS
 62
     7
 10
-140.2120888737
 20
123.7819457076
 11
-130.2120888737
 21
123.7819457076
  0
LINE
  8
0
  6
CONTINUOUS
 62
     7
 10
-43.0833068534
 20
96.5061881319
 11
-30.24268641989999
 21
96.5061881319
  0
LINE
  8
0
  6
CONTINUOUS
 62
     7
 10
-52.1629966366
 20
105.5858779151
 11
-43.0833068534
 21
96.5061881319
  0
LINE
  8
0
  6
CONTINUOUS
 62
     7
 10
-140.2120888737
 20
121.5486123743
 11
-130.2120888737
 21
121.5486123743
  0
LINE
  8
0
  6
CONTINUOUS
 62
     7
 10
-130.2120888737
 20
124.0864911622
 11
-140.2120888737
 21
124.0864911622
  0
LINE
  8
0
  6
CONTINUOUS
 62
     7
 10
-140.2120888737
 20
125.9137638895
 11
-130.2120888737
 21
125.9137638895
  0
LINE
  8
0
  6
CONTINUOUS
 62
     7
 10
-140.2120888737
 20
95.6622487379
 11
-130.2120888737
 21
95.6622487379
  0
LINE
  8
0
  6
CONTINUOUS
 62
     7
 10
-140.2120888737
 20
122.3607335864
 11
-130.2120888737
 21
122.3607335864
  0
LINE
  8
0
  6
CONTINUOUS
 62
     7
 10
-130.2120888737
 20
126.8274002531
 11
-140.2120888737
 21
126.8274002531
  0
LINE
  8
0
  6
CONTINUOUS
 62
     7
 10
-140.2120888737
 20
113.2243699501
 11
-130.2120888737
 21
113.2243699501
  0
LINE
  8
0
  6
CONTINUOUS
 62
     7
 10
-151.4709079188
 20
126.703756015
 11
-140.2120888737
 21
129.5061881319
  0
LINE
  8
0
  6
CONTINUOUS
 62
     7
 10
-140.2120888737
 20
113.8334608592
 11
-130.2120888737
 21
113.8334608592
  0
LINE
  8
0
  6
CONTINUOUS
 62
     7
 10
-140.2120888737
 20
119.518309344
 11
-130.2120888737
 21
119.518309344
  0
LINE
  8
0
  6
CONTINUOUS
 62
     7
 10
-140.2120888737
 20
124.6955820713
 11
-130.2120888737
 21
124.6955820713
  0
LINE
  8
0
  6
CONTINUOUS
 62
     7
 10
-140.2120888737
 20
125.0001275258
 11
-130.2120888737
 21
125.0001275258
  0
LINE
  8
0
  6
CONTINUOUS
 62
     7
 10
-140.2120888737
 20
95.9667941925
 11
-130.2120888737
 21
95.9667941925
  0
LINE
  8
0
  6
CONTINUOUS
 62
     7
 10
-140.2120888737
 20
94.74861237430001
 11
-130.2120888737
 21
94.74861237430001
  0
LINE
  8
0
  6
CONTINUOUS
 62
     7
 10
-130.2120888737
 20
117.0819457076
 11
-140.2120888737
 21
117.0819457076
  0
LINE
  8
0
  6
CONTINUOUS
 62
     7
 10
-140.2120888737
 20
123.4774002531
 11
-130.2120888737
 21
123.4774002531
  0
LINE
  8
0
  6
CONTINUOUS
 62
     7
 10
-140.2120888737
 20
128.0455820713
 11
-130.2120888737
 21
128.0455820713
  0
LINE
  8
0
  6
CONTINUOUS
 62
     7
 10
-140.2120888737
 20
122.7667941925
 11
-130.2120888737
 21
122.7667941925
  0
LINE
  8
0
  6
CONTINUOUS
 62
     7
 10
-140.2120888737
 20
112.615279041
 11
-130.2120888737
 21
112.615279041
  0
LINE
  8
0
  6
CONTINUOUS
 62
     7
 10
-140.2120888737
 20
128.3501275258
 11
-130.2120888737
 21
128.3501275258
  0
LINE
  8
0
  6
CONTINUOUS
 62
     7
 10
-128.2120888737
 20
129.5061881319
 11
-140.2120888737
 21
129.5061881319
  0
LINE
  8
0
  6
CONTINUOUS
 62
     7
 10
-30.24268641989999
 20
96.5061881319
 11
-21.1629966366
 21
105.5858779151
  0
LINE
  8
0
  6
CONTINUOUS
 62
     7
 10
-21.1629966366
 20
105.5858779151
 11
-21.1629966366
 21
118.4264983487
  0
LINE
  8
0
  6
CONTINUOUS
 62
     7
 10
-140.2120888737
 20
114.4425517682
 11
-130.2120888737
 21
114.4425517682
  0
LINE
  8
0
  6
CONTINUOUS
 62
     7
 10
-140.2120888737
 20
119.9243699501
 11
-130.2120888737
 21
119.9243699501
  0
LINE
  8
0
  6
CONTINUOUS
 62
     7
 10
-140.2120888737
 20
127.1319457076
 11
-130.2120888737
 21
127.1319457076
  0
LINE
  8
0
  6
CONTINUOUS
 62
     7
 10
-140.2120888737
 20
115.5592184349
 11
-130.2120888737
 21
115.5592184349
  0
LINE
  8
0
  6
CONTINUOUS
 62
     7
 10
-43.0833068534
 20
127.5061881319
 11
-52.1629966366
 21
118.4264983487
  0
LINE
  8
0
  6
CONTINUOUS
 62
     7
 10
-140.2120888737
 20
127.7410366167
 11
-130.2120888737
 21
127.7410366167
  0
LINE
  8
0
  6
CONTINUOUS
 62
     7
 10
-52.1629966366
 20
118.4264983487
 11
-52.1629966366
 21
105.5858779151
  0
LINE
  8
0
  6
CONTINUOUS
 62
     7
 10
-30.24268641989999
 20
127.5061881319
 11
-43.0833068534
 21
127.5061881319
  0
LINE
  8
0
  6
CENTER
 62
     7
 10
-36.6629966366
 20
130.2762275537
 11
-36.6629966366
 21
93.7361487101
  0
LINE
  8
0
  6
CENTER
 62
     7
 10
-54.3935403291
 20
112.0061881319
 11
-18.3830278456
 21
112.0061881319
  0
LINE
  8
0
  6
CONTINUOUS
 62
     7
 10
-140.2120888737
 20
118.7061881319
 11
-130.2120888737
 21
118.7061881319
  0
LINE
  8
0
  6
CONTINUOUS
 62
     7
 10
-140.2120888737
 20
121.1425517682
 11
-130.2120888737
 21
121.1425517682
  0
LINE
  8
0
  6
CONTINUOUS
 62
     7
 10
-140.2120888737
 20
129.2637638895
 11
-130.2120888737
 21
129.2637638895
  0
LINE
  8
0
  6
CONTINUOUS
 62
     7
 10
-140.2120888737
 20
95.0531578289
 11
-130.2120888737
 21
95.0531578289
  0
LINE
  8
0
  6
CONTINUOUS
 62
     7
 10
-130.2120888737
 20
116.0667941925
 11
-140.2120888737
 21
116.0667941925
  0
LINE
  8
0
  6
CONTINUOUS
 62
     7
 10
-140.2120888737
 20
115.0516426773
 11
-130.2120888737
 21
115.0516426773
  0
LINE
  8
0
  6
CONTINUOUS
 62
     7
 10
-140.2120888737
 20
127.4364911622
 11
-130.2120888737
 21
127.4364911622
  0
LINE
  8
0
  6
CONTINUOUS
 62
     7
 10
-140.2120888737
 20
128.6546729804
 11
-130.2120888737
 21
128.6546729804
  0
LINE
  8
0
  6
CONTINUOUS
 62
     7
 10
-21.1629966366
 20
118.4264983487
 11
-30.24268641989999
 21
127.5061881319
  0
LINE
  8
0
  6
CONTINUOUS
 62
     7
 10
-140.2120888737
 20
120.7364911622
 11
-130.2120888737
 21
120.7364911622
  0
LINE
  8
0
  6
CONTINUOUS
 62
     7
 10
-140.2120888737
 20
124.3910366167
 11
-130.2120888737
 21
124.3910366167
  0
LINE
  8
0
  6
CONTINUOUS
 62
     7
 10
-140.2120888737
 20
125.3046729804
 11
-130.2120888737
 21
125.3046729804
  0
LINE
  8
0
  6
CONTINUOUS
 62
     7
 10
-140.2120888737
 20
96.57588510160001
 11
-130.2120888737
 21
96.57588510160001
  0
LINE
  8
0
  6
CONTINUOUS
 62
     7
 10
-140.2120888737
 20
123.1728547985
 11
-130.2120888737
 21
123.1728547985
  0
LINE
  8
0
  6
CONTINUOUS
 62
     7
 10
-140.2120888737
 20
125.6092184349
 11
-130.2120888737
 21
125.6092184349
  0
LINE
  8
0
  6
CONTINUOUS
 62
     7
 10
-104.8001216838221
 20
105.8141584516162
 11
-104.7630748321437
 21
105.8328148956813
  0
LINE
  8
0
  6
CONTINUOUS
 62
     7
 10
-104.7398414152247
 20
98.54215915432806
 11
-104.6316529754294
 21
98.61429996332186
  0
LINE
  8
0
  6
CONTINUOUS
 62
     7
 10
-104.7630748321439
 20
116.1594808117479
 11
-104.6605350899834
 21
116.2553915485633
  0
LINE
  8
0
  6
CONTINUOUS
 62
     7
 10
-105.1193289832601
 20
105.7249557561279
 11
-105.088654917292
 21
105.7284975688031
  0
LINE
  8
0
  6
CONTINUOUS
 62
     7
 10
-104.9699346867387
 20
105.7517596151597
 11
-104.9443539454557
 21
105.7588884395403
  0
LINE
  8
0
  6
CONTINUOUS
 62
     7
 10
-104.6181904201388
 20
105.9265880482028
 11
-104.5781681526571
 21
105.9593669067685
  0
LINE
  8
0
  6
CONTINUOUS
 62
     7
 10
-104.5781681526571
 20
105.9593669067684
 11
-104.5404328896954
 21
105.9936025817674
  0
LINE
  8
0
  6
CENTER
 62
     7
 10
-157.1121827802
 20
112.0061881319
 11
-57.97507927440002
 21
112.0061881319
  0
LINE
  8
0
  6
CONTINUOUS
 62
     7
 10
-104.3096502961478
 20
116.8848248111157
 11
-104.3054727558914
 21
116.8887708013327
  0
LINE
  8
0
  6
CONTINUOUS
 62
     7
 10
-105.088654917292
 20
105.7284975688031
 11
-105.0582754591897
 21
105.7329805052376
  0
LINE
  8
0
  6
CONTINUOUS
 62
     7
 10
-104.727430752854
 20
105.8526627198708
 11
-104.6932354905884
 21
105.8735711637668
  0
LINE
  8
0
  6
CONTINUOUS
 62
     7
 10
-116.2120888736999
 20
127.0061881319
 11
-113.2120888737
 21
127.0061881319
  0
LINE
  8
0
  6
CONTINUOUS
 62
     7
 10
-104.9443539454557
 20
105.7588884395403
 11
-104.9192184268274
 21
105.7666450043441
  0
LINE
  8
0
  6
CONTINUOUS
 62
     7
 10
-104.5404328896954
 20
105.9936025817675
 11
-104.5049492334109
 21
106.0291516123187
  0
LINE
  8
0
  6
CONTINUOUS
 62
     7
 10
-104.2438430371479
 20
106.9164110652605
 11
-104.3054727558914
 21
107.1236054624675
  0
LINE
  8
0
  6
CONTINUOUS
 62
     7
 10
-104.6932354905884
 20
105.8735711637668
 11
-104.6605350899834
 21
105.8954094669516
  0
LINE
  8
0
  6
CONTINUOUS
 62
     7
 10
-104.6605350899831
 20
105.8954094669516
 11
-104.6181904201386
 21
105.9265880482028
  0
LINE
  8
0
  6
CONTINUOUS
 62
     7
 10
-104.5049492334106
 20
106.0291516123187
 11
-104.4716817859601
 21
106.065870537541
  0
LINE
  8
0
  6
CONTINUOUS
 62
     7
 10
-104.2438430371472
 20
117.0959651985397
 11
-104.2438430371472
 21
117.43924481207
  0
LINE
  8
0
  6
CONTINUOUS
 62
     7
 10
-104.4716817859601
 20
106.065870537541
 11
-104.4405951495004
 21
106.1036158965532
  0
LINE
  8
0
  6
CONTINUOUS
 62
     7
 10
-104.3054727558914
 20
106.3281976934846
 11
-104.2438430371479
 21
106.5731314517302
  0
LINE
  8
0
  6
CONTINUOUS
 62
     7
 10
-104.8782395257998
 20
107.9332196683133
 11
-104.9761041716001
 21
107.9812122634987
  0
LINE
  8
0
  6
CENTER
 62
     7
 10
-209.3946326967
 20
112.0061881319
 11
-165.0144156684
 21
112.0061881319
  0
LINE
  8
0
  6
CONTINUOUS
 62
     7
 10
-104.6605350899831
 20
107.7569847152368
 11
-104.7630748321437
 21
107.8528954520523
  0
LINE
  8
0
  6
CONTINUOUS
 62
     7
 10
-104.4405951495004
 20
106.1036158965532
 11
-104.4012168474717
 21
106.1571484291366
  0
LINE
  8
0
  6
CONTINUOUS
 62
     7
 10
-116.2120888736999
 20
97.00618813190003
 11
-116.2120888736999
 21
127.0061881319
  0
LINE
  8
0
  6
CONTINUOUS
 62
     7
 10
-104.8782395257998
 20
105.7809427455298
 11
-104.8385252632528
 21
105.7968241480931
  0
LINE
  8
0
  6
CONTINUOUS
 62
     7
 10
-113.2120888737
 20
127.0061881319
 11
-113.2120888737
 21
97.00618813190003
  0
LINE
  8
0
  6
CONTINUOUS
 62
     7
 10
-105.0959419674377
 20
108.0168646034345
 11
-105.2120888736998
 21
108.0281446014219
  0
LINE
  8
0
  6
CENTER
 62
     7
 10
-187.5238063194
 20
135.676206611
 11
-187.5238063194
 21
89.5399378297
  0
LINE
  8
0
  6
CONTINUOUS
 62
     7
 10
-104.9988123484468
 20
105.7446431726096
 11
-104.9699346867385
 21
105.7517596151597
  0
LINE
  8
0
  6
CONTINUOUS
 62
     7
 10
-105.1501946616282
 20
105.7223867114059
 11
-105.1193289832601
 21
105.724955756128
  0
LINE
  8
0
  6
CONTINUOUS
 62
     7
 10
-104.7630748321439
 20
105.8328148956813
 11
-104.727430752854
 21
105.8526627198708
  0
LINE
  8
0
  6
CONTINUOUS
 62
     7
 10
-104.4012168474717
 20
106.1571484291366
 11
-104.3655872890663
 21
106.2125445465795
  0
LINE
  8
0
  6
CONTINUOUS
 62
     7
 10
-104.3655872890663
 20
106.2125445465795
 11
-104.3336810624757
 21
106.2696217882421
  0
LINE
  8
0
  6
CONTINUOUS
 62
     7
 10
-104.3197220387197
 20
125.0061881319
 11
-69.21208887369995
 21
125.0061881319
  0
LINE
  8
0
  6
CONTINUOUS
 62
     7
 10
-104.6605350899831
 20
107.7569847152368
 11
-104.7630748321437
 21
107.8528954520523
  0
LINE
  8
0
  6
CONTINUOUS
 62
     7
 10
-104.2438430371479
 20
106.5731314517302
 11
-104.2438430371479
 21
106.9164110652605
  0
LINE
  8
0
  6
CONTINUOUS
 62
     7
 10
-104.7630748321439
 20
107.8528954520522
 11
-104.8782395258001
 21
107.9332196683133
  0
LINE
  8
0
  6
CONTINUOUS
 62
     7
 10
-104.8385252632528
 20
124.0104939049602
 11
-104.727430752854
 21
124.0765371212455
  0
LINE
  8
0
  6
CONTINUOUS
 62
     7
 10
-105.088654917292
 20
115.9971430394955
 11
-104.9699346867387
 21
116.0336175940734
  0
LINE
  8
0
  6
CONTINUOUS
 62
     7
 10
-116.2120888736999
 20
118.2193915675001
 11
-113.2120888737
 21
118.2193915675001
  0
LINE
  8
0
  6
CONTINUOUS
 62
     7
 10
-104.8782395257998
 20
116.0791565954868
 11
-104.7630748321437
 21
116.1594808117479
  0
LINE
  8
0
  6
CONTINUOUS
 62
     7
 10
-112.2120888736999
 20
115.9842316623781
 11
-105.2120888737
 21
115.9842316623781
  0
LINE
  8
0
  6
CONTINUOUS
 62
     7
 10
-116.2120888736999
 20
97.00618813190003
 11
-113.2120888737
 21
97.00618813190003
  0
LINE
  8
0
  6
CONTINUOUS
 62
     7
 10
-116.2120888736999
 20
105.7929846963
 11
-113.2120888737
 21
105.7929846963
  0
LINE
  8
0
  6
CONTINUOUS
 62
     7
 10
-104.3054727558914
 20
116.8887708013326
 11
-104.2438430371479
 21
117.0959651985396
  0
LINE
  8
0
  6
CONTINUOUS
 62
     7
 10
-104.6605350899834
 20
99.88612836582433
 11
-104.7630748321439
 21
99.95917205933563
  0
LINE
  8
0
  6
CONTINUOUS
 62
     7
 10
-105.2120888736998
 20
108.028144601422
 11
-112.2120888736997
 21
108.028144601422
  0
LINE
  8
0
  6
CONTINUOUS
 62
     7
 10
-104.2438430371479
 20
117.4392448120699
 11
-104.3054727558914
 21
117.6841785703155
  0
LINE
  8
0
  6
CONTINUOUS
 62
     7
 10
-69.21208887369995
 20
125.0061881319
 11
-69.21208887369995
 21
99.00618813190005
  0
LINE
  8
0
  6
CONTINUOUS
 62
     7
 10
-104.9761041716001
 20
107.9812122634987
 11
-105.0959419674375
 21
108.0168646034345
  0
LINE
  8
0
  6
CONTINUOUS
 62
     7
 10
-104.7630748321439
 20
116.1594808117479
 11
-104.6605350899834
 21
116.2553915485633
  0
LINE
  8
0
  6
CONTINUOUS
 62
     7
 10
-104.3096502961478
 20
106.3194647641991
 11
-104.3054727558914
 21
106.3281976934846
  0
LINE
  8
0
  6
CONTINUOUS
 62
     7
 10
-105.2120888736998
 20
105.7202935025957
 11
-105.18114895693
 21
105.7208220788305
  0
LINE
  8
0
  6
CONTINUOUS
 62
     7
 10
-104.3188399269883
 20
99.00618813190005
 11
-69.21208887369995
 21
99.00618813190005
  0
LINE
  8
0
  6
CONTINUOUS
 62
     7
 10
-104.3054727558914
 20
99.42318306296521
 11
-104.3655872890663
 21
99.53992580515353
  0
LINE
  8
0
  6
CONTINUOUS
 62
     7
 10
-105.2120888736998
 20
115.9842316623781
 11
-105.0886549172917
 21
115.9971430394955
  0
LINE
  8
0
  6
CONTINUOUS
 62
     7
 10
-105.18114895693
 20
105.7208220788305
 11
-105.1501946616282
 21
105.7223867114058
  0
LINE
  8
0
  6
CONTINUOUS
 62
     7
 10
-105.0582754591895
 20
105.7329805052375
 11
-105.0282936044191
 21
105.7383729212376
  0
LINE
  8
0
  6
CONTINUOUS
 62
     7
 10
-104.9699346867387
 20
116.0336175940734
 11
-104.8782395258001
 21
116.0791565954868
  0
LINE
  8
0
  6
CONTINUOUS
 62
     7
 10
-105.0282936044193
 20
105.7383729212376
 11
-104.998812348447
 21
105.7446431726096
  0
LINE
  8
0
  6
CONTINUOUS
 62
     7
 10
-104.9192184268274
 20
105.7666450043441
 11
-104.8782395258001
 21
105.7809427455298
  0
LINE
  8
0
  6
CONTINUOUS
 62
     7
 10
-104.8385252632528
 20
105.7968241480931
 11
-104.8001216838221
 21
105.8141584516162
  0
LINE
  8
0
  6
CONTINUOUS
 62
     7
 10
-104.8385252632528
 20
118.215552115707
 11
-104.8782395257998
 21
118.2314335182703
  0
LINE
  8
0
  6
CONTINUOUS
 62
     7
 10
-105.1266799493066
 20
118.2882185158541
 11
-105.1550374572562
 21
118.2903586768506
  0
LINE
  8
0
  6
CONTINUOUS
 62
     7
 10
-104.6605350899831
 20
99.88612836582422
 11
-104.7630748321437
 21
99.95917205933557
  0
LINE
  8
0
  6
CONTINUOUS
 62
     7
 10
-104.7630748321439
 20
118.1795613681188
 11
-104.8001216838223
 21
118.1982178121839
  0
LINE
  8
0
  6
CONTINUOUS
 62
     7
 10
-104.2438430371479
 20
99.23290862302252
 11
-104.2438430371479
 21
99.37509969463298
  0
LINE
  8
0
  6
CONTINUOUS
 62
     7
 10
-104.9761041716001
 20
118.2621852598243
 11
-105.0054301187905
 21
118.2692052572806
  0
LINE
  8
0
  6
CONTINUOUS
 62
     7
 10
-104.6181904201388
 20
118.0857882155973
 11
-104.6605350899834
 21
118.1169667968485
  0
LINE
  8
0
  6
CONTINUOUS
 62
     7
 10
-105.0054301187905
 20
118.2692052572806
 11
-105.0352338611679
 21
118.2753622978859
  0
LINE
  8
0
  6
CONTINUOUS
 62
     7
 10
-105.2120888736998
 20
123.9178858737171
 11
-105.0886549172917
 21
123.927941252138
  0
LINE
  8
0
  6
CONTINUOUS
 62
     7
 10
-105.088654917292
 20
123.927941252138
 11
-104.9699346867387
 21
123.9562620155469
  0
LINE
  8
0
  6
CONTINUOUS
 62
     7
 10
-104.6932354905884
 20
118.1388051000334
 11
-104.727430752854
 21
118.1597135439294
  0
LINE
  8
0
  6
CONTINUOUS
 62
     7
 10
-104.2438430371479
 20
99.37509969463298
 11
-104.3054727558914
 21
99.42318306296518
  0
LINE
  8
0
  6
CONTINUOUS
 62
     7
 10
-104.2486421627615
 20
99.20420719697609
 11
-104.2438430371479
 21
99.23290862302252
  0
LINE
  8
0
  6
CONTINUOUS
 62
     7
 10
-104.2606413943269
 20
124.851637822451
 11
-104.2747836141817
 21
124.8956781603253
  0
LINE
  8
0
  6
CONTINUOUS
 62
     7
 10
-104.2499343436076
 20
124.813416593797
 11
-104.2606413943269
 21
124.8516378224511
  0
LINE
  8
0
  6
CONTINUOUS
 62
     7
 10
-104.4012168474717
 20
117.8552278346635
 11
-104.4405951495004
 21
117.9087603672469
  0
LINE
  8
0
  6
CONTINUOUS
 62
     7
 10
-105.1550374572562
 20
118.2903586768506
 11
-105.1835388982886
 21
118.291650079622
  0
LINE
  8
0
  6
CONTINUOUS
 62
     7
 10
-104.3054727558914
 20
124.5891932008349
 11
-104.2438430371479
 21
124.6372765691671
  0
LINE
  8
0
  6
CONTINUOUS
 62
     7
 10
-104.2438430371479
 20
124.7794676407776
 11
-104.249946536808
 21
124.8134631863971
  0
LINE
  8
0
  6
CONTINUOUS
 62
     7
 10
-104.2747836141817
 20
124.8956781603253
 11
-104.2911244556285
 21
124.9401733060963
  0
LINE
  8
0
  6
CONTINUOUS
 62
     7
 10
-104.5404328896954
 20
118.0187736820326
 11
-104.5781681526571
 21
118.0530093570316
  0
LINE
  8
0
  6
CONTINUOUS
 62
     7
 10
-104.3097916916575
 20
124.9850046411319
 11
-104.3307044609944
 21
125.0296159173958
  0
LINE
  8
0
  6
CONTINUOUS
 62
     7
 10
-104.9473392106086
 20
118.2543460217914
 11
-104.9761041716001
 21
118.2621852598243
  0
LINE
  8
0
  6
CONTINUOUS
 62
     7
 10
-104.3336810624755
 20
106.2696217882421
 11
-104.3054727558914
 21
106.3281976934846
  0
LINE
  8
0
  6
CONTINUOUS
 62
     7
 10
-105.2120888736998
 20
118.2920827612044
 11
-112.2120888736997
 21
118.2920827612044
  0
LINE
  8
0
  6
CONTINUOUS
 62
     7
 10
-104.7630748321439
 20
99.95917205933557
 11
-104.8782395258001
 21
100.0208955052075
  0
LINE
  8
0
  6
CONTINUOUS
 62
     7
 10
-105.2120888736998
 20
100.094490390083
 11
-112.2120888736997
 21
100.094490390083
  0
LINE
  8
0
  6
CONTINUOUS
 62
     7
 10
-105.0959419674377
 20
118.2849126434469
 11
-105.1266799493068
 21
118.2882185158541
  0
LINE
  8
0
  6
CONTINUOUS
 62
     7
 10
-104.8385252632528
 20
124.0104939049602
 11
-104.7274307528538
 21
124.0765371212456
  0
LINE
  8
0
  6
CONTINUOUS
 62
     7
 10
-105.0654322077208
 20
118.280612665366
 11
-105.0959419674377
 21
118.2849126434468
  0
LINE
  8
0
  6
CONTINUOUS
 62
     7
 10
-104.372064969421
 20
125.1053628986179
 11
-104.3955451303086
 21
125.1428420270568
  0
LINE
  8
0
  6
CONTINUOUS
 62
     7
 10
-104.3307044609944
 20
125.0296159173958
 11
-104.3504841257047
 21
125.0676118041246
  0
LINE
  8
0
  6
CONTINUOUS
 62
     7
 10
-104.3955451303084
 20
125.1428420270568
 11
-104.4210375242005
 21
125.1800138494853
  0
LINE
  8
0
  6
CONTINUOUS
 62
     7
 10
-104.4210375242005
 20
125.1800138494854
 11
-104.4486721278983
 21
125.2168332746784
  0
LINE
  8
0
  6
CONTINUOUS
 62
     7
 10
-104.4405951495004
 20
117.908760367247
 11
-104.4716817859601
 21
117.9465057262592
  0
LINE
  8
0
  6
CONTINUOUS
 62
     7
 10
-104.4486721278983
 20
125.2168332746784
 11
-104.478598865501
 21
125.2532434027292
  0
LINE
  8
0
  6
CONTINUOUS
 62
     7
 10
-104.2438430371481
 20
124.637276569167
 11
-104.2438430371481
 21
124.7794676407775
  0
LINE
  8
0
  6
CONTINUOUS
 62
     7
 10
-104.5109912928157
 20
125.2891728404137
 11
-104.5382295319416
 21
125.3169366303919
  0
LINE
  8
0
  6
CONTINUOUS
 62
     7
 10
-104.5382295319416
 20
125.3169366303919
 11
-104.5669175971013
 21
125.3440262354729
  0
LINE
  8
0
  6
CONTINUOUS
 62
     7
 10
-105.0352338611679
 20
118.2753622978859
 11
-105.0654322077208
 21
118.2806126653661
  0
LINE
  8
0
  6
CONTINUOUS
 62
     7
 10
-104.5669175971015
 20
125.3440262354729
 11
-104.5969955267875
 21
125.3702852750917
  0
LINE
  8
0
  6
CONTINUOUS
 62
     7
 10
-104.5969955267875
 20
125.3702852750917
 11
-104.6285139356115
 21
125.395661545832
  0
LINE
  8
0
  6
CONTINUOUS
 62
     7
 10
-104.727430752854
 20
118.1597135439294
 11
-104.7630748321439
 21
118.1795613681189
  0
LINE
  8
0
  6
CONTINUOUS
 62
     7
 10
-104.5781681526571
 20
118.0530093570317
 11
-104.6181904201388
 21
118.0857882155973
  0
LINE
  8
0
  6
CONTINUOUS
 62
     7
 10
-104.9192184268274
 20
118.245731259456
 11
-104.9473392106088
 21
118.2543460217914
  0
LINE
  8
0
  6
CONTINUOUS
 62
     7
 10
-104.2911244556285
 20
124.9401733060963
 11
-104.3097916916575
 21
124.9850046411319
  0
LINE
  8
0
  6
CONTINUOUS
 62
     7
 10
-104.3504841257047
 20
125.0676118041245
 11
-104.372064969421
 21
125.1053628986178
  0
LINE
  8
0
  6
CONTINUOUS
 62
     7
 10
-104.6285139356115
 20
125.395661545832
 11
-104.6615281757876
 21
125.420093803006
  0
LINE
  8
0
  6
CONTINUOUS
 62
     7
 10
-104.6615281757878
 20
125.420093803006
 11
-104.695467336082
 21
125.443101892549
  0
LINE
  8
0
  6
CONTINUOUS
 62
     7
 10
-105.1835388982886
 20
118.291650079622
 11
-105.2120888736998
 21
118.2920827612044
  0
LINE
  8
0
  6
CONTINUOUS
 62
     7
 10
-112.2120888736999
 20
105.7202935025957
 11
-105.2120888737
 21
105.7202935025957
  0
LINE
  8
0
  6
CONTINUOUS
 62
     7
 10
-104.3054727558914
 20
99.42318306296521
 11
-104.365587289066
 21
99.53992580515344
  0
LINE
  8
0
  6
CONTINUOUS
 62
     7
 10
-104.5049492334106
 20
117.9832246514815
 11
-104.5404328896952
 21
118.0187736820327
  0
LINE
  8
0
  6
CONTINUOUS
 62
     7
 10
-104.8782395257998
 20
100.0208955052075
 11
-104.9761041716001
 21
100.0580155426582
  0
LINE
  8
0
  6
CONTINUOUS
 62
     7
 10
-104.9761041716001
 20
100.0580155426581
 11
-105.0959419674375
 21
100.0857081817032
  0
LINE
  8
0
  6
CONTINUOUS
 62
     7
 10
-104.9699346867387
 20
123.956262015547
 11
-104.8385252632528
 21
124.0104939049602
  0
LINE
  8
0
  6
CONTINUOUS
 62
     7
 10
-112.2120888736999
 20
123.9178858737171
 11
-105.2120888737
 21
123.9178858737171
  0
LINE
  8
0
  6
CONTINUOUS
 62
     7
 10
-105.0959419674377
 20
100.0857081817032
 11
-105.2120888737
 21
100.094490390083
  0
LINE
  8
0
  6
CONTINUOUS
 62
     7
 10
-104.8001216838221
 20
118.198217812184
 11
-104.8385252632528
 21
118.2155521157071
  0
LINE
  8
0
  6
CONTINUOUS
 62
     7
 10
-104.8782395257998
 20
118.2314335182703
 11
-104.9192184268272
 21
118.245731259456
  0
LINE
  8
0
  6
CONTINUOUS
 62
     7
 10
-104.4716817859601
 20
117.9465057262592
 11
-104.5049492334106
 21
117.9832246514815
  0
LINE
  8
0
  6
CONTINUOUS
 62
     7
 10
-104.3054727558914
 20
117.6841785703155
 11
-104.3336810624755
 21
117.742754475558
  0
LINE
  8
0
  6
CONTINUOUS
 62
     7
 10
-104.3655872890663
 20
117.7998317172206
 11
-104.4012168474717
 21
117.8552278346636
  0
LINE
  8
0
  6
CONTINUOUS
 62
     7
 10
-104.6605350899831
 20
118.1169667968485
 11
-104.6932354905882
 21
118.1388051000333
  0
LINE
  8
0
  6
CONTINUOUS
 62
     7
 10
-104.7630748321439
 20
116.1594808117479
 11
-104.6605350899834
 21
116.2553915485633
  0
LINE
  8
0
  6
CONTINUOUS
 62
     7
 10
-104.3054727558914
 20
106.3281976934846
 11
-104.2438430371479
 21
106.5731314517302
  0
LINE
  8
0
  6
CONTINUOUS
 62
     7
 10
-104.3096502961478
 20
106.3194647641991
 11
-104.3054727558914
 21
106.3281976934846
  0
LINE
  8
0
  6
CONTINUOUS
 62
     7
 10
-104.2438430371479
 20
117.4392448120699
 11
-104.3054727558914
 21
117.6841785703155
  0
LINE
  8
0
  6
CONTINUOUS
 62
     7
 10
-105.088654917292
 20
105.7284975688031
 11
-105.0582754591897
 21
105.7329805052376
  0
LINE
  8
0
  6
CONTINUOUS
 62
     7
 10
-105.0282936044193
 20
105.7383729212376
 11
-104.998812348447
 21
105.7446431726096
  0
LINE
  8
0
  6
CONTINUOUS
 62
     7
 10
-105.0814459305735
 20
125.5881491959085
 11
-105.1243579221343
 21
125.5932006368911
  0
LINE
  8
0
  6
CONTINUOUS
 62
     7
 10
-104.9699346867387
 20
105.7517596151597
 11
-104.9443539454557
 21
105.7588884395403
  0
LINE
  8
0
  6
CONTINUOUS
 62
     7
 10
-104.2438430371472
 20
117.0959651985397
 11
-104.2438430371472
 21
117.43924481207
  0
LINE
  8
0
  6
CONTINUOUS
 62
     7
 10
-105.0582754591895
 20
105.7329805052375
 11
-105.0282936044191
 21
105.7383729212376
  0
LINE
  8
0
  6
CONTINUOUS
 62
     7
 10
-105.1243579221343
 20
125.5932006368912
 11
-105.1680219348969
 21
125.5962909931949
  0
LINE
  8
0
  6
CONTINUOUS
 62
     7
 10
-105.2120888736998
 20
115.9842316623781
 11
-105.0886549172917
 21
115.9971430394955
  0
LINE
  8
0
  6
CONTINUOUS
 62
     7
 10
-104.8385252632528
 20
105.7968241480931
 11
-104.8001216838221
 21
105.8141584516162
  0
LINE
  8
0
  6
CONTINUOUS
 62
     7
 10
-104.8782395257998
 20
105.7809427455298
 11
-104.8385252632528
 21
105.7968241480931
  0
LINE
  8
0
  6
CONTINUOUS
 62
     7
 10
-104.7630748321439
 20
105.8328148956813
 11
-104.727430752854
 21
105.8526627198708
  0
LINE
  8
0
  6
CONTINUOUS
 62
     7
 10
-104.8069270271518
 20
125.5053955014359
 11
-104.8433585280248
 21
125.5217993482527
  0
LINE
  8
0
  6
CONTINUOUS
 62
     7
 10
-104.9192184268274
 20
105.7666450043441
 11
-104.8782395258001
 21
105.7809427455298
  0
LINE
  8
0
  6
CONTINUOUS
 62
     7
 10
-104.9988123484468
 20
105.7446431726096
 11
-104.9699346867385
 21
105.7517596151597
  0
LINE
  8
0
  6
CONTINUOUS
 62
     7
 10
-104.6954673360818
 20
125.443101892549
 11
-104.7309701260445
 21
125.4650522605975
  0
LINE
  8
0
  6
CONTINUOUS
 62
     7
 10
-104.8807191347003
 20
125.5367758577395
 11
-104.9190095869945
 21
125.5502719139589
  0
LINE
  8
0
  6
CONTINUOUS
 62
     7
 10
-105.2120888736998
 20
105.7202935025957
 11
-105.18114895693
 21
105.7208220788305
  0
LINE
  8
0
  6
CONTINUOUS
 62
     7
 10
-112.2120888736999
 20
115.9842316623781
 11
-105.2120888737
 21
115.9842316623781
  0
LINE
  8
0
  6
CONTINUOUS
 62
     7
 10
-105.1501946616282
 20
105.7223867114059
 11
-105.1193289832601
 21
105.724955756128
  0
LINE
  8
0
  6
CONTINUOUS
 62
     7
 10
-104.9582295497795
 20
125.5622277181566
 11
-104.9983775395424
 21
125.5725765381816
  0
LINE
  8
0
  6
CONTINUOUS
 62
     7
 10
-104.9744381144428
 20
98.44574330733474
 11
-104.8557920000348
 21
98.48538908156773
  0
LINE
  8
0
  6
CONTINUOUS
 62
     7
 10
-104.2438430371479
 20
106.5731314517302
 11
-104.2438430371479
 21
106.9164110652605
  0
LINE
  8
0
  6
CONTINUOUS
 62
     7
 10
-105.2120888736998
 20
108.028144601422
 11
-112.2120888736997
 21
108.028144601422
  0
LINE
  8
0
  6
CONTINUOUS
 62
     7
 10
-105.18114895693
 20
105.7208220788305
 11
-105.1501946616282
 21
105.7223867114058
  0
LINE
  8
0
  6
CONTINUOUS
 62
     7
 10
-105.1193289832601
 20
105.7249557561279
 11
-105.088654917292
 21
105.7284975688031
  0
LINE
  8
0
  6
CONTINUOUS
 62
     7
 10
-104.9443539454557
 20
105.7588884395403
 11
-104.9192184268274
 21
105.7666450043441
  0
LINE
  8
0
  6
CONTINUOUS
 62
     7
 10
-104.727430752854
 20
105.8526627198708
 11
-104.6932354905884
 21
105.8735711637668
  0
LINE
  8
0
  6
CONTINUOUS
 62
     7
 10
-104.6932354905884
 20
105.8735711637668
 11
-104.6605350899834
 21
105.8954094669516
  0
LINE
  8
0
  6
CONTINUOUS
 62
     7
 10
-104.8001216838221
 20
105.8141584516162
 11
-104.7630748321437
 21
105.8328148956813
  0
LINE
  8
0
  6
CONTINUOUS
 62
     7
 10
-104.8433585280248
 20
125.5217993482527
 11
-104.8807191347003
 21
125.5367758577394
  0
LINE
  8
0
  6
CONTINUOUS
 62
     7
 10
-104.9983775395426
 20
125.5725765381816
 11
-105.0394509126222
 21
125.5812443297365
  0
LINE
  8
0
  6
CONTINUOUS
 62
     7
 10
-104.8557920000348
 20
98.48538908156773
 11
-104.7398414152247
 21
98.54215915432806
  0
LINE
  8
0
  6
CONTINUOUS
 62
     7
 10
-112.2120888736999
 20
98.41504333919538
 11
-105.2120888737
 21
98.41504333919538
  0
LINE
  8
0
  6
CONTINUOUS
 62
     7
 10
-104.8782395257998
 20
107.9332196683133
 11
-104.9761041716001
 21
107.9812122634987
  0
LINE
  8
0
  6
CONTINUOUS
 62
     7
 10
-104.9761041716001
 20
107.9812122634987
 11
-105.0959419674375
 21
108.0168646034345
  0
LINE
  8
0
  6
CONTINUOUS
 62
     7
 10
-104.6605350899831
 20
107.7569847152368
 11
-104.7630748321437
 21
107.8528954520523
  0
LINE
  8
0
  6
CONTINUOUS
 62
     7
 10
-105.0959419674377
 20
108.0168646034345
 11
-105.2120888736998
 21
108.0281446014219
  0
LINE
  8
0
  6
CONTINUOUS
 62
     7
 10
-105.088654917292
 20
115.9971430394955
 11
-104.9699346867387
 21
116.0336175940734
  0
LINE
  8
0
  6
CONTINUOUS
 62
     7
 10
-104.8782395257998
 20
116.0791565954868
 11
-104.7630748321437
 21
116.1594808117479
  0
LINE
  8
0
  6
CONTINUOUS
 62
     7
 10
-104.9190095869947
 20
125.5502719139588
 11
-104.9582295497797
 21
125.5622277181565
  0
LINE
  8
0
  6
CONTINUOUS
 62
     7
 10
-104.7309701260445
 20
125.4650522605976
 11
-104.7681047019621
 21
125.4858545035673
  0
LINE
  8
0
  6
CONTINUOUS
 62
     7
 10
-105.2120888736998
 20
98.41504421229152
 11
-105.0938549231137
 21
98.42255932431159
  0
LINE
  8
0
  6
CONTINUOUS
 62
     7
 10
-104.3054727558914
 20
116.8887708013326
 11
-104.2438430371479
 21
117.0959651985396
  0
LINE
  8
0
  6
CONTINUOUS
 62
     7
 10
-104.7398414152247
 20
98.54215915432806
 11
-104.6316529754294
 21
98.61429996332177
  0
LINE
  8
0
  6
CONTINUOUS
 62
     7
 10
-104.2438430371479
 20
106.9164110652605
 11
-104.3054727558914
 21
107.1236054624675
  0
LINE
  8
0
  6
CONTINUOUS
 62
     7
 10
-104.9699346867387
 20
116.0336175940734
 11
-104.8782395258001
 21
116.0791565954868
  0
LINE
  8
0
  6
CONTINUOUS
 62
     7
 10
-104.7681047019621
 20
125.4858545035673
 11
-104.8069270271518
 21
125.5053955014359
  0
LINE
  8
0
  6
CONTINUOUS
 62
     7
 10
-105.0394509126222
 20
125.5812443297365
 11
-105.0814459305737
 21
125.5881491959085
  0
LINE
  8
0
  6
CONTINUOUS
 62
     7
 10
-105.0938549231139
 20
98.42255932431154
 11
-104.9744381144428
 21
98.44574330733471
  0
LINE
  8
0
  6
CONTINUOUS
 62
     7
 10
-104.3096502961478
 20
116.8848248111157
 11
-104.3054727558914
 21
116.8887708013327
  0
LINE
  8
0
  6
CONTINUOUS
 62
     7
 10
-105.2120888736998
 20
125.5973329246047
 11
-112.2120888736997
 21
125.5973329246047
  0
LINE
  8
0
  6
CONTINUOUS
 62
     7
 10
-104.7630748321439
 20
107.8528954520522
 11
-104.8782395258001
 21
107.9332196683133
  0
LINE
  8
0
  6
CONTINUOUS
 62
     7
 10
-105.1680219348971
 20
125.5962909931949
 11
-105.2120888737
 21
125.5973320515086
  0
LINE
  8
0
  6
CONTINUOUS
 62
     7
 10
-104.2498069638444
 20
99.19944709748351
 11
-104.2485848461491
 21
99.20416844770996
  0
TEXT
  8
1
  6
CONTINUOUS
 62
     7
 10
-55.57261818484997
 20
86.6248679090909
 40
3.5
  1
ＭＰＶＥ－１６
 41
0.998775
 51
15.0
  0
LINE
  8
0
  6
CONTINUOUS
 62
     7
 10
-116.2120888737
 20
94.7561881319
 11
-128.2120888737
 21
94.7561881319
  0
LINE
  8
0
  6
CONTINUOUS
 62
     7
 10
-116.2120888737
 20
129.2561881319
 11
-128.2120888737
 21
129.2561881319
  0
ENDSEC
  0
EOF
