  0
SECTION
  2
HEADER
  9
$ACADVER
  1
AC1006
  9
$DWGCODEPAGE
  3
ansi_932
  9
$INSBASE
 10
0.0
 20
0.0
 30
0.0
  9
$EXTMIN
 10
45.50471628053315
 20
108.8204545454545
  9
$EXTMAX
 10
114.4952837194668
 20
199.7410142264053
  9
$LIMMIN
 10
0.0
 20
0.0
  9
$LIMMAX
 10
12.0
 20
9.0
  9
$ORTHOMODE
 70
     0
  9
$REGENMODE
 70
     1
  9
$FILLMODE
 70
     1
  9
$QTEXTMODE
 70
     0
  9
$MIRRTEXT
 70
     1
  9
$DRAGMODE
 70
     2
  9
$LTSCALE
 40
1.0
  9
$OSMODE
 70
    37
  9
$ATTMODE
 70
     1
  9
$TEXTSIZE
 40
0.2
  9
$TRACEWID
 40
0.05
  9
$TEXTSTYLE
  7
STANDARD
  9
$CLAYER
  8
0
  9
$CELTYPE
  6
BYLAYER
  9
$CECOLOR
 62
   256
  9
$DIMSCALE
 40
1.0
  9
$DIMASZ
 40
3.0
  9
$DIMEXO
 40
0.0625
  9
$DIMDLI
 40
0.38
  9
$DIMRND
 40
0.0
  9
$DIMDLE
 40
0.0
  9
$DIMEXE
 40
1.5
  9
$DIMTP
 40
0.0
  9
$DIMTM
 40
0.0
  9
$DIMTXT
 40
3.0
  9
$DIMCEN
 40
0.09
  9
$DIMTSZ
 40
0.0
  9
$DIMTOL
 70
     0
  9
$DIMLIM
 70
     0
  9
$DIMTIH
 70
     1
  9
$DIMTOH
 70
     1
  9
$DIMSE1
 70
     0
  9
$DIMSE2
 70
     0
  9
$DIMTAD
 70
     1
  9
$DIMZIN
 70
     0
  9
$DIMBLK
  1

  9
$DIMASO
 70
     1
  9
$DIMSHO
 70
     1
  9
$DIMPOST
  1

  9
$DIMAPOST
  1

  9
$DIMALT
 70
     0
  9
$DIMALTD
 70
     2
  9
$DIMALTF
 40
25.4
  9
$DIMLFAC
 40
1.0
  9
$DIMTOFL
 70
     0
  9
$DIMTVP
 40
0.0
  9
$DIMTIX
 70
     0
  9
$DIMSOXD
 70
     0
  9
$DIMSAH
 70
     0
  9
$DIMBLK1
  1

  9
$DIMBLK2
  1

  9
$LUNITS
 70
     2
  9
$LUPREC
 70
     4
  9
$SKETCHINC
 40
0.1
  9
$FILLETRAD
 40
0.5
  9
$AUNITS
 70
     0
  9
$AUPREC
 70
     0
  9
$MENU
  1
.
  9
$ELEVATION
 40
0.0
  9
$THICKNESS
 40
0.0
  9
$LIMCHECK
 70
     0
  9
$CHAMFERA
 40
0.0
  9
$CHAMFERB
 40
0.0
  9
$SKPOLY
 70
     0
  9
$TDCREATE
 40
2460614.541271018
  9
$TDUPDATE
 40
2460614.541271239
  9
$TDINDWG
 40
0.0000000116
  9
$TDUSRTIMER
 40
0.0000000116
  9
$USRTIMER
 70
     1
  9
$ANGBASE
 50
0.0
  9
$ANGDIR
 70
     0
  9
$PDMODE
 70
     0
  9
$PDSIZE
 40
0.0
  9
$PLINEWID
 40
0.0
  9
$COORDS
 70
     1
  9
$SPLFRAME
 70
     0
  9
$SPLINETYPE
 70
     6
  9
$SPLINESEGS
 70
     8
  9
$ATTDIA
 70
     0
  9
$ATTREQ
 70
     1
  9
$HANDLING
 70
     1
  9
$HANDSEED
  5
1EA
  9
$SURFTAB1
 70
     6
  9
$SURFTAB2
 70
     6
  9
$SURFTYPE
 70
     6
  9
$SURFU
 70
     6
  9
$SURFV
 70
     6
  9
$UCSNAME
  2

  9
$UCSORG
 10
0.0
 20
0.0
 30
0.0
  9
$UCSXDIR
 10
1.0
 20
0.0
 30
0.0
  9
$UCSYDIR
 10
0.0
 20
1.0
 30
0.0
  9
$USERI1
 70
     0
  9
$USERI2
 70
     0
  9
$USERI3
 70
     0
  9
$USERI4
 70
     0
  9
$USERI5
 70
     0
  9
$USERR1
 40
0.0
  9
$USERR2
 40
0.0
  9
$USERR3
 40
0.0
  9
$USERR4
 40
0.0
  9
$USERR5
 40
0.0
  9
$WORLDVIEW
 70
     1
  0
ENDSEC
  0
SECTION
  2
TABLES
  0
TABLE
  2
VPORT
 70
     1
  0
VPORT
  2
*ACTIVE
 70
     0
 10
0.0
 20
0.0
 11
1.0
 21
1.0
 12
79.99999999999999
 22
154.2807343859299
 13
0.0
 23
0.0
 14
0.5
 24
0.5
 15
0.5
 25
0.5
 16
0.0
 26
0.0
 36
1.0
 17
0.0
 27
0.0
 37
0.0
 40
90.92055968095077
 41
1.6
 42
50.0
 43
0.0
 44
0.0
 50
0.0
 51
0.0
 71
     0
 72
   100
 73
     1
 74
     3
 75
     0
 76
     0
 77
     0
 78
     0
  0
ENDTAB
  0
TABLE
  2
LTYPE
 70
     2
  0
LTYPE
  2
CONTINUOUS
 70
     0
  3
Solid line
 72
    65
 73
     0
 40
0.0
  0
LTYPE
  2
CENTER
 70
     0
  3

 72
    65
 73
     0
 40
0.0
  0
ENDTAB
  0
TABLE
  2
LAYER
 70
     1
  0
LAYER
  2
0
 70
     0
 62
     7
  6
CONTINUOUS
  0
ENDTAB
  0
TABLE
  2
STYLE
 70
     2
  0
STYLE
  2
STANDARD
 70
     0
 40
0.0
 41
1.0
 50
0.0
 71
     0
 42
0.2
  3
txt
  4

  0
STYLE
  2
ＭＳ_ゴシック
 70
     0
 40
0.0
 41
1.0
 50
0.0
 71
     0
 42
0.2
  3
ＭＳ ゴシック.shx
  4

  0
ENDTAB
  0
TABLE
  2
VIEW
 70
     0
  0
ENDTAB
  0
TABLE
  2
UCS
 70
     0
  0
ENDTAB
  0
ENDSEC
  0
SECTION
  2
BLOCKS
  0
BLOCK
  8
0
  2
D_FRAME_VIEW_1691
 70
     0
 10
0.0
 20
0.0
 30
0.0
  0
LINE
  5
77
  8
0
  6
CONTINUOUS
 62
     7
 10
110.4940288299209
 20
196.4182218131949
 30
0.0
 11
111.1329988056113
 21
196.7234453069084
 31
0.0
  0
POLYLINE
  5
78
  8
0
  6
CONTINUOUS
 62
     7
 66
     1
 10
0.0
 20
0.0
 30
0.0
  0
VERTEX
  5
10C
  8
0
  6
CONTINUOUS
 62
     7
 10
108.0124624166697
 20
196.4722474870246
 30
0.0
  0
VERTEX
  5
10D
  8
0
  6
CONTINUOUS
 62
     7
 10
108.4171577578364
 20
196.4308989414395
 30
0.0
  0
VERTEX
  5
10E
  8
0
  6
CONTINUOUS
 62
     7
 10
108.8265966296066
 20
196.3977155637824
 30
0.0
  0
VERTEX
  5
10F
  8
0
  6
CONTINUOUS
 62
     7
 10
109.2235828344814
 20
196.3740910368596
 30
0.0
  0
VERTEX
  5
110
  8
0
  6
CONTINUOUS
 62
     7
 10
109.5914431798205
 20
196.3610175772359
 30
0.0
  0
VERTEX
  5
111
  8
0
  6
CONTINUOUS
 62
     7
 10
109.9147277423589
 20
196.3590442627081
 30
0.0
  0
VERTEX
  5
112
  8
0
  6
CONTINUOUS
 62
     7
 10
110.1798587561123
 20
196.3682539713533
 30
0.0
  0
VERTEX
  5
113
  8
0
  6
CONTINUOUS
 62
     7
 10
110.3757008707512
 20
196.388259900697
 30
0.0
  0
VERTEX
  5
114
  8
0
  6
CONTINUOUS
 62
     7
 10
110.4940288299209
 20
196.4182218131948
 30
0.0
  0
SEQEND
  5
1CF
  8
0
  6
CONTINUOUS
 62
     7
  0
LINE
  5
79
  8
0
  6
CONTINUOUS
 62
     7
 10
105.7924951965063
 20
196.7234453069084
 30
0.0
 11
108.0124624166697
 21
196.4722474870246
 31
0.0
  0
LINE
  5
7A
  8
0
  6
CONTINUOUS
 62
     9
 10
111.1329988056113
 20
196.7234453069082
 30
0.0
 11
105.7924951965063
 21
196.7234453069084
 31
0.0
  0
LINE
  5
7B
  8
0
  6
CONTINUOUS
 62
     9
 10
108.0124624166697
 20
194.598400489954
 30
0.0
 11
108.0124624166697
 21
196.4722474870246
 31
0.0
  0
LINE
  5
7C
  8
0
  6
CONTINUOUS
 62
     7
 10
110.4940288299209
 20
194.5715068230505
 30
0.0
 11
110.4940288299209
 21
196.4182218131948
 31
0.0
  0
POLYLINE
  5
7D
  8
0
  6
CONTINUOUS
 62
     7
 66
     1
 10
0.0
 20
0.0
 30
0.0
  0
VERTEX
  5
115
  8
0
  6
CONTINUOUS
 62
     7
 10
108.0124624166698
 20
194.598400489954
 30
0.0
  0
VERTEX
  5
116
  8
0
  6
CONTINUOUS
 62
     7
 10
108.4171577578364
 20
194.5778174239211
 30
0.0
  0
VERTEX
  5
117
  8
0
  6
CONTINUOUS
 62
     7
 10
108.8265966296066
 20
194.5612989310975
 30
0.0
  0
VERTEX
  5
118
  8
0
  6
CONTINUOUS
 62
     7
 10
109.2235828344814
 20
194.5495387786964
 30
0.0
  0
VERTEX
  5
119
  8
0
  6
CONTINUOUS
 62
     7
 10
109.5914431798205
 20
194.5430308863653
 30
0.0
  0
VERTEX
  5
11A
  8
0
  6
CONTINUOUS
 62
     7
 10
109.9147277423589
 20
194.5420485818452
 30
0.0
  0
VERTEX
  5
11B
  8
0
  6
CONTINUOUS
 62
     7
 10
110.1798587561123
 20
194.5466331213618
 30
0.0
  0
VERTEX
  5
11C
  8
0
  6
CONTINUOUS
 62
     7
 10
110.3757008707512
 20
194.556591956888
 30
0.0
  0
VERTEX
  5
11D
  8
0
  6
CONTINUOUS
 62
     7
 10
110.4940288299209
 20
194.5715068230505
 30
0.0
  0
SEQEND
  5
1D0
  8
0
  6
CONTINUOUS
 62
     7
  0
POLYLINE
  5
7E
  8
0
  6
CONTINUOUS
 62
     7
 66
     1
 10
0.0
 20
0.0
 30
0.0
  0
VERTEX
  5
11E
  8
0
  6
CONTINUOUS
 62
     7
 10
108.0003384280425
 20
194.4570395381315
 30
0.0
  0
VERTEX
  5
11F
  8
0
  6
CONTINUOUS
 62
     7
 10
108.403283945772
 20
194.4160542171808
 30
0.0
  0
VERTEX
  5
120
  8
0
  6
CONTINUOUS
 62
     7
 10
108.8113185347283
 20
194.383162337569
 30
0.0
  0
VERTEX
  5
121
  8
0
  6
CONTINUOUS
 62
     7
 10
109.2073049764841
 20
194.359745339352
 30
0.0
  0
VERTEX
  5
122
  8
0
  6
CONTINUOUS
 62
     7
 10
109.5746120678761
 20
194.3467867230082
 30
0.0
  0
VERTEX
  5
123
  8
0
  6
CONTINUOUS
 62
     7
 10
109.8978131219873
 20
194.3448307429824
 30
0.0
  0
VERTEX
  5
124
  8
0
  6
CONTINUOUS
 62
     7
 10
110.1633338801394
 20
194.3539595493127
 30
0.0
  0
VERTEX
  5
125
  8
0
  6
CONTINUOUS
 62
     7
 10
110.360022622962
 20
194.3737897373754
 30
0.0
  0
VERTEX
  5
126
  8
0
  6
CONTINUOUS
 62
     7
 10
110.4796185362028
 20
194.4034884506589
 30
0.0
  0
SEQEND
  5
1D1
  8
0
  6
CONTINUOUS
 62
     7
  0
LINE
  5
7F
  8
0
  6
CONTINUOUS
 62
     9
 10
108.0003384280426
 20
194.4570395381315
 30
0.0
 11
108.0124624166697
 21
194.598400489954
 31
0.0
  0
LINE
  5
80
  8
0
  6
CONTINUOUS
 62
     7
 10
110.4796185362028
 20
194.4034884506589
 30
0.0
 11
110.4940288299209
 21
194.5715068230505
 31
0.0
  0
POLYLINE
  5
81
  8
0
  6
CONTINUOUS
 62
     7
 66
     1
 10
0.0
 20
0.0
 30
0.0
  0
VERTEX
  5
127
  8
0
  6
CONTINUOUS
 62
     7
 10
94.63438972256624
 20
193.2410142264053
 30
0.0
  0
VERTEX
  5
128
  8
0
  6
CONTINUOUS
 62
     7
 10
94.91705389330788
 20
193.2698363058005
 30
0.0
  0
VERTEX
  5
129
  8
0
  6
CONTINUOUS
 62
     7
 10
95.18885543848782
 20
193.3551949276384
 30
0.0
  0
VERTEX
  5
12A
  8
0
  6
CONTINUOUS
 62
     7
 10
95.43934917715285
 20
193.4938098079515
 30
0.0
  0
VERTEX
  5
12B
  8
0
  6
CONTINUOUS
 62
     7
 10
95.65890877540457
 20
193.6803540546255
 30
0.0
  0
VERTEX
  5
12C
  8
0
  6
CONTINUOUS
 62
     7
 10
95.83909668101262
 20
193.9076588768759
 30
0.0
  0
VERTEX
  5
12D
  8
0
  6
CONTINUOUS
 62
     7
 10
95.97298837381503
 20
194.1669890778577
 30
0.0
  0
VERTEX
  5
12E
  8
0
  6
CONTINUOUS
 62
     7
 10
96.05543847114471
 20
194.4483787433811
 30
0.0
  0
VERTEX
  5
12F
  8
0
  6
CONTINUOUS
 62
     7
 10
96.08327846199984
 20
194.7410142264053
 30
0.0
  0
SEQEND
  5
1D2
  8
0
  6
CONTINUOUS
 62
     7
  0
LINE
  5
82
  8
0
  6
CONTINUOUS
 62
     7
 10
94.63438972256624
 20
193.2410142264053
 30
0.0
 11
63.72476328131606
 21
193.2410142264053
 31
0.0
  0
POLYLINE
  5
83
  8
0
  6
CONTINUOUS
 62
     7
 66
     1
 10
0.0
 20
0.0
 30
0.0
  0
VERTEX
  5
130
  8
0
  6
CONTINUOUS
 62
     7
 10
62.27587454188245
 20
194.7410142264053
 30
0.0
  0
VERTEX
  5
131
  8
0
  6
CONTINUOUS
 62
     7
 10
62.30371453273759
 20
194.4483787433811
 30
0.0
  0
VERTEX
  5
132
  8
0
  6
CONTINUOUS
 62
     7
 10
62.38616463006727
 20
194.1669890778577
 30
0.0
  0
VERTEX
  5
133
  8
0
  6
CONTINUOUS
 62
     7
 10
62.52005632286968
 20
193.9076588768759
 30
0.0
  0
VERTEX
  5
134
  8
0
  6
CONTINUOUS
 62
     7
 10
62.70024422847773
 20
193.6803540546255
 30
0.0
  0
VERTEX
  5
135
  8
0
  6
CONTINUOUS
 62
     7
 10
62.91980382672946
 20
193.4938098079515
 30
0.0
  0
VERTEX
  5
136
  8
0
  6
CONTINUOUS
 62
     7
 10
63.17029756539448
 20
193.3551949276384
 30
0.0
  0
VERTEX
  5
137
  8
0
  6
CONTINUOUS
 62
     7
 10
63.44209911057442
 20
193.2698363058005
 30
0.0
  0
VERTEX
  5
138
  8
0
  6
CONTINUOUS
 62
     7
 10
63.72476328131606
 20
193.2410142264053
 30
0.0
  0
SEQEND
  5
1D3
  8
0
  6
CONTINUOUS
 62
     7
  0
LINE
  5
84
  8
0
  6
CONTINUOUS
 62
     7
 10
56.96470962958963
 20
194.7410142264053
 30
0.0
 11
62.27587454188246
 21
194.7410142264053
 31
0.0
  0
LINE
  5
85
  8
0
  6
CONTINUOUS
 62
     7
 10
52.52169925598729
 20
194.5657782621911
 30
0.0
 11
56.96470962958963
 21
194.7410142264053
 31
0.0
  0
LINE
  5
86
  8
0
  6
CONTINUOUS
 62
     9
 10
52.52169925598729
 20
196.4067139231888
 30
0.0
 11
52.52169925598729
 21
194.5657782621911
 31
0.0
  0
LINE
  5
87
  8
0
  6
CONTINUOUS
 62
     7
 10
56.51925945086956
 20
196.7234453069084
 30
0.0
 11
52.52169925598729
 21
196.4067139231888
 31
0.0
  0
LINE
  5
88
  8
0
  6
CONTINUOUS
 62
     7
 10
56.96470962958962
 20
196.7410142264053
 30
0.0
 11
56.51925945086958
 21
196.7234453069084
 31
0.0
  0
LINE
  5
89
  8
0
  6
CONTINUOUS
 62
     7
 10
56.96470962958963
 20
196.7410142264053
 30
0.0
 11
61.63683295011362
 21
196.7410142264053
 31
0.0
  0
POLYLINE
  5
8A
  8
0
  6
CONTINUOUS
 62
     7
 66
     1
 10
0.0
 20
0.0
 30
0.0
  0
VERTEX
  5
139
  8
0
  6
CONTINUOUS
 62
     7
 10
62.47334925385144
 20
196.2410142264053
 30
0.0
  0
VERTEX
  5
13A
  8
0
  6
CONTINUOUS
 62
     7
 10
62.35465572971533
 20
196.4101448327642
 30
0.0
  0
VERTEX
  5
13B
  8
0
  6
CONTINUOUS
 62
     7
 10
62.20458990561476
 20
196.5500312207803
 30
0.0
  0
VERTEX
  5
13C
  8
0
  6
CONTINUOUS
 62
     7
 10
62.02971037815866
 20
196.6545596840479
 30
0.0
  0
VERTEX
  5
13D
  8
0
  6
CONTINUOUS
 62
     7
 10
61.83766022186192
 20
196.7191618271391
 30
0.0
  0
VERTEX
  5
13E
  8
0
  6
CONTINUOUS
 62
     7
 10
61.63683295011362
 20
196.7410142264053
 30
0.0
  0
SEQEND
  5
1D4
  8
0
  6
CONTINUOUS
 62
     7
  0
POLYLINE
  5
8B
  8
0
  6
CONTINUOUS
 62
     7
 66
     1
 10
0.0
 20
0.0
 30
0.0
  0
VERTEX
  5
13F
  8
0
  6
CONTINUOUS
 62
     7
 10
62.47334925385144
 20
196.2410142264053
 30
0.0
  0
VERTEX
  5
140
  8
0
  6
CONTINUOUS
 62
     7
 10
62.71073630212366
 20
195.9027530136876
 30
0.0
  0
VERTEX
  5
141
  8
0
  6
CONTINUOUS
 62
     7
 10
63.01086795032478
 20
195.6229802376554
 30
0.0
  0
VERTEX
  5
142
  8
0
  6
CONTINUOUS
 62
     7
 10
63.36062700523698
 20
195.4139233111201
 30
0.0
  0
VERTEX
  5
143
  8
0
  6
CONTINUOUS
 62
     7
 10
63.74472731783045
 20
195.2847190249377
 30
0.0
  0
VERTEX
  5
144
  8
0
  6
CONTINUOUS
 62
     7
 10
64.14638186132704
 20
195.2410142264053
 30
0.0
  0
SEQEND
  5
1D5
  8
0
  6
CONTINUOUS
 62
     7
  0
LINE
  5
8C
  8
0
  6
CONTINUOUS
 62
     7
 10
94.21277114255524
 20
195.2410142264053
 30
0.0
 11
64.14638186132704
 21
195.2410142264053
 31
0.0
  0
POLYLINE
  5
8D
  8
0
  6
CONTINUOUS
 62
     7
 66
     1
 10
0.0
 20
0.0
 30
0.0
  0
VERTEX
  5
145
  8
0
  6
CONTINUOUS
 62
     7
 10
94.21277114255524
 20
195.2410142264053
 30
0.0
  0
VERTEX
  5
146
  8
0
  6
CONTINUOUS
 62
     7
 10
94.61442568605185
 20
195.2847190249377
 30
0.0
  0
VERTEX
  5
147
  8
0
  6
CONTINUOUS
 62
     7
 10
94.9985259986453
 20
195.4139233111201
 30
0.0
  0
VERTEX
  5
148
  8
0
  6
CONTINUOUS
 62
     7
 10
95.3482850535575
 20
195.6229802376554
 30
0.0
  0
VERTEX
  5
149
  8
0
  6
CONTINUOUS
 62
     7
 10
95.64841670175863
 20
195.9027530136876
 30
0.0
  0
VERTEX
  5
14A
  8
0
  6
CONTINUOUS
 62
     7
 10
95.88580375003086
 20
196.2410142264053
 30
0.0
  0
SEQEND
  5
1D6
  8
0
  6
CONTINUOUS
 62
     7
  0
POLYLINE
  5
8E
  8
0
  6
CONTINUOUS
 62
     7
 66
     1
 10
0.0
 20
0.0
 30
0.0
  0
VERTEX
  5
14B
  8
0
  6
CONTINUOUS
 62
     7
 10
96.72232005376866
 20
196.7410142264053
 30
0.0
  0
VERTEX
  5
14C
  8
0
  6
CONTINUOUS
 62
     7
 10
96.52149278202036
 20
196.7191618271391
 30
0.0
  0
VERTEX
  5
14D
  8
0
  6
CONTINUOUS
 62
     7
 10
96.32944262572363
 20
196.6545596840479
 30
0.0
  0
VERTEX
  5
14E
  8
0
  6
CONTINUOUS
 62
     7
 10
96.15456309826752
 20
196.5500312207802
 30
0.0
  0
VERTEX
  5
14F
  8
0
  6
CONTINUOUS
 62
     7
 10
96.00449727416697
 20
196.4101448327641
 30
0.0
  0
VERTEX
  5
150
  8
0
  6
CONTINUOUS
 62
     7
 10
95.88580375003086
 20
196.2410142264053
 30
0.0
  0
SEQEND
  5
1D7
  8
0
  6
CONTINUOUS
 62
     7
  0
LINE
  5
8F
  8
0
  6
CONTINUOUS
 62
     7
 10
96.72232005376867
 20
196.7410142264053
 30
0.0
 11
105.4805876234696
 21
196.7410142264053
 31
0.0
  0
LINE
  5
90
  8
0
  6
CONTINUOUS
 62
     7
 10
105.7924951965063
 20
196.7234453069082
 30
0.0
 11
105.4805876234696
 21
196.7410142264051
 31
0.0
  0
LINE
  5
91
  8
0
  6
CONTINUOUS
 62
     7
 10
108.0124624166697
 20
194.598400489954
 30
0.0
 11
105.4805876234694
 21
194.7410142264051
 31
0.0
  0
LINE
  5
92
  8
0
  6
CONTINUOUS
 62
     7
 10
96.08327846199985
 20
194.7410142264053
 30
0.0
 11
105.4805876234694
 21
194.7410142264051
 31
0.0
  0
LINE
  5
93
  8
0
  6
CONTINUOUS
 62
     7
 10
105.4805876234694
 20
194.7410142264051
 30
0.0
 11
108.0003384280426
 21
194.4570395381315
 31
0.0
  0
LINE
  5
94
  8
0
  6
CONTINUOUS
 62
     7
 10
105.4805876234696
 20
196.7410142264053
 30
0.0
 11
111.1836170886588
 21
196.7410142264051
 31
0.0
  0
LINE
  5
95
  8
0
  6
CONTINUOUS
 62
     7
 10
111.1836170886588
 20
196.7410142264051
 30
0.0
 11
111.1329988056113
 21
196.7234453069082
 31
0.0
  0
LINE
  5
96
  8
0
  6
CONTINUOUS
 62
     7
 10
110.4940288299209
 20
194.5715068230514
 30
0.0
 11
111.1836170886589
 21
194.7410142264056
 31
0.0
  0
LINE
  5
97
  8
0
  6
CONTINUOUS
 62
     7
 10
110.4796185362028
 20
194.4034884506589
 30
0.0
 11
111.1836170886589
 21
194.7410142264053
 31
0.0
  0
LINE
  5
98
  8
0
  6
CONTINUOUS
 62
     7
 10
111.1836170886589
 20
194.7410142264051
 30
0.0
 11
111.4952837194668
 21
194.7410142264051
 31
0.0
  0
LINE
  5
99
  8
0
  6
CONTINUOUS
 62
     7
 10
111.1836170886589
 20
196.7410142264051
 30
0.0
 11
111.4952837194668
 21
196.7410142264051
 31
0.0
  0
POLYLINE
  5
9A
  8
0
  6
CONTINUOUS
 62
     9
 66
     1
 10
0.0
 20
0.0
 30
0.0
  0
VERTEX
  5
151
  8
0
  6
CONTINUOUS
 62
     9
 10
94.89320876766875
 20
193.2410142264053
 30
0.0
  0
VERTEX
  5
152
  8
0
  6
CONTINUOUS
 62
     9
 10
95.1758729384104
 20
193.2698363058005
 30
0.0
  0
VERTEX
  5
153
  8
0
  6
CONTINUOUS
 62
     9
 10
95.44767448359033
 20
193.3551949276384
 30
0.0
  0
VERTEX
  5
154
  8
0
  6
CONTINUOUS
 62
     9
 10
95.69816822225536
 20
193.4938098079515
 30
0.0
  0
VERTEX
  5
155
  8
0
  6
CONTINUOUS
 62
     9
 10
95.91772782050708
 20
193.6803540546255
 30
0.0
  0
VERTEX
  5
156
  8
0
  6
CONTINUOUS
 62
     9
 10
96.09791572611513
 20
193.9076588768759
 30
0.0
  0
VERTEX
  5
157
  8
0
  6
CONTINUOUS
 62
     9
 10
96.23180741891754
 20
194.1669890778577
 30
0.0
  0
VERTEX
  5
158
  8
0
  6
CONTINUOUS
 62
     9
 10
96.31425751624722
 20
194.4483787433811
 30
0.0
  0
VERTEX
  5
159
  8
0
  6
CONTINUOUS
 62
     9
 10
96.34209750710235
 20
194.7410142264053
 30
0.0
  0
SEQEND
  5
1D8
  8
0
  6
CONTINUOUS
 62
     9
  0
LINE
  5
9B
  8
0
  6
CONTINUOUS
 62
     7
 10
94.89320876766875
 20
193.2410142264053
 30
0.0
 11
94.63438972256624
 21
193.2410142264053
 31
0.0
  0
LINE
  5
9C
  8
0
  6
CONTINUOUS
 62
     9
 10
94.87497075513161
 20
196.2410142264053
 30
0.0
 11
95.88580375003086
 21
196.2410142264053
 31
0.0
  0
POLYLINE
  5
9D
  8
0
  6
CONTINUOUS
 62
     9
 66
     1
 10
0.0
 20
0.0
 30
0.0
  0
VERTEX
  5
15A
  8
0
  6
CONTINUOUS
 62
     9
 10
95.09911462317362
 20
196.7410142264053
 30
0.0
  0
VERTEX
  5
15B
  8
0
  6
CONTINUOUS
 62
     9
 10
95.04530311789051
 20
196.7191618271391
 30
0.0
  0
VERTEX
  5
15C
  8
0
  6
CONTINUOUS
 62
     9
 10
94.99384343360454
 20
196.6545596840479
 30
0.0
  0
VERTEX
  5
15D
  8
0
  6
CONTINUOUS
 62
     9
 10
94.94698460544994
 20
196.5500312207803
 30
0.0
  0
VERTEX
  5
15E
  8
0
  6
CONTINUOUS
 62
     9
 10
94.90677458907068
 20
196.4101448327642
 30
0.0
  0
VERTEX
  5
15F
  8
0
  6
CONTINUOUS
 62
     9
 10
94.87497075513161
 20
196.2410142264053
 30
0.0
  0
SEQEND
  5
1D9
  8
0
  6
CONTINUOUS
 62
     9
  0
LINE
  5
9E
  8
0
  6
CONTINUOUS
 62
     7
 10
96.72232005376867
 20
196.7410142264053
 30
0.0
 11
95.09911462317362
 21
196.7410142264053
 31
0.0
  0
POLYLINE
  5
9F
  8
0
  6
CONTINUOUS
 62
     9
 66
     1
 10
0.0
 20
0.0
 30
0.0
  0
VERTEX
  5
160
  8
0
  6
CONTINUOUS
 62
     9
 10
94.50498020001713
 20
195.2640257544647
 30
0.0
  0
VERTEX
  5
161
  8
0
  6
CONTINUOUS
 62
     9
 10
94.59486686057086
 20
195.3495217571756
 30
0.0
  0
VERTEX
  5
162
  8
0
  6
CONTINUOUS
 62
     9
 10
94.679374848294
 20
195.4955094162868
 30
0.0
  0
VERTEX
  5
163
  8
0
  6
CONTINUOUS
 62
     9
 10
94.7558015205699
 20
195.69731991315
 30
0.0
  0
VERTEX
  5
164
  8
0
  6
CONTINUOUS
 62
     9
 10
94.82170268262941
 20
195.9484991637902
 30
0.0
  0
VERTEX
  5
165
  8
0
  6
CONTINUOUS
 62
     9
 10
94.8749707551316
 20
196.2410142264053
 30
0.0
  0
SEQEND
  5
1DA
  8
0
  6
CONTINUOUS
 62
     9
  0
POLYLINE
  5
A0
  8
0
  6
CONTINUOUS
 62
     9
 66
     1
 10
0.0
 20
0.0
 30
0.0
  0
VERTEX
  5
166
  8
0
  6
CONTINUOUS
 62
     9
 10
64.48298240408647
 20
195.2410142264053
 30
0.0
  0
VERTEX
  5
167
  8
0
  6
CONTINUOUS
 62
     9
 10
64.59060541465267
 20
195.2847190249377
 30
0.0
  0
VERTEX
  5
168
  8
0
  6
CONTINUOUS
 62
     9
 10
64.69352478322465
 20
195.4139233111201
 30
0.0
  0
VERTEX
  5
169
  8
0
  6
CONTINUOUS
 62
     9
 10
64.78724243953384
 20
195.6229802376554
 30
0.0
  0
VERTEX
  5
16A
  8
0
  6
CONTINUOUS
 62
     9
 10
64.86766247229235
 20
195.9027530136876
 30
0.0
  0
VERTEX
  5
16B
  8
0
  6
CONTINUOUS
 62
     9
 10
64.9312701401705
 20
196.2410142264053
 30
0.0
  0
SEQEND
  5
1DB
  8
0
  6
CONTINUOUS
 62
     9
  0
LINE
  5
A1
  8
0
  6
CONTINUOUS
 62
     9
 10
94.87497075513161
 20
196.2410142264053
 30
0.0
 11
64.9312701401705
 21
196.2410142264053
 31
0.0
  0
POLYLINE
  5
A2
  8
0
  6
CONTINUOUS
 62
     9
 66
     1
 10
0.0
 20
0.0
 30
0.0
  0
VERTEX
  5
16C
  8
0
  6
CONTINUOUS
 62
     9
 10
65.1554140082125
 20
196.7410142264053
 30
0.0
  0
VERTEX
  5
16D
  8
0
  6
CONTINUOUS
 62
     9
 10
65.1016025029294
 20
196.7191618271391
 30
0.0
  0
VERTEX
  5
16E
  8
0
  6
CONTINUOUS
 62
     9
 10
65.05014281864342
 20
196.6545596840479
 30
0.0
  0
VERTEX
  5
16F
  8
0
  6
CONTINUOUS
 62
     9
 10
65.00328399048881
 20
196.5500312207802
 30
0.0
  0
VERTEX
  5
170
  8
0
  6
CONTINUOUS
 62
     9
 10
64.96307397410956
 20
196.4101448327642
 30
0.0
  0
VERTEX
  5
171
  8
0
  6
CONTINUOUS
 62
     9
 10
64.93127014017048
 20
196.2410142264053
 30
0.0
  0
SEQEND
  5
1DC
  8
0
  6
CONTINUOUS
 62
     9
  0
LINE
  5
A3
  8
0
  6
CONTINUOUS
 62
     7
 10
65.1554140082125
 20
196.7410142264053
 30
0.0
 11
95.09911462317362
 21
196.7410142264053
 31
0.0
  0
LINE
  5
A4
  8
0
  6
CONTINUOUS
 62
     9
 10
62.73216829895395
 20
196.2410142264053
 30
0.0
 11
62.47334925385144
 21
196.2410142264053
 31
0.0
  0
POLYLINE
  5
A5
  8
0
  6
CONTINUOUS
 62
     9
 66
     1
 10
0.0
 20
0.0
 30
0.0
  0
VERTEX
  5
172
  8
0
  6
CONTINUOUS
 62
     9
 10
62.73216829895395
 20
196.2410142264053
 30
0.0
  0
VERTEX
  5
173
  8
0
  6
CONTINUOUS
 62
     9
 10
62.96955534722618
 20
195.9027530136876
 30
0.0
  0
VERTEX
  5
174
  8
0
  6
CONTINUOUS
 62
     9
 10
63.2696869954273
 20
195.6229802376554
 30
0.0
  0
VERTEX
  5
175
  8
0
  6
CONTINUOUS
 62
     9
 10
63.6194460503395
 20
195.4139233111201
 30
0.0
  0
VERTEX
  5
176
  8
0
  6
CONTINUOUS
 62
     9
 10
64.00354636293297
 20
195.2847190249377
 30
0.0
  0
VERTEX
  5
177
  8
0
  6
CONTINUOUS
 62
     9
 10
64.40520090642957
 20
195.2410142264053
 30
0.0
  0
SEQEND
  5
1DD
  8
0
  6
CONTINUOUS
 62
     9
  0
POLYLINE
  5
A6
  8
0
  6
CONTINUOUS
 62
     9
 66
     1
 10
0.0
 20
0.0
 30
0.0
  0
VERTEX
  5
178
  8
0
  6
CONTINUOUS
 62
     9
 10
62.73216829895395
 20
196.2410142264053
 30
0.0
  0
VERTEX
  5
179
  8
0
  6
CONTINUOUS
 62
     9
 10
62.61347477481784
 20
196.4101448327642
 30
0.0
  0
VERTEX
  5
17A
  8
0
  6
CONTINUOUS
 62
     9
 10
62.46340895071728
 20
196.5500312207803
 30
0.0
  0
VERTEX
  5
17B
  8
0
  6
CONTINUOUS
 62
     9
 10
62.28852942326117
 20
196.6545596840479
 30
0.0
  0
VERTEX
  5
17C
  8
0
  6
CONTINUOUS
 62
     9
 10
62.09647926696444
 20
196.7191618271391
 30
0.0
  0
VERTEX
  5
17D
  8
0
  6
CONTINUOUS
 62
     9
 10
61.89565199521614
 20
196.7410142264053
 30
0.0
  0
SEQEND
  5
1DE
  8
0
  6
CONTINUOUS
 62
     9
  0
LINE
  5
A7
  8
0
  6
CONTINUOUS
 62
     7
 10
61.63683295011362
 20
196.7410142264053
 30
0.0
 11
61.89565199521614
 21
196.7410142264053
 31
0.0
  0
LINE
  5
A8
  8
0
  6
CONTINUOUS
 62
     9
 10
62.73216829895395
 20
196.2410142264053
 30
0.0
 11
64.9312701401705
 21
196.2410142264053
 31
0.0
  0
LINE
  5
A9
  8
0
  6
CONTINUOUS
 62
     7
 10
65.1554140082125
 20
196.7410142264053
 30
0.0
 11
61.89565199521614
 21
196.7410142264053
 31
0.0
  0
LINE
  5
AA
  8
0
  6
CONTINUOUS
 62
     9
 10
56.51925945086956
 20
196.7234453069084
 30
0.0
 11
49.32932112433309
 21
196.7234453069084
 31
0.0
  0
LINE
  5
AB
  8
0
  6
CONTINUOUS
 62
     7
 10
49.32932112433309
 20
196.7234453069084
 30
0.0
 11
49.22190408542474
 21
196.7410142264053
 31
0.0
  0
LINE
  5
AC
  8
0
  6
CONTINUOUS
 62
     7
 10
49.22190408542474
 20
196.7410142264053
 30
0.0
 11
56.96470962958963
 21
196.7410142264053
 31
0.0
  0
LINE
  5
AD
  8
0
  6
CONTINUOUS
 62
     9
 10
52.53945316027434
 20
194.3920816512494
 30
0.0
 11
52.52169925598729
 21
194.5657782621911
 31
0.0
  0
LINE
  5
AE
  8
0
  6
CONTINUOUS
 62
     7
 10
56.96470962958963
 20
194.7410142264053
 30
0.0
 11
52.53945316027434
 21
194.3920816512494
 31
0.0
  0
POLYLINE
  5
AF
  8
0
  6
CONTINUOUS
 62
     7
 66
     1
 10
0.0
 20
0.0
 30
0.0
  0
VERTEX
  5
17E
  8
0
  6
CONTINUOUS
 62
     7
 10
51.1727384549112
 20
196.3729241607765
 30
0.0
  0
VERTEX
  5
17F
  8
0
  6
CONTINUOUS
 62
     7
 10
51.34021268150241
 20
196.3611578711716
 30
0.0
  0
VERTEX
  5
180
  8
0
  6
CONTINUOUS
 62
     7
 10
51.56777953660933
 20
196.35873381389
 30
0.0
  0
VERTEX
  5
181
  8
0
  6
CONTINUOUS
 62
     7
 10
51.84739070525504
 20
196.3657377201183
 30
0.0
  0
VERTEX
  5
182
  8
0
  6
CONTINUOUS
 62
     7
 10
52.16915723082828
 20
196.3819218839971
 30
0.0
  0
VERTEX
  5
183
  8
0
  6
CONTINUOUS
 62
     7
 10
52.52169925598729
 20
196.4067139231888
 30
0.0
  0
SEQEND
  5
1DF
  8
0
  6
CONTINUOUS
 62
     7
  0
LINE
  5
B0
  8
0
  6
CONTINUOUS
 62
     7
 10
49.32932112433308
 20
196.7234453069084
 30
0.0
 11
51.17273845491128
 21
196.3729241607765
 31
0.0
  0
POLYLINE
  5
B1
  8
0
  6
CONTINUOUS
 62
     7
 66
     1
 10
0.0
 20
0.0
 30
0.0
  0
VERTEX
  5
184
  8
0
  6
CONTINUOUS
 62
     7
 10
51.17273845491123
 20
194.5489579145556
 30
0.0
  0
VERTEX
  5
185
  8
0
  6
CONTINUOUS
 62
     7
 10
51.34021268150246
 20
194.5431007238739
 30
0.0
  0
VERTEX
  5
186
  8
0
  6
CONTINUOUS
 62
     7
 10
51.56777953660936
 20
194.5418940422267
 30
0.0
  0
VERTEX
  5
187
  8
0
  6
CONTINUOUS
 62
     7
 10
51.84739070525507
 20
194.5453805461012
 30
0.0
  0
VERTEX
  5
188
  8
0
  6
CONTINUOUS
 62
     7
 10
52.16915723082831
 20
194.553436928958
 30
0.0
  0
VERTEX
  5
189
  8
0
  6
CONTINUOUS
 62
     7
 10
52.52169925598731
 20
194.5657782621911
 30
0.0
  0
SEQEND
  5
1E0
  8
0
  6
CONTINUOUS
 62
     7
  0
LINE
  5
B2
  8
0
  6
CONTINUOUS
 62
     9
 10
51.17273845491136
 20
196.3729241607766
 30
0.0
 11
51.17273845491123
 21
194.5489579145555
 31
0.0
  0
LINE
  5
B3
  8
0
  6
CONTINUOUS
 62
     9
 10
51.19219650048762
 20
194.3585887136449
 30
0.0
 11
51.17273845491123
 21
194.5489579145555
 31
0.0
  0
POLYLINE
  5
B4
  8
0
  6
CONTINUOUS
 62
     7
 66
     1
 10
0.0
 20
0.0
 30
0.0
  0
VERTEX
  5
18A
  8
0
  6
CONTINUOUS
 62
     7
 10
51.19219650048755
 20
194.3585887136449
 30
0.0
  0
VERTEX
  5
18B
  8
0
  6
CONTINUOUS
 62
     7
 10
51.36026414409345
 20
194.3469257845374
 30
0.0
  0
VERTEX
  5
18C
  8
0
  6
CONTINUOUS
 62
     7
 10
51.58795325327397
 20
194.3445230212894
 30
0.0
  0
VERTEX
  5
18D
  8
0
  6
CONTINUOUS
 62
     7
 10
51.86721118931495
 20
194.3514654019854
 30
0.0
  0
VERTEX
  5
18E
  8
0
  6
CONTINUOUS
 62
     7
 10
52.18816148831748
 20
194.3675073967281
 30
0.0
  0
VERTEX
  5
18F
  8
0
  6
CONTINUOUS
 62
     7
 10
52.53945316027431
 20
194.3920816512493
 30
0.0
  0
SEQEND
  5
1E1
  8
0
  6
CONTINUOUS
 62
     7
  0
LINE
  5
B5
  8
0
  6
CONTINUOUS
 62
     7
 10
48.50471628053316
 20
196.7410142264053
 30
0.0
 11
49.22190408542475
 21
196.7410142264053
 31
0.0
  0
LINE
  5
B6
  8
0
  6
CONTINUOUS
 62
     7
 10
48.50471628053316
 20
194.7410142264053
 30
0.0
 11
49.22190408542472
 21
194.7410142264053
 31
0.0
  0
LINE
  5
B7
  8
0
  6
CONTINUOUS
 62
     7
 10
49.22190408542466
 20
194.7410142264056
 30
0.0
 11
51.1727384549113
 21
194.5489579145549
 31
0.0
  0
LINE
  5
B8
  8
0
  6
CONTINUOUS
 62
     7
 10
49.22190408542468
 20
194.7410142264053
 30
0.0
 11
51.19219650048756
 21
194.3585887136449
 31
0.0
  0
POLYLINE
  5
B9
  8
0
  6
CONTINUOUS
 62
     7
 66
     1
 10
0.0
 20
0.0
 30
0.0
  0
VERTEX
  5
190
  8
0
  6
CONTINUOUS
 62
     7
 10
107.4605468397257
 20
194.3920816512494
 30
0.0
  0
VERTEX
  5
191
  8
0
  6
CONTINUOUS
 62
     7
 10
107.8118385116825
 20
194.3675073967281
 30
0.0
  0
VERTEX
  5
192
  8
0
  6
CONTINUOUS
 62
     7
 10
108.132788810685
 20
194.3514654019854
 30
0.0
  0
VERTEX
  5
193
  8
0
  6
CONTINUOUS
 62
     7
 10
108.412046746726
 20
194.3445230212894
 30
0.0
  0
VERTEX
  5
194
  8
0
  6
CONTINUOUS
 62
     7
 10
108.6397358559065
 20
194.3469257845374
 30
0.0
  0
VERTEX
  5
195
  8
0
  6
CONTINUOUS
 62
     7
 10
108.8078034995124
 20
194.3585887136449
 30
0.0
  0
SEQEND
  5
1E2
  8
0
  6
CONTINUOUS
 62
     7
  0
LINE
  5
BA
  8
0
  6
CONTINUOUS
 62
     7
 10
103.0352903704103
 20
194.7410142264053
 30
0.0
 11
107.4605468397256
 21
194.3920816512494
 31
0.0
  0
LINE
  5
BB
  8
0
  6
CONTINUOUS
 62
     7
 10
108.8078034995123
 20
194.358588713645
 30
0.0
 11
108.9393670945821
 21
194.3746324239342
 31
0.0
  0
LINE
  5
BC
  8
0
  6
CONTINUOUS
 62
     7
 10
96.0164176735814
 20
193.2410142264053
 30
0.0
 11
95.40404523788561
 21
193.2410142264053
 31
0.0
  0
LINE
  5
BD
  8
0
  6
CONTINUOUS
 62
     9
 10
95.30251779009947
 20
193.2932149555946
 30
0.0
 11
95.40404523788561
 21
193.2410142264053
 31
0.0
  0
POLYLINE
  5
BE
  8
0
  6
CONTINUOUS
 62
     9
 66
     1
 10
0.0
 20
0.0
 30
0.0
  0
VERTEX
  5
196
  8
0
  6
CONTINUOUS
 62
     9
 10
96.0164176735814
 20
193.2410142264053
 30
0.0
  0
VERTEX
  5
197
  8
0
  6
CONTINUOUS
 62
     9
 10
96.29908184432304
 20
193.2698363058005
 30
0.0
  0
VERTEX
  5
198
  8
0
  6
CONTINUOUS
 62
     9
 10
96.57088338950298
 20
193.3551949276384
 30
0.0
  0
VERTEX
  5
199
  8
0
  6
CONTINUOUS
 62
     9
 10
96.82137712816801
 20
193.4938098079515
 30
0.0
  0
VERTEX
  5
19A
  8
0
  6
CONTINUOUS
 62
     9
 10
97.04093672641973
 20
193.6803540546255
 30
0.0
  0
VERTEX
  5
19B
  8
0
  6
CONTINUOUS
 62
     9
 10
97.22112463202778
 20
193.9076588768759
 30
0.0
  0
VERTEX
  5
19C
  8
0
  6
CONTINUOUS
 62
     9
 10
97.35501632483019
 20
194.1669890778577
 30
0.0
  0
VERTEX
  5
19D
  8
0
  6
CONTINUOUS
 62
     9
 10
97.43746642215987
 20
194.4483787433811
 30
0.0
  0
VERTEX
  5
19E
  8
0
  6
CONTINUOUS
 62
     9
 10
97.465306413015
 20
194.7410142264053
 30
0.0
  0
SEQEND
  5
1E3
  8
0
  6
CONTINUOUS
 62
     9
  0
LINE
  5
BF
  8
0
  6
CONTINUOUS
 62
     7
 10
95.40404523788561
 20
193.2410142264053
 30
0.0
 11
94.91024585452422
 21
193.2410142264053
 31
0.0
  0
LINE
  5
C0
  8
0
  6
CONTINUOUS
 62
     7
 10
96.27523671868391
 20
193.2410142264053
 30
0.0
 11
96.0164176735814
 21
193.2410142264053
 31
0.0
  0
POLYLINE
  5
C1
  8
0
  6
CONTINUOUS
 62
     7
 66
     1
 10
0.0
 20
0.0
 30
0.0
  0
VERTEX
  5
19F
  8
0
  6
CONTINUOUS
 62
     7
 10
96.27523671868391
 20
193.2410142264053
 30
0.0
  0
VERTEX
  5
1A0
  8
0
  6
CONTINUOUS
 62
     7
 10
96.55790088942555
 20
193.2698363058005
 30
0.0
  0
VERTEX
  5
1A1
  8
0
  6
CONTINUOUS
 62
     7
 10
96.8297024346055
 20
193.3551949276384
 30
0.0
  0
VERTEX
  5
1A2
  8
0
  6
CONTINUOUS
 62
     7
 10
97.08019617327052
 20
193.4938098079515
 30
0.0
  0
VERTEX
  5
1A3
  8
0
  6
CONTINUOUS
 62
     7
 10
97.29975577152224
 20
193.6803540546255
 30
0.0
  0
VERTEX
  5
1A4
  8
0
  6
CONTINUOUS
 62
     7
 10
97.4799436771303
 20
193.9076588768759
 30
0.0
  0
VERTEX
  5
1A5
  8
0
  6
CONTINUOUS
 62
     7
 10
97.6138353699327
 20
194.1669890778577
 30
0.0
  0
VERTEX
  5
1A6
  8
0
  6
CONTINUOUS
 62
     7
 10
97.69628546726238
 20
194.4483787433811
 30
0.0
  0
VERTEX
  5
1A7
  8
0
  6
CONTINUOUS
 62
     7
 10
97.72412545811751
 20
194.7410142264053
 30
0.0
  0
SEQEND
  5
1E4
  8
0
  6
CONTINUOUS
 62
     7
  0
POLYLINE
  5
C2
  8
0
  6
CONTINUOUS
 62
     7
 66
     1
 10
0.0
 20
0.0
 30
0.0
  0
VERTEX
  5
1A8
  8
0
  6
CONTINUOUS
 62
     7
 10
49.52038146379721
 20
194.4034884506589
 30
0.0
  0
VERTEX
  5
1A9
  8
0
  6
CONTINUOUS
 62
     7
 10
49.63164488847245
 20
194.3751255002211
 30
0.0
  0
VERTEX
  5
1AA
  8
0
  6
CONTINUOUS
 62
     7
 10
49.81238432962945
 20
194.3555655401454
 30
0.0
  0
VERTEX
  5
1AB
  8
0
  6
CONTINUOUS
 62
     7
 10
50.05578973868381
 20
194.3455455666156
 30
0.0
  0
VERTEX
  5
1AC
  8
0
  6
CONTINUOUS
 62
     7
 10
50.35268988742573
 20
194.3454431203951
 30
0.0
  0
VERTEX
  5
1AD
  8
0
  6
CONTINUOUS
 62
     7
 10
50.69189792906237
 20
194.3552620615364
 30
0.0
  0
VERTEX
  5
1AE
  8
0
  6
CONTINUOUS
 62
     7
 10
51.06063290538688
 20
194.374632423939
 30
0.0
  0
SEQEND
  5
1E5
  8
0
  6
CONTINUOUS
 62
     7
  0
LINE
  5
C3
  8
0
  6
CONTINUOUS
 62
     7
 10
48.81638291134107
 20
194.7410142264053
 30
0.0
 11
49.52038146379721
 21
194.4034884506589
 31
0.0
  0
LINE
  5
C4
  8
0
  6
CONTINUOUS
 62
     7
 10
111.4952837194668
 20
194.7410142264051
 30
0.0
 11
111.4952837194668
 21
196.7410142264051
 31
0.0
  0
ARC
  5
C5
  8
0
  6
CONTINUOUS
 62
     7
 10
94.91024585452422
 20
194.7410142264053
 30
0.0
 40
1.500000000000001
 50
270.0
 51
0.0
  0
LINE
  5
C6
  8
0
  6
CONTINUOUS
 62
     7
 10
104.0318181818182
 20
194.7347642264053
 30
0.0
 11
104.0318181818182
 21
194.7410142264052
 31
0.0
  0
LINE
  5
C7
  8
0
  6
CONTINUOUS
 62
     7
 10
48.50471628053315
 20
196.7410142264051
 30
0.0
 11
48.50471628053315
 21
194.7410142264051
 31
0.0
  0
ENDBLK
  8
0
  0
BLOCK
  8
0
  2
D_FRAME_VIEW_1493
 70
     0
 10
0.0
 20
0.0
 30
0.0
  0
ARC
  5
CC
  8
0
  6
CONTINUOUS
 62
     7
 10
65.58975414547575
 20
129.2331101858303
 30
0.0
 40
2.000000000000009
 50
105.0
 51
195.0
  0
LINE
  5
CD
  8
0
  6
CONTINUOUS
 62
     7
 10
63.65790249289761
 20
128.7154720956253
 30
0.0
 11
63.91672153800013
 21
127.7495462693362
 31
0.0
  0
LINE
  5
CE
  8
0
  6
CONTINUOUS
 62
     7
 10
65.36561027743373
 20
128.13777483699
 30
0.0
 11
63.91672153800013
 21
127.7495462693362
 31
0.0
  0
LINE
  5
CF
  8
0
  6
CONTINUOUS
 62
     7
 10
65.36561027743373
 20
128.13777483699
 30
0.0
 11
96.27523671868393
 21
136.4199842802707
 31
0.0
  0
LINE
  5
D0
  8
0
  6
CONTINUOUS
 62
     7
 10
95.01581667023181
 20
139.1883522365866
 30
0.0
 11
65.0721160552707
 21
131.1649618384085
 31
0.0
  0
ARC
  5
D1
  8
0
  6
CONTINUOUS
 62
     7
 10
64.4665452395631
 20
152.7434994159915
 30
0.0
 40
2.000000000000005
 50
195.0
 51
285.0
  0
ARC
  5
D2
  8
0
  6
CONTINUOUS
 62
     7
 10
94.41024585452422
 20
160.7668898141696
 30
0.0
 40
2.000000000000002
 50
285.0
 51
0.0
  0
ARC
  5
D3
  8
0
  6
CONTINUOUS
 62
     7
 10
94.41024585452422
 20
160.7668898141696
 30
0.0
 40
2.000000000000009
 50
0.0
 51
15.0
  0
LINE
  5
D4
  8
0
  6
CONTINUOUS
 62
     7
 10
64.98418332976816
 20
150.8116477634134
 30
0.0
 11
94.92788394472927
 21
158.8350381615915
 31
0.0
  0
LINE
  5
D5
  8
0
  6
CONTINUOUS
 62
     7
 10
96.34209750710237
 20
161.2845279043747
 30
0.0
 11
96.08327846199985
 21
162.2504537306638
 31
0.0
  0
LINE
  5
D6
  8
0
  6
CONTINUOUS
 62
     7
 10
94.63438972256624
 20
161.86222516301
 30
0.0
 11
96.08327846199984
 21
162.2504537306638
 31
0.0
  0
LINE
  5
D7
  8
0
  6
CONTINUOUS
 62
     7
 10
94.63438972256624
 20
161.86222516301
 30
0.0
 11
63.72476328131606
 21
153.5800157197293
 31
0.0
  0
LINE
  5
D8
  8
0
  6
CONTINUOUS
 62
     7
 10
62.27587454188246
 20
153.1917871520755
 30
0.0
 11
62.53469358698496
 21
152.2258613257865
 31
0.0
  0
LINE
  5
D9
  8
0
  6
CONTINUOUS
 62
     7
 10
62.27587454188245
 20
153.1917871520755
 30
0.0
 11
63.72476328131606
 21
153.5800157197293
 31
0.0
  0
ARC
  5
DA
  8
0
  6
CONTINUOUS
 62
     7
 10
95.53345476043687
 20
137.2565005840084
 30
0.0
 40
2.000000000000005
 50
14.99999999999994
 51
105.0
  0
LINE
  5
DB
  8
0
  6
CONTINUOUS
 62
     7
 10
97.72412545811751
 20
136.8082128479244
 30
0.0
 11
97.46530641301501
 21
137.7741386742135
 31
0.0
  0
LINE
  5
DC
  8
0
  6
CONTINUOUS
 62
     7
 10
97.72412545811753
 20
136.8082128479244
 30
0.0
 11
96.27523671868391
 21
136.4199842802707
 31
0.0
  0
LINE
  5
DD
  8
0
  6
CONTINUOUS
 62
     7
 10
54.5194123765306
 20
125.2315448684949
 30
0.0
 11
48.81638291134113
 21
130.0169547893283
 31
0.0
  0
LINE
  5
DE
  8
0
  6
CONTINUOUS
 62
     7
 10
54.5194123765306
 20
125.2315448684949
 30
0.0
 11
51.99966157195741
 21
124.5675798693232
 31
0.0
  0
POLYLINE
  5
DF
  8
0
  6
CONTINUOUS
 62
     7
 66
     1
 10
0.0
 20
0.0
 30
0.0
  0
VERTEX
  5
1B1
  8
0
  6
CONTINUOUS
 62
     7
 10
49.52038146379719
 20
126.1240219433299
 30
0.0
  0
VERTEX
  5
1B2
  8
0
  6
CONTINUOUS
 62
     7
 10
49.63997737703796
 20
125.7331095400805
 30
0.0
  0
VERTEX
  5
1B3
  8
0
  6
CONTINUOUS
 62
     7
 10
49.83666611986061
 20
125.3740580045914
 30
0.0
  0
VERTEX
  5
1B4
  8
0
  6
CONTINUOUS
 62
     7
 10
50.10218687801271
 20
125.0619472951723
 30
0.0
  0
VERTEX
  5
1B5
  8
0
  6
CONTINUOUS
 62
     7
 10
50.42538793212393
 20
124.8098858823929
 30
0.0
  0
VERTEX
  5
1B6
  8
0
  6
CONTINUOUS
 62
     7
 10
50.79269502351585
 20
124.6284602008468
 30
0.0
  0
VERTEX
  5
1B7
  8
0
  6
CONTINUOUS
 62
     7
 10
51.18868146527164
 20
124.5252900249774
 30
0.0
  0
VERTEX
  5
1B8
  8
0
  6
CONTINUOUS
 62
     7
 10
51.59671605422791
 20
124.5047084429271
 30
0.0
  0
VERTEX
  5
1B9
  8
0
  6
CONTINUOUS
 62
     7
 10
51.99966157195742
 20
124.5675798693232
 30
0.0
  0
SEQEND
  5
1E6
  8
0
  6
CONTINUOUS
 62
     7
  0
LINE
  5
E0
  8
0
  6
CONTINUOUS
 62
     7
 10
48.8163829113411
 20
130.0169547893282
 30
0.0
 11
49.52038146379722
 21
126.1240219433299
 31
0.0
  0
ARC
  5
E1
  8
0
  6
CONTINUOUS
 62
     7
 10
51.46989949312519
 20
126.4849827148983
 30
0.0
 40
1.999999999999999
 50
190.8983488860208
 51
284.999999999999
  0
LINE
  5
E2
  8
0
  6
CONTINUOUS
 62
     7
 10
49.52038146379719
 20
126.1240219433299
 30
0.0
 11
49.50597117007907
 21
126.106848424021
 31
0.0
  0
POLYLINE
  5
E3
  8
0
  6
CONTINUOUS
 62
     7
 66
     1
 10
0.0
 20
0.0
 30
0.0
  0
VERTEX
  5
1BA
  8
0
  6
CONTINUOUS
 62
     7
 10
52.53945316027435
 20
150.5632664668492
 30
0.0
  0
VERTEX
  5
1BB
  8
0
  6
CONTINUOUS
 62
     7
 10
52.18816148831754
 20
150.4311395233422
 30
0.0
  0
VERTEX
  5
1BC
  8
0
  6
CONTINUOUS
 62
     7
 10
51.86721118931502
 20
150.2356892177735
 30
0.0
  0
VERTEX
  5
1BD
  8
0
  6
CONTINUOUS
 62
     7
 10
51.58795325327404
 20
149.9838280050384
 30
0.0
  0
VERTEX
  5
1BE
  8
0
  6
CONTINUOUS
 62
     7
 10
51.36026414409353
 20
149.6844634141774
 30
0.0
  0
VERTEX
  5
1BF
  8
0
  6
CONTINUOUS
 62
     7
 10
51.19219650048761
 20
149.3481830174407
 30
0.0
  0
SEQEND
  5
1E7
  8
0
  6
CONTINUOUS
 62
     7
  0
ARC
  5
E4
  8
0
  6
CONTINUOUS
 62
     7
 10
53.0393373461923
 20
148.6463121088102
 30
0.0
 40
2.0
 50
104.9999999999988
 51
158.9551226304063
  0
LINE
  5
E5
  8
0
  6
CONTINUOUS
 62
     7
 10
56.96470962958963
 20
151.7686648029581
 30
0.0
 11
52.53945316027434
 21
150.5632664668492
 31
0.0
  0
LINE
  5
E6
  8
0
  6
CONTINUOUS
 62
     7
 10
49.22190408542462
 20
142.5411484789412
 30
0.0
 11
56.96470962958963
 21
151.7686648029581
 31
0.0
  0
LINE
  5
E7
  8
0
  6
CONTINUOUS
 62
     7
 10
51.19219650048763
 20
149.3481830174408
 30
0.0
 11
49.22190408542471
 21
142.5411484789412
 31
0.0
  0
POLYLINE
  5
E8
  8
0
  6
CONTINUOUS
 62
     7
 66
     1
 10
0.0
 20
0.0
 30
0.0
  0
VERTEX
  5
1C0
  8
0
  6
CONTINUOUS
 62
     7
 10
110.4796185362028
 20
163.87597805667
 30
0.0
  0
VERTEX
  5
1C1
  8
0
  6
CONTINUOUS
 62
     7
 10
110.360022622962
 20
164.2668904599195
 30
0.0
  0
VERTEX
  5
1C2
  8
0
  6
CONTINUOUS
 62
     7
 10
110.1633338801394
 20
164.6259419954085
 30
0.0
  0
VERTEX
  5
1C3
  8
0
  6
CONTINUOUS
 62
     7
 10
109.8978131219873
 20
164.9380527048277
 30
0.0
  0
VERTEX
  5
1C4
  8
0
  6
CONTINUOUS
 62
     7
 10
109.574612067876
 20
165.1901141176071
 30
0.0
  0
VERTEX
  5
1C5
  8
0
  6
CONTINUOUS
 62
     7
 10
109.2073049764841
 20
165.3715397991532
 30
0.0
  0
VERTEX
  5
1C6
  8
0
  6
CONTINUOUS
 62
     7
 10
108.8113185347283
 20
165.4747099750226
 30
0.0
  0
VERTEX
  5
1C7
  8
0
  6
CONTINUOUS
 62
     7
 10
108.4032839457721
 20
165.4952915570729
 30
0.0
  0
VERTEX
  5
1C8
  8
0
  6
CONTINUOUS
 62
     7
 10
108.0003384280426
 20
165.4324201306768
 30
0.0
  0
SEQEND
  5
1E8
  8
0
  6
CONTINUOUS
 62
     7
  0
ARC
  5
E9
  8
0
  6
CONTINUOUS
 62
     7
 10
108.5301005068748
 20
163.5150172851017
 30
0.0
 40
1.999999999999999
 50
10.89834888602081
 51
104.9999999999991
  0
LINE
  5
EA
  8
0
  6
CONTINUOUS
 62
     7
 10
110.4796185362028
 20
163.87597805667
 30
0.0
 11
110.4940288299209
 21
163.893151575979
 31
0.0
  0
LINE
  5
EB
  8
0
  6
CONTINUOUS
 62
     7
 10
105.4805876234694
 20
164.7684551315051
 30
0.0
 11
111.1836170886588
 21
159.9830452106717
 31
0.0
  0
LINE
  5
EC
  8
0
  6
CONTINUOUS
 62
     7
 10
105.4805876234694
 20
164.7684551315051
 30
0.0
 11
108.0003384280426
 21
165.4324201306768
 31
0.0
  0
LINE
  5
ED
  8
0
  6
CONTINUOUS
 62
     7
 10
111.1836170886589
 20
159.9830452106718
 30
0.0
 11
110.4796185362028
 21
163.87597805667
 31
0.0
  0
POLYLINE
  5
EE
  8
0
  6
CONTINUOUS
 62
     7
 66
     1
 10
0.0
 20
0.0
 30
0.0
  0
VERTEX
  5
1C9
  8
0
  6
CONTINUOUS
 62
     7
 10
107.4605468397256
 20
139.4367335331507
 30
0.0
  0
VERTEX
  5
1CA
  8
0
  6
CONTINUOUS
 62
     7
 10
107.8118385116824
 20
139.5688604766578
 30
0.0
  0
VERTEX
  5
1CB
  8
0
  6
CONTINUOUS
 62
     7
 10
108.132788810685
 20
139.7643107822264
 30
0.0
  0
VERTEX
  5
1CC
  8
0
  6
CONTINUOUS
 62
     7
 10
108.4120467467259
 20
140.0161719949616
 30
0.0
  0
VERTEX
  5
1CD
  8
0
  6
CONTINUOUS
 62
     7
 10
108.6397358559065
 20
140.3155365858225
 30
0.0
  0
VERTEX
  5
1CE
  8
0
  6
CONTINUOUS
 62
     7
 10
108.8078034995124
 20
140.6518169825592
 30
0.0
  0
SEQEND
  5
1E9
  8
0
  6
CONTINUOUS
 62
     7
  0
ARC
  5
EF
  8
0
  6
CONTINUOUS
 62
     7
 10
106.9606626538077
 20
141.3536878911897
 30
0.0
 40
2.0
 50
284.9999999999987
 51
338.9551226304063
  0
LINE
  5
F0
  8
0
  6
CONTINUOUS
 62
     7
 10
103.0352903704103
 20
138.2313351970419
 30
0.0
 11
107.4605468397256
 21
139.4367335331508
 31
0.0
  0
LINE
  5
F1
  8
0
  6
CONTINUOUS
 62
     7
 10
110.7780959145753
 20
147.4588515210588
 30
0.0
 11
103.0352903704103
 21
138.2313351970419
 31
0.0
  0
LINE
  5
F2
  8
0
  6
CONTINUOUS
 62
     7
 10
108.8078034995124
 20
140.6518169825592
 30
0.0
 11
110.7780959145753
 21
147.4588515210588
 31
0.0
  0
ARC
  5
F3
  8
0
  6
CONTINUOUS
 62
     7
 10
88.50471628053307
 20
135.0005473063661
 30
0.0
 40
39.99999999999998
 50
158.9551226304077
 51
169.1338643194301
  0
ARC
  5
F4
  8
0
  6
CONTINUOUS
 62
     7
 10
71.4952837194669
 20
154.9994526936339
 30
0.0
 40
39.99999999999998
 50
338.9551226304077
 51
349.1338643194301
  0
LINE
  5
F5
  8
0
  6
CONTINUOUS
 62
     7
 10
52.52169925598729
 20
150.5781637613884
 30
0.0
 11
56.96470962958963
 21
151.7686648029581
 31
0.0
  0
LINE
  5
F6
  8
0
  6
CONTINUOUS
 62
     7
 10
107.4783007440127
 20
139.4218362386116
 30
0.0
 11
103.0352903704103
 21
138.2313351970419
 31
0.0
  0
ARC
  5
F7
  8
0
  6
CONTINUOUS
 62
     7
 10
88.50471628053315
 20
135.0005473063661
 30
0.0
 40
39.99999999999999
 50
187.1570686201542
 51
192.8466550047845
  0
ARC
  5
F8
  8
0
  6
CONTINUOUS
 62
     7
 10
71.49528371946683
 20
154.9994526936339
 30
0.0
 40
39.99999999999999
 50
7.157068620154217
 51
12.84665500478446
  0
LINE
  5
F9
  8
0
  6
CONTINUOUS
 62
     7
 10
51.98753758333022
 20
124.5531310623201
 30
0.0
 11
54.5194123765306
 21
125.2315448684949
 31
0.0
  0
LINE
  5
FA
  8
0
  6
CONTINUOUS
 62
     7
 10
108.0124624166697
 20
165.4468689376799
 30
0.0
 11
105.4805876234694
 21
164.7684551315051
 31
0.0
  0
CIRCLE
  5
FB
  8
0
  6
CONTINUOUS
 62
     7
 10
79.99999999999999
 20
145.0
 30
0.0
 40
1.649999999999999
  0
ARC
  5
FC
  8
0
  6
CONTINUOUS
 62
     7
 10
71.49528371946683
 20
154.9994526936339
 30
0.0
 40
39.99999999999999
 50
349.1338643194301
 51
7.157068620154121
  0
ARC
  5
FD
  8
0
  6
CONTINUOUS
 62
     7
 10
88.50471628053315
 20
135.0005473063661
 30
0.0
 40
40.0
 50
169.1338643194301
 51
187.1570686201542
  0
LINE
  5
FE
  8
0
  6
CONTINUOUS
 62
     7
 10
56.96470962958963
 20
151.7686648029581
 30
0.0
 11
62.27587454188246
 21
153.1917871520755
 31
0.0
  0
LINE
  5
FF
  8
0
  6
CONTINUOUS
 62
     7
 10
96.08327846199985
 20
162.2504537306638
 30
0.0
 11
105.4805876234694
 21
164.7684551315051
 31
0.0
  0
LINE
  5
100
  8
0
  6
CONTINUOUS
 62
     7
 10
103.0352903704103
 20
138.2313351970419
 30
0.0
 11
97.72412545811751
 21
136.8082128479244
 31
0.0
  0
LINE
  5
101
  8
0
  6
CONTINUOUS
 62
     7
 10
63.91672153800013
 20
127.7495462693362
 30
0.0
 11
54.5194123765306
 21
125.2315448684949
 31
0.0
  0
ENDBLK
  8
0
  0
ENDSEC
  0
SECTION
  2
ENTITIES
  0
LINE
  5
6F
  8
0
  6
CENTER
 62
     1
 10
79.99999999999999
 20
121.4849827148983
 30
0.0
 11
79.99999999999999
 21
168.5150172851017
 31
0.0
  0
POINT
  5
71
  8
0
 62
     2
 10
49.53804784054706
 20
125.9673446246932
 30
0.0
  0
POINT
  5
72
  8
0
 62
     2
 10
110.4619521594529
 20
164.0326553753067
 30
0.0
  0
LINE
  5
73
  8
0
  6
CENTER
 62
     1
 10
45.50471628053315
 20
145.0
 30
0.0
 11
114.4952837194668
 21
145.0
 31
0.0
  0
POINT
  5
74
  8
0
 62
     1
 10
79.99999999999999
 20
195.0
 30
0.0
  0
POINT
  5
75
  8
0
 62
     1
 10
79.99999999999999
 20
145.0
 30
0.0
  0
INSERT
  5
C8
  8
0
  6
CONTINUOUS
 62
     7
  2
D_FRAME_VIEW_1691
 10
0.0
 20
0.0
 30
0.0
  0
INSERT
  5
102
  8
0
  6
CONTINUOUS
 62
     7
  2
D_FRAME_VIEW_1493
 10
0.0
 20
0.0
 30
0.0
  0
TEXT
  5
103
  8
0
  6
CONTINUOUS
 62
     7
 10
67.68427222708516
 20
108.4659090909091
 30
0.0
 40
3.0
  1
ＭＲＤ－ＤＫ２
  0
LINE
  5
104
  8
0
  6
CENTER
 62
     1
 10
79.99999999999999
 20
190.2410142264053
 30
0.0
 11
79.99999999999999
 21
199.7410142264053
 31
0.0
  0
ENDSEC
  0
EOF
