  0
SECTION
  2
HEADER
  9
$ACADVER
  1
AC1006
  9
$DWGCODEPAGE
  3
ansi_932
  9
$INSBASE
 10
0.0
 20
0.0
 30
0.0
  9
$EXTMIN
 10
59.84994760328323
 20
92.30681818181817
  9
$EXTMAX
 10
150.1500523967167
 20
261.9999999999999
  9
$LIMMIN
 10
0.0
 20
0.0
  9
$LIMMAX
 10
12.0
 20
9.0
  9
$ORTHOMODE
 70
     0
  9
$REGENMODE
 70
     1
  9
$FILLMODE
 70
     1
  9
$QTEXTMODE
 70
     0
  9
$MIRRTEXT
 70
     1
  9
$DRAGMODE
 70
     2
  9
$LTSCALE
 40
1.0
  9
$OSMODE
 70
    37
  9
$ATTMODE
 70
     1
  9
$TEXTSIZE
 40
0.2
  9
$TRACEWID
 40
0.05
  9
$TEXTSTYLE
  7
STANDARD
  9
$CLAYER
  8
0
  9
$CELTYPE
  6
BYLAYER
  9
$CECOLOR
 62
   256
  9
$DIMSCALE
 40
1.0
  9
$DIMASZ
 40
3.0
  9
$DIMEXO
 40
0.0625
  9
$DIMDLI
 40
0.38
  9
$DIMRND
 40
0.0
  9
$DIMDLE
 40
0.0
  9
$DIMEXE
 40
1.5
  9
$DIMTP
 40
0.0
  9
$DIMTM
 40
0.0
  9
$DIMTXT
 40
3.0
  9
$DIMCEN
 40
0.09
  9
$DIMTSZ
 40
0.0
  9
$DIMTOL
 70
     0
  9
$DIMLIM
 70
     0
  9
$DIMTIH
 70
     1
  9
$DIMTOH
 70
     1
  9
$DIMSE1
 70
     0
  9
$DIMSE2
 70
     0
  9
$DIMTAD
 70
     1
  9
$DIMZIN
 70
     0
  9
$DIMBLK
  1

  9
$DIMASO
 70
     1
  9
$DIMSHO
 70
     1
  9
$DIMPOST
  1

  9
$DIMAPOST
  1

  9
$DIMALT
 70
     0
  9
$DIMALTD
 70
     2
  9
$DIMALTF
 40
25.4
  9
$DIMLFAC
 40
1.0
  9
$DIMTOFL
 70
     0
  9
$DIMTVP
 40
0.0
  9
$DIMTIX
 70
     0
  9
$DIMSOXD
 70
     0
  9
$DIMSAH
 70
     0
  9
$DIMBLK1
  1

  9
$DIMBLK2
  1

  9
$LUNITS
 70
     2
  9
$LUPREC
 70
     4
  9
$SKETCHINC
 40
0.1
  9
$FILLETRAD
 40
0.5
  9
$AUNITS
 70
     0
  9
$AUPREC
 70
     0
  9
$MENU
  1
.
  9
$ELEVATION
 40
0.0
  9
$THICKNESS
 40
0.0
  9
$LIMCHECK
 70
     0
  9
$CHAMFERA
 40
0.0
  9
$CHAMFERB
 40
0.0
  9
$SKPOLY
 70
     0
  9
$TDCREATE
 40
2460614.542719201
  9
$TDUPDATE
 40
2460614.542719375
  9
$TDINDWG
 40
0.0000000116
  9
$TDUSRTIMER
 40
0.0000000116
  9
$USRTIMER
 70
     1
  9
$ANGBASE
 50
0.0
  9
$ANGDIR
 70
     0
  9
$PDMODE
 70
     0
  9
$PDSIZE
 40
0.0
  9
$PLINEWID
 40
0.0
  9
$COORDS
 70
     1
  9
$SPLFRAME
 70
     0
  9
$SPLINETYPE
 70
     6
  9
$SPLINESEGS
 70
     8
  9
$ATTDIA
 70
     0
  9
$ATTREQ
 70
     1
  9
$HANDLING
 70
     1
  9
$HANDSEED
  5
13F
  9
$SURFTAB1
 70
     6
  9
$SURFTAB2
 70
     6
  9
$SURFTYPE
 70
     6
  9
$SURFU
 70
     6
  9
$SURFV
 70
     6
  9
$UCSNAME
  2

  9
$UCSORG
 10
0.0
 20
0.0
 30
0.0
  9
$UCSXDIR
 10
1.0
 20
0.0
 30
0.0
  9
$UCSYDIR
 10
0.0
 20
1.0
 30
0.0
  9
$USERI1
 70
     0
  9
$USERI2
 70
     0
  9
$USERI3
 70
     0
  9
$USERI4
 70
     0
  9
$USERI5
 70
     0
  9
$USERR1
 40
0.0
  9
$USERR2
 40
0.0
  9
$USERR3
 40
0.0
  9
$USERR4
 40
0.0
  9
$USERR5
 40
0.0
  9
$WORLDVIEW
 70
     1
  0
ENDSEC
  0
SECTION
  2
TABLES
  0
TABLE
  2
VPORT
 70
     1
  0
VPORT
  2
*ACTIVE
 70
     0
 10
0.0
 20
0.0
 11
1.0
 21
1.0
 12
105.0
 22
177.1534090909091
 13
0.0
 23
0.0
 14
0.5
 24
0.5
 15
0.5
 25
0.5
 16
0.0
 26
0.0
 36
1.0
 17
0.0
 27
0.0
 37
0.0
 40
169.6931818181818
 41
1.6
 42
50.0
 43
0.0
 44
0.0
 50
0.0
 51
0.0
 71
     0
 72
   100
 73
     1
 74
     3
 75
     0
 76
     0
 77
     0
 78
     0
  0
ENDTAB
  0
TABLE
  2
LTYPE
 70
     3
  0
LTYPE
  2
CONTINUOUS
 70
     0
  3
Solid line
 72
    65
 73
     0
 40
0.0
  0
LTYPE
  2
CENTER
 70
     0
  3

 72
    65
 73
     0
 40
0.0
  0
LTYPE
  2
DOT
 70
     0
  3

 72
    65
 73
     0
 40
0.0
  0
ENDTAB
  0
TABLE
  2
LAYER
 70
     1
  0
LAYER
  2
0
 70
     0
 62
     7
  6
CONTINUOUS
  0
ENDTAB
  0
TABLE
  2
STYLE
 70
     2
  0
STYLE
  2
STANDARD
 70
     0
 40
0.0
 41
1.0
 50
0.0
 71
     0
 42
0.2
  3
txt
  4

  0
STYLE
  2
ＭＳ_ゴシック
 70
     0
 40
0.0
 41
1.0
 50
0.0
 71
     0
 42
0.2
  3
ＭＳ ゴシック.shx
  4

  0
ENDTAB
  0
TABLE
  2
VIEW
 70
     0
  0
ENDTAB
  0
TABLE
  2
UCS
 70
     0
  0
ENDTAB
  0
ENDSEC
  0
SECTION
  2
BLOCKS
  0
BLOCK
  8
0
  2
D_FRAME_VIEW_2248
 70
     0
 10
0.0
 20
0.0
 30
0.0
  0
LINE
  5
74
  8
0
  6
CONTINUOUS
 62
     7
 10
147.1500523967166
 20
103.4318060866481
 30
0.0
 11
63.06081489038259
 21
103.4318060866481
 31
0.0
  0
LINE
  5
75
  8
0
  6
CONTINUOUS
 62
     9
 10
60.69341675168033
 20
106.4318060866481
 30
0.0
 11
150.1500523967167
 21
106.4318060866481
 31
0.0
  0
POLYLINE
  5
76
  8
0
  6
CONTINUOUS
 62
     9
 66
     1
 10
0.0
 20
0.0
 30
0.0
  0
VERTEX
  5
BF
  8
0
  6
CONTINUOUS
 62
     9
 10
60.69341675168032
 20
106.4318060866481
 30
0.0
  0
VERTEX
  5
C0
  8
0
  6
CONTINUOUS
 62
     9
 10
60.7389056430894
 20
105.8465351205997
 30
0.0
  0
VERTEX
  5
C1
  8
0
  6
CONTINUOUS
 62
     9
 10
60.87362420473023
 20
105.2837557895528
 30
0.0
  0
VERTEX
  5
C2
  8
0
  6
CONTINUOUS
 62
     9
 10
61.09239527783003
 20
104.7650953875893
 30
0.0
  0
VERTEX
  5
C3
  8
0
  6
CONTINUOUS
 62
     9
 10
61.38681161273778
 20
104.3104857430884
 30
0.0
  0
VERTEX
  5
C4
  8
0
  6
CONTINUOUS
 62
     9
 10
61.74555895481356
 20
103.9373972497404
 30
0.0
  0
VERTEX
  5
C5
  8
0
  6
CONTINUOUS
 62
     9
 10
62.15485084488923
 20
103.6601674891142
 30
0.0
  0
VERTEX
  5
C6
  8
0
  6
CONTINUOUS
 62
     9
 10
62.59895842516271
 20
103.4894502454384
 30
0.0
  0
VERTEX
  5
C7
  8
0
  6
CONTINUOUS
 62
     9
 10
63.06081489038251
 20
103.4318060866481
 30
0.0
  0
SEQEND
  5
139
  8
0
  6
CONTINUOUS
 62
     9
  0
LINE
  5
77
  8
0
  6
CONTINUOUS
 62
     7
 10
150.1500523967167
 20
107.4318060866481
 30
0.0
 11
60.69341675168035
 21
107.4318060866481
 31
0.0
  0
LINE
  5
78
  8
0
  6
CONTINUOUS
 62
     9
 10
60.69341675168032
 20
107.4318060866481
 30
0.0
 11
60.69341675168034
 21
106.4318060866481
 31
0.0
  0
LINE
  5
79
  8
0
  6
CONTINUOUS
 62
     9
 10
147.1500523967168
 20
141.4318060866481
 30
0.0
 11
63.06081489038257
 21
141.4318060866481
 31
0.0
  0
LINE
  5
7A
  8
0
  6
CONTINUOUS
 62
     9
 10
63.06081489038251
 20
141.4318060866481
 30
0.0
 11
63.06081489038252
 21
107.4318060866481
 31
0.0
  0
CIRCLE
  5
7B
  8
0
  6
CONTINUOUS
 62
     9
 10
100.1406064485726
 20
122.441033968241
 30
0.0
 40
1.778597788454024
  0
ARC
  5
7C
  8
0
  6
CONTINUOUS
 62
     9
 10
65.17864560136283
 20
141.3139035581757
 30
0.0
 40
2.121110069419213
 50
86.84864829206676
 51
176.8135548941109
  0
LINE
  5
7D
  8
0
  6
CONTINUOUS
 62
     7
 10
65.29525094635933
 20
143.4318060866481
 30
0.0
 11
145.1500523967169
 21
143.4318060866481
 31
0.0
  0
CIRCLE
  5
7E
  8
0
  6
CONTINUOUS
 62
     9
 10
100.1541610378493
 20
122.427540192423
 30
0.0
 40
1.276734482030312
  0
CIRCLE
  5
7F
  8
0
  6
CONTINUOUS
 62
     7
 10
100.1500523967168
 20
122.4318060866481
 30
0.0
 40
1.000000000000001
  0
LINE
  5
80
  8
0
  6
CONTINUOUS
 62
     7
 10
59.84994760328325
 20
107.4318060866481
 30
0.0
 11
60.69341675168033
 21
107.4318060866481
 31
0.0
  0
LINE
  5
81
  8
0
  6
CONTINUOUS
 62
     9
 10
59.84994760328325
 20
106.4318060866481
 30
0.0
 11
60.69341675168033
 21
106.4318060866481
 31
0.0
  0
LINE
  5
82
  8
0
  6
CONTINUOUS
 62
     7
 10
63.06081489038251
 20
103.4318060866481
 30
0.0
 11
62.84994760328325
 21
103.4318060866481
 31
0.0
  0
LINE
  5
83
  8
0
  6
CONTINUOUS
 62
     9
 10
63.06081489038252
 20
141.4318060866481
 30
0.0
 11
62.84994770942462
 21
141.4318060866481
 31
0.0
  0
ARC
  5
84
  8
0
  6
CONTINUOUS
 62
     7
 10
147.1500523967167
 20
106.4318060866481
 30
0.0
 40
3.000000000000003
 50
269.9999999999989
 51
359.9999999999998
  0
LINE
  5
85
  8
0
  6
CONTINUOUS
 62
     7
 10
150.1500523967167
 20
106.4318060866481
 30
0.0
 11
150.1500523967167
 21
107.4318060866481
 31
0.0
  0
LINE
  5
86
  8
0
  6
CONTINUOUS
 62
     7
 10
147.1500523967169
 20
107.4318060866482
 30
0.0
 11
147.1500523967169
 21
141.4318060866482
 31
0.0
  0
ARC
  5
87
  8
0
  6
CONTINUOUS
 62
     7
 10
145.1500523967169
 20
141.4318060866481
 30
0.0
 40
2.000000000000002
 50
0.0
 51
90.0
  0
LINE
  5
88
  8
0
  6
CONTINUOUS
 62
     7
 10
59.84994760328324
 20
107.4318060866481
 30
0.0
 11
59.84994760328324
 21
106.4318060866481
 31
0.0
  0
ARC
  5
89
  8
0
  6
CONTINUOUS
 62
     7
 10
62.84994760328325
 20
106.4318060866481
 30
0.0
 40
3.000000000000003
 50
180.0000000000001
 51
270.0000000000001
  0
LINE
  5
8A
  8
0
  6
CONTINUOUS
 62
     7
 10
65.29525094635933
 20
143.4318060866481
 30
0.0
 11
65.19570768208582
 21
143.4302098593185
 31
0.0
  0
ARC
  5
8B
  8
0
  6
CONTINUOUS
 62
     7
 10
65.07086717454557
 20
141.2008015992917
 30
0.0
 40
2.232900880513671
 50
86.79494688243938
 51
174.0618472544083
  0
LINE
  5
8C
  8
0
  6
CONTINUOUS
 62
     7
 10
62.84994760328323
 20
141.4318060866482
 30
0.0
 11
62.84994760328323
 21
107.4318060866482
 31
0.0
  0
ENDBLK
  8
0
  0
BLOCK
  8
0
  2
D_FRAME_VIEW_1492
 70
     0
 10
0.0
 20
0.0
 30
0.0
  0
ARC
  5
92
  8
0
  6
CONTINUOUS
 62
     7
 10
63.84994760328326
 20
181.7457544431683
 30
0.0
 40
0.9999999999999939
 50
125.0000000000019
 51
217.8954641189014
  0
ARC
  5
93
  8
0
  6
CONTINUOUS
 62
     7
 10
100.1500523967168
 20
209.9999999999999
 30
0.0
 40
47.00000000000001
 50
217.8954641189017
 51
270.0
  0
ARC
  5
94
  8
0
  6
CONTINUOUS
 62
     7
 10
100.1500523967168
 20
209.9999999999999
 30
0.0
 40
47.00000000000002
 50
270.0
 51
142.1045358810983
  0
ARC
  5
95
  8
0
  6
CONTINUOUS
 62
     7
 10
63.84994760328328
 20
238.2542455568316
 30
0.0
 40
1.000000000000011
 50
142.1045358810985
 51
235.0
  0
LINE
  5
96
  8
0
  6
CONTINUOUS
 62
     7
 10
63.27637116693219
 20
182.5649064874573
 30
0.0
 11
88.5915110148231
 21
200.2907582397835
 31
0.0
  0
LINE
  5
97
  8
0
  6
CONTINUOUS
 62
     7
 10
88.59151101482311
 20
219.7092417602164
 30
0.0
 11
63.27637116693223
 21
237.4350935125426
 31
0.0
  0
ARC
  5
98
  8
0
  6
CONTINUOUS
 62
     7
 10
100.1500523967168
 20
210.0
 30
0.0
 40
43.00000000000004
 50
223.6593021426388
 51
136.3406978573613
  0
POLYLINE
  5
99
  8
0
  6
CONTINUOUS
 62
     7
 66
     1
 10
0.0
 20
0.0
 30
0.0
  0
VERTEX
  5
CA
  8
0
  6
CONTINUOUS
 62
     7
 10
90.886466223969
 20
197.0146048220353
 30
0.0
  0
VERTEX
  5
CB
  8
0
  6
CONTINUOUS
 62
     7
 10
92.3439041485947
 20
198.2593648082751
 30
0.0
  0
VERTEX
  5
CC
  8
0
  6
CONTINUOUS
 62
     7
 10
93.53703053618652
 20
199.7593162638009
 30
0.0
  0
VERTEX
  5
CD
  8
0
  6
CONTINUOUS
 62
     7
 10
94.42201764073208
 20
201.4593606742329
 30
0.0
  0
VERTEX
  5
CE
  8
0
  6
CONTINUOUS
 62
     7
 10
94.96635676034899
 20
203.297049404284
 30
0.0
  0
VERTEX
  5
CF
  8
0
  6
CONTINUOUS
 62
     7
 10
95.1500523967168
 20
205.2048776566852
 30
0.0
  0
SEQEND
  5
13A
  8
0
  6
CONTINUOUS
 62
     7
  0
LINE
  5
9A
  8
0
  6
CONTINUOUS
 62
     7
 10
69.1912295108863
 20
181.8234365322908
 30
0.0
 11
90.88646622396898
 21
197.0146048220353
 31
0.0
  0
POLYLINE
  5
9B
  8
0
  6
CONTINUOUS
 62
     7
 66
     1
 10
0.0
 20
0.0
 30
0.0
  0
VERTEX
  5
D0
  8
0
  6
CONTINUOUS
 62
     7
 10
69.04137106959875
 20
180.3141456904501
 30
0.0
  0
VERTEX
  5
D1
  8
0
  6
CONTINUOUS
 62
     7
 10
69.0090621037528
 20
180.3497097271814
 30
0.0
  0
VERTEX
  5
D2
  8
0
  6
CONTINUOUS
 62
     7
 10
68.97842731016273
 20
180.3869054758671
 30
0.0
  0
VERTEX
  5
D3
  8
0
  6
CONTINUOUS
 62
     7
 10
68.94955999289975
 20
180.4255947913687
 30
0.0
  0
VERTEX
  5
D4
  8
0
  6
CONTINUOUS
 62
     7
 10
68.92255345603503
 20
180.4656395285479
 30
0.0
  0
VERTEX
  5
D5
  8
0
  6
CONTINUOUS
 62
     7
 10
68.89750100363976
 20
180.5069015422663
 30
0.0
  0
VERTEX
  5
D6
  8
0
  6
CONTINUOUS
 62
     7
 10
68.8744959397851
 20
180.5492426873854
 30
0.0
  0
VERTEX
  5
D7
  8
0
  6
CONTINUOUS
 62
     7
 10
68.85363156854226
 20
180.5925248187667
 30
0.0
  0
VERTEX
  5
D8
  8
0
  6
CONTINUOUS
 62
     7
 10
68.83491468874145
 20
180.6367785958826
 30
0.0
  0
VERTEX
  5
D9
  8
0
  6
CONTINUOUS
 62
     7
 10
68.81831847872974
 20
180.6820183632313
 30
0.0
  0
VERTEX
  5
DA
  8
0
  6
CONTINUOUS
 62
     7
 10
68.80388524130956
 20
180.7280827649971
 30
0.0
  0
VERTEX
  5
DB
  8
0
  6
CONTINUOUS
 62
     7
 10
68.79165727928334
 20
180.7748104453639
 30
0.0
  0
VERTEX
  5
DC
  8
0
  6
CONTINUOUS
 62
     7
 10
68.78167689545353
 20
180.8220400485158
 30
0.0
  0
VERTEX
  5
DD
  8
0
  6
CONTINUOUS
 62
     7
 10
68.77398639262256
 20
180.8696102186371
 30
0.0
  0
VERTEX
  5
DE
  8
0
  6
CONTINUOUS
 62
     7
 10
68.76862807359288
 20
180.9173595999116
 30
0.0
  0
VERTEX
  5
DF
  8
0
  6
CONTINUOUS
 62
     7
 10
68.76561886820222
 20
180.9653037919743
 30
0.0
  0
VERTEX
  5
E0
  8
0
  6
CONTINUOUS
 62
     7
 10
68.76493662222941
 20
181.0134761726099
 30
0.0
  0
VERTEX
  5
E1
  8
0
  6
CONTINUOUS
 62
     7
 10
68.76656776656779
 20
181.0617105536954
 30
0.0
  0
VERTEX
  5
E2
  8
0
  6
CONTINUOUS
 62
     7
 10
68.77049873211074
 20
181.1098407471078
 30
0.0
  0
VERTEX
  5
E3
  8
0
  6
CONTINUOUS
 62
     7
 10
68.77671594975159
 20
181.1577005647242
 30
0.0
  0
VERTEX
  5
E4
  8
0
  6
CONTINUOUS
 62
     7
 10
68.78520585038376
 20
181.2051238184216
 30
0.0
  0
VERTEX
  5
E5
  8
0
  6
CONTINUOUS
 62
     7
 10
68.79595486490061
 20
181.251944320077
 30
0.0
  0
VERTEX
  5
E6
  8
0
  6
CONTINUOUS
 62
     7
 10
68.80898523668554
 20
181.2981751184964
 30
0.0
  0
VERTEX
  5
E7
  8
0
  6
CONTINUOUS
 62
     7
 10
68.8242862092297
 20
181.3438510338471
 30
0.0
  0
VERTEX
  5
E8
  8
0
  6
CONTINUOUS
 62
     7
 10
68.84178994156164
 20
181.3888198618767
 30
0.0
  0
VERTEX
  5
E9
  8
0
  6
CONTINUOUS
 62
     7
 10
68.86142859271
 20
181.4329293983328
 30
0.0
  0
VERTEX
  5
EA
  8
0
  6
CONTINUOUS
 62
     7
 10
68.88313432170331
 20
181.4760274389631
 30
0.0
  0
VERTEX
  5
EB
  8
0
  6
CONTINUOUS
 62
     7
 10
68.90683928757024
 20
181.5179617795154
 30
0.0
  0
VERTEX
  5
EC
  8
0
  6
CONTINUOUS
 62
     7
 10
68.93247564933934
 20
181.5585802157373
 30
0.0
  0
VERTEX
  5
ED
  8
0
  6
CONTINUOUS
 62
     7
 10
68.95908985319606
 20
181.596551156198
 30
0.0
  0
VERTEX
  5
EE
  8
0
  6
CONTINUOUS
 62
     7
 10
68.98755100568759
 20
181.6333468635053
 30
0.0
  0
VERTEX
  5
EF
  8
0
  6
CONTINUOUS
 62
     7
 10
69.01775420804465
 20
181.6688601112514
 30
0.0
  0
VERTEX
  5
F0
  8
0
  6
CONTINUOUS
 62
     7
 10
69.04959456149788
 20
181.7029836730286
 30
0.0
  0
VERTEX
  5
F1
  8
0
  6
CONTINUOUS
 62
     7
 10
69.08296716727797
 20
181.7356103224289
 30
0.0
  0
VERTEX
  5
F2
  8
0
  6
CONTINUOUS
 62
     7
 10
69.11776712661563
 20
181.7666328330446
 30
0.0
  0
VERTEX
  5
F3
  8
0
  6
CONTINUOUS
 62
     7
 10
69.1538895407415
 20
181.7959439784678
 30
0.0
  0
VERTEX
  5
F4
  8
0
  6
CONTINUOUS
 62
     7
 10
69.1912295108863
 20
181.8234365322908
 30
0.0
  0
SEQEND
  5
13B
  8
0
  6
CONTINUOUS
 62
     7
  0
POLYLINE
  5
9C
  8
0
  6
CONTINUOUS
 62
     7
 66
     1
 10
0.0
 20
0.0
 30
0.0
  0
VERTEX
  5
F5
  8
0
  6
CONTINUOUS
 62
     7
 10
69.19122951088629
 20
238.1765634677093
 30
0.0
  0
VERTEX
  5
F6
  8
0
  6
CONTINUOUS
 62
     7
 10
69.15255796426455
 20
238.2050798045059
 30
0.0
  0
VERTEX
  5
F7
  8
0
  6
CONTINUOUS
 62
     7
 10
69.11520703792192
 20
238.2355252080949
 30
0.0
  0
VERTEX
  5
F8
  8
0
  6
CONTINUOUS
 62
     7
 10
69.07929537941423
 20
238.2677825781502
 30
0.0
  0
VERTEX
  5
F9
  8
0
  6
CONTINUOUS
 62
     7
 10
69.04494163629732
 20
238.3017348143461
 30
0.0
  0
VERTEX
  5
FA
  8
0
  6
CONTINUOUS
 62
     7
 10
69.012264456127
 20
238.3372648163564
 30
0.0
  0
VERTEX
  5
FB
  8
0
  6
CONTINUOUS
 62
     7
 10
68.98138248645913
 20
238.3742554838551
 30
0.0
  0
VERTEX
  5
FC
  8
0
  6
CONTINUOUS
 62
     7
 10
68.95241437484951
 20
238.4125897165163
 30
0.0
  0
VERTEX
  5
FD
  8
0
  6
CONTINUOUS
 62
     7
 10
68.92536075842179
 20
238.4522989121387
 30
0.0
  0
VERTEX
  5
FE
  8
0
  6
CONTINUOUS
 62
     7
 10
68.90019251847406
 20
238.4933918608623
 30
0.0
  0
VERTEX
  5
FF
  8
0
  6
CONTINUOUS
 62
     7
 10
68.87698286128962
 20
238.5357186758409
 30
0.0
  0
VERTEX
  5
100
  8
0
  6
CONTINUOUS
 62
     7
 10
68.85580499315184
 20
238.5791294702279
 30
0.0
  0
VERTEX
  5
101
  8
0
  6
CONTINUOUS
 62
     7
 10
68.83673212034398
 20
238.6234743571769
 30
0.0
  0
VERTEX
  5
102
  8
0
  6
CONTINUOUS
 62
     7
 10
68.8198374491494
 20
238.6686034498416
 30
0.0
  0
VERTEX
  5
103
  8
0
  6
CONTINUOUS
 62
     7
 10
68.80519418585143
 20
238.7143668613753
 30
0.0
  0
VERTEX
  5
104
  8
0
  6
CONTINUOUS
 62
     7
 10
68.79281586220608
 20
238.7607832158639
 30
0.0
  0
VERTEX
  5
105
  8
0
  6
CONTINUOUS
 62
     7
 10
68.78267419301866
 20
238.807880883028
 30
0.0
  0
VERTEX
  5
106
  8
0
  6
CONTINUOUS
 62
     7
 10
68.77478855378581
 20
238.8554942512655
 30
0.0
  0
VERTEX
  5
107
  8
0
  6
CONTINUOUS
 62
     7
 10
68.76917832000413
 20
238.9034577089746
 30
0.0
  0
VERTEX
  5
108
  8
0
  6
CONTINUOUS
 62
     7
 10
68.76586286717028
 20
238.9516056445535
 30
0.0
  0
VERTEX
  5
109
  8
0
  6
CONTINUOUS
 62
     7
 10
68.76486157078092
 20
238.9997724464003
 30
0.0
  0
VERTEX
  5
10A
  8
0
  6
CONTINUOUS
 62
     7
 10
68.76619380633264
 20
239.047792502913
 30
0.0
  0
VERTEX
  5
10B
  8
0
  6
CONTINUOUS
 62
     7
 10
68.76987881696745
 20
239.0956829822055
 30
0.0
  0
VERTEX
  5
10C
  8
0
  6
CONTINUOUS
 62
     7
 10
68.77589920906435
 20
239.1434759093156
 30
0.0
  0
VERTEX
  5
10D
  8
0
  6
CONTINUOUS
 62
     7
 10
68.78421839607712
 20
239.1910087113173
 30
0.0
  0
VERTEX
  5
10E
  8
0
  6
CONTINUOUS
 62
     7
 10
68.79479979145941
 20
239.2381188152849
 30
0.0
  0
VERTEX
  5
10F
  8
0
  6
CONTINUOUS
 62
     7
 10
68.80760680866499
 20
239.2846436482927
 30
0.0
  0
VERTEX
  5
110
  8
0
  6
CONTINUOUS
 62
     7
 10
68.82260286114754
 20
239.3304206374148
 30
0.0
  0
VERTEX
  5
111
  8
0
  6
CONTINUOUS
 62
     7
 10
68.83975136236084
 20
239.3752872097254
 30
0.0
  0
VERTEX
  5
112
  8
0
  6
CONTINUOUS
 62
     7
 10
68.85837922410784
 20
239.4177502635715
 30
0.0
  0
VERTEX
  5
113
  8
0
  6
CONTINUOUS
 62
     7
 10
68.87904907419227
 20
239.4594242192737
 30
0.0
  0
VERTEX
  5
114
  8
0
  6
CONTINUOUS
 62
     7
 10
68.90167914725367
 20
239.5001833164227
 30
0.0
  0
VERTEX
  5
115
  8
0
  6
CONTINUOUS
 62
     7
 10
68.92618767793158
 20
239.5399017946093
 30
0.0
  0
VERTEX
  5
116
  8
0
  6
CONTINUOUS
 62
     7
 10
68.95249290086551
 20
239.5784538934245
 30
0.0
  0
VERTEX
  5
117
  8
0
  6
CONTINUOUS
 62
     7
 10
68.980513050695
 20
239.615713852459
 30
0.0
  0
VERTEX
  5
118
  8
0
  6
CONTINUOUS
 62
     7
 10
69.01016636205956
 20
239.6515559113039
 30
0.0
  0
VERTEX
  5
119
  8
0
  6
CONTINUOUS
 62
     7
 10
69.04137106959875
 20
239.6858543095499
 30
0.0
  0
SEQEND
  5
13C
  8
0
  6
CONTINUOUS
 62
     7
  0
LINE
  5
9D
  8
0
  6
CONTINUOUS
 62
     7
 10
90.88646622396898
 20
222.9853951779647
 30
0.0
 11
69.19122951088629
 21
238.1765634677093
 31
0.0
  0
POLYLINE
  5
9E
  8
0
  6
CONTINUOUS
 62
     7
 66
     1
 10
0.0
 20
0.0
 30
0.0
  0
VERTEX
  5
11A
  8
0
  6
CONTINUOUS
 62
     7
 10
95.15005239671679
 20
214.7951223433148
 30
0.0
  0
VERTEX
  5
11B
  8
0
  6
CONTINUOUS
 62
     7
 10
94.96635676034897
 20
216.7029505957161
 30
0.0
  0
VERTEX
  5
11C
  8
0
  6
CONTINUOUS
 62
     7
 10
94.42201764073207
 20
218.5406393257671
 30
0.0
  0
VERTEX
  5
11D
  8
0
  6
CONTINUOUS
 62
     7
 10
93.5370305361865
 20
220.2406837361991
 30
0.0
  0
VERTEX
  5
11E
  8
0
  6
CONTINUOUS
 62
     7
 10
92.34390414859469
 20
221.7406351917249
 30
0.0
  0
VERTEX
  5
11F
  8
0
  6
CONTINUOUS
 62
     7
 10
90.88646622396897
 20
222.9853951779648
 30
0.0
  0
SEQEND
  5
13D
  8
0
  6
CONTINUOUS
 62
     7
  0
LINE
  5
9F
  8
0
  6
CONTINUOUS
 62
     7
 10
95.1500523967168
 20
205.2048776566852
 30
0.0
 11
95.1500523967168
 21
214.7951223433148
 31
0.0
  0
LINE
  5
A0
  8
0
  6
CONTINUOUS
 62
     7
 10
91.15005239671683
 20
205.2056705055174
 30
0.0
 11
91.15005239671683
 21
214.7943294944825
 31
0.0
  0
ARC
  5
A1
  8
0
  6
CONTINUOUS
 62
     7
 10
85.15005239671683
 20
205.2056705055174
 30
0.0
 40
6.0
 50
305.0
 51
0.0
  0
ARC
  5
A2
  8
0
  6
CONTINUOUS
 62
     7
 10
85.15005239671683
 20
214.7943294944825
 30
0.0
 40
6.000000000000005
 50
0.0
 51
54.99999999999999
  0
LINE
  5
A3
  8
0
  6
DOT
 62
     9
 10
101.1500523967168
 20
165.0
 30
0.0
 11
99.15005239671679
 21
165.0
 31
0.0
  0
LINE
  5
A5
  8
0
  6
DOT
 62
     9
 10
101.1500523967168
 20
255.0
 30
0.0
 11
99.15005239671679
 21
255.0
 31
0.0
  0
ARC
  5
A6
  8
0
  6
CONTINUOUS
 62
     7
 10
63.84994760328325
 20
181.7457544431684
 30
0.0
 40
4.000000000000008
 50
125.0000000000001
 51
217.8954641189017
  0
LINE
  5
A7
  8
0
  6
CONTINUOUS
 62
     7
 10
61.55564185787905
 20
185.0223626203243
 30
0.0
 11
85.59151101482303
 21
201.8524593914387
 31
0.0
  0
ARC
  5
A8
  8
0
  6
CONTINUOUS
 62
     7
 10
82.15005239671677
 20
206.7673716571727
 30
0.0
 40
6.000000000000005
 50
304.9999999999998
 51
0.0
  0
LINE
  5
A9
  8
0
  6
CONTINUOUS
 62
     7
 10
88.15005239671677
 20
206.7673716571727
 30
0.0
 11
88.15005239671677
 21
213.2326283428273
 31
0.0
  0
ARC
  5
AA
  8
0
  6
CONTINUOUS
 62
     7
 10
82.15005239671677
 20
213.2326283428273
 30
0.0
 40
6.000000000000008
 50
0.0
 51
55.00000000000001
  0
LINE
  5
AB
  8
0
  6
CONTINUOUS
 62
     7
 10
85.59151101482306
 20
218.1475406085612
 30
0.0
 11
61.55564185787911
 21
234.9776373796756
 31
0.0
  0
ARC
  5
AC
  8
0
  6
CONTINUOUS
 62
     7
 10
63.84994760328326
 20
238.2542455568316
 30
0.0
 40
4.000000000000005
 50
142.1045358810982
 51
235.0000000000005
  0
ARC
  5
AD
  8
0
  6
CONTINUOUS
 62
     7
 10
100.1500523967168
 20
210.0
 30
0.0
 40
49.99999999999995
 50
217.8954641189018
 51
142.1045358810982
  0
ARC
  5
AE
  8
0
  6
DOT
 62
     9
 10
101.9163389920005
 20
256.4664419948775
 30
0.0
 40
0.4999999999999952
 50
87.82311571777768
 51
169.9999999999998
  0
LINE
  5
AF
  8
0
  6
DOT
 62
     9
 10
98.36477961768195
 20
256.9660813897054
 30
0.0
 11
98.48176472789169
 21
256.9567451027934
 31
0.0
  0
POLYLINE
  5
B0
  8
0
  6
DOT
 62
     9
 66
     1
 10
0.0
 20
0.0
 30
0.0
  0
VERTEX
  5
120
  8
0
  6
DOT
 62
     9
 10
98.48176472789169
 20
256.9567451027934
 30
0.0
  0
VERTEX
  5
121
  8
0
  6
DOT
 62
     9
 10
98.49196865704742
 20
256.9545947467581
 30
0.0
  0
VERTEX
  5
122
  8
0
  6
DOT
 62
     9
 10
98.51682029659023
 20
256.9484145486801
 30
0.0
  0
VERTEX
  5
123
  8
0
  6
DOT
 62
     9
 10
98.54132293226847
 20
256.9409700078814
 30
0.0
  0
VERTEX
  5
124
  8
0
  6
DOT
 62
     9
 10
98.56541228534445
 20
256.9322806532571
 30
0.0
  0
VERTEX
  5
125
  8
0
  6
DOT
 62
     9
 10
98.58902516126446
 20
256.9223692791949
 30
0.0
  0
VERTEX
  5
126
  8
0
  6
DOT
 62
     9
 10
98.6120996154404
 20
256.9112618857799
 30
0.0
  0
VERTEX
  5
127
  8
0
  6
DOT
 62
     9
 10
98.6345751157523
 20
256.89898761059
 30
0.0
  0
VERTEX
  5
128
  8
0
  6
DOT
 62
     9
 10
98.65639270134542
 20
256.8855786522597
 30
0.0
  0
VERTEX
  5
129
  8
0
  6
DOT
 62
     9
 10
98.67749513730553
 20
256.8710701860148
 30
0.0
  0
VERTEX
  5
12A
  8
0
  6
DOT
 62
     9
 10
98.69782706480638
 20
256.8555002713985
 30
0.0
  0
VERTEX
  5
12B
  8
0
  6
DOT
 62
     9
 10
98.71733514633553
 20
256.8389097524309
 30
0.0
  0
VERTEX
  5
12C
  8
0
  6
DOT
 62
     9
 10
98.73596820561768
 20
256.8213421504637
 30
0.0
  0
VERTEX
  5
12D
  8
0
  6
DOT
 62
     9
 10
98.75367736186824
 20
256.802843550012
 30
0.0
  0
VERTEX
  5
12E
  8
0
  6
DOT
 62
     9
 10
98.77041615802496
 20
256.7834624778619
 30
0.0
  0
VERTEX
  5
12F
  8
0
  6
DOT
 62
     9
 10
98.7861406826214
 20
256.7632497757712
 30
0.0
  0
VERTEX
  5
130
  8
0
  6
DOT
 62
     9
 10
98.8008096849823
 20
256.7422584670975
 30
0.0
  0
VERTEX
  5
131
  8
0
  6
DOT
 62
     9
 10
98.81438468343873
 20
256.720543617703
 30
0.0
  0
VERTEX
  5
132
  8
0
  6
DOT
 62
     9
 10
98.82683006627914
 20
256.6981621915012
 30
0.0
  0
VERTEX
  5
133
  8
0
  6
DOT
 62
     9
 10
98.83811318517145
 20
256.6751729010251
 30
0.0
  0
VERTEX
  5
134
  8
0
  6
DOT
 62
     9
 10
98.84820444081116
 20
256.6516360534071
 30
0.0
  0
VERTEX
  5
135
  8
0
  6
DOT
 62
     9
 10
98.85707736057063
 20
256.627613392177
 30
0.0
  0
VERTEX
  5
136
  8
0
  6
DOT
 62
     9
 10
98.86470866794603
 20
256.6031679352906
 30
0.0
  0
VERTEX
  5
137
  8
0
  6
DOT
 62
     9
 10
98.87107834361963
 20
256.5783638098167
 30
0.0
  0
VERTEX
  5
138
  8
0
  6
DOT
 62
     9
 10
98.87616967797727
 20
256.553266083713
 30
0.0
  0
SEQEND
  5
13E
  8
0
  6
DOT
 62
     9
  0
ARC
  5
B1
  8
0
  6
DOT
 62
     9
 10
98.38376580143304
 20
163.5335580051224
 30
0.0
 40
0.5000000000000049
 50
267.8231157177775
 51
349.9999999999998
  0
ARC
  5
B2
  8
0
  6
DOT
 62
     9
 10
101.9163389920005
 20
163.5335580051224
 30
0.0
 40
0.500000000000001
 50
190.0000000000002
 51
272.1768842822223
  0
LINE
  5
B3
  8
0
  6
DOT
 62
     9
 10
101.4239340702894
 20
163.446739843941
 30
0.0
 11
101.1500523967168
 21
165.0
 31
0.0
  0
LINE
  5
B4
  8
0
  6
DOT
 62
     9
 10
99.15005239671679
 20
165.0
 30
0.0
 11
98.87617590949387
 21
163.4467692571918
 31
0.0
  0
LINE
  5
B5
  8
0
  6
DOT
 62
     9
 10
98.87617556375625
 20
256.5532327035835
 30
0.0
 11
99.15005239671679
 21
255.0
 31
0.0
  0
LINE
  5
B6
  8
0
  6
DOT
 62
     9
 10
101.1500523967168
 20
255.0
 30
0.0
 11
101.4239341401534
 21
256.5532605522773
 31
0.0
  0
ENDBLK
  8
0
  0
ENDSEC
  0
SECTION
  2
ENTITIES
  0
LINE
  5
6F
  8
0
  6
CENTER
 62
     1
 10
96.36200866011855
 20
122.441033968241
 30
0.0
 11
103.9192042370266
 21
122.441033968241
 31
0.0
  0
TEXT
  5
71
  8
0
  6
CONTINUOUS
 62
     7
 10
94.30018131799426
 20
91.97954545454544
 30
0.0
 40
3.0
  1
ＭＲＤ－ＴＣ
  0
LINE
  5
72
  8
0
  6
CENTER
 62
     1
 10
100.1406064485726
 20
118.662436179787
 30
0.0
 11
100.1406064485726
 21
126.219631756695
 31
0.0
  0
INSERT
  5
8D
  8
0
  6
CONTINUOUS
 62
     7
  2
D_FRAME_VIEW_2248
 10
0.0
 20
0.0
 30
0.0
  0
LINE
  5
8E
  8
0
  6
CENTER
 62
     1
 10
100.1500523967168
 20
158.0
 30
0.0
 11
100.1500523967168
 21
261.9999999999999
 31
0.0
  0
INSERT
  5
B7
  8
0
  6
CONTINUOUS
 62
     7
  2
D_FRAME_VIEW_1492
 10
0.0
 20
0.0
 30
0.0
  0
ENDSEC
  0
EOF
