  0
SECTION
  2
HEADER
  9
$ACADVER
  1
AC1006
  9
$DWGCODEPAGE
  3
ansi_932
  9
$INSBASE
 10
0.0
 20
0.0
 30
0.0
  9
$EXTMIN
 10
-2418.532590856762
 20
-428.9048939946096
  9
$EXTMAX
 10
-1164.166238902088
 20
2454.23150086532
  9
$LIMMIN
 10
0.0
 20
0.0
  9
$LIMMAX
 10
12.0
 20
9.0
  9
$ORTHOMODE
 70
     0
  9
$REGENMODE
 70
     1
  9
$FILLMODE
 70
     1
  9
$QTEXTMODE
 70
     0
  9
$MIRRTEXT
 70
     1
  9
$DRAGMODE
 70
     2
  9
$LTSCALE
 40
1.0
  9
$OSMODE
 70
    37
  9
$ATTMODE
 70
     1
  9
$TEXTSIZE
 40
0.2
  9
$TRACEWID
 40
0.05
  9
$TEXTSTYLE
  7
STANDARD
  9
$CLAYER
  8
0
  9
$CELTYPE
  6
BYLAYER
  9
$CECOLOR
 62
   256
  9
$DIMSCALE
 40
1.0
  9
$DIMASZ
 40
3.0
  9
$DIMEXO
 40
0.0625
  9
$DIMDLI
 40
0.38
  9
$DIMRND
 40
0.0
  9
$DIMDLE
 40
0.0
  9
$DIMEXE
 40
1.5
  9
$DIMTP
 40
0.0
  9
$DIMTM
 40
0.0
  9
$DIMTXT
 40
3.0
  9
$DIMCEN
 40
0.09
  9
$DIMTSZ
 40
0.0
  9
$DIMTOL
 70
     0
  9
$DIMLIM
 70
     0
  9
$DIMTIH
 70
     1
  9
$DIMTOH
 70
     1
  9
$DIMSE1
 70
     0
  9
$DIMSE2
 70
     0
  9
$DIMTAD
 70
     1
  9
$DIMZIN
 70
     0
  9
$DIMBLK
  1

  9
$DIMASO
 70
     1
  9
$DIMSHO
 70
     1
  9
$DIMPOST
  1

  9
$DIMAPOST
  1

  9
$DIMALT
 70
     0
  9
$DIMALTD
 70
     2
  9
$DIMALTF
 40
25.4
  9
$DIMLFAC
 40
1.0
  9
$DIMTOFL
 70
     0
  9
$DIMTVP
 40
0.0
  9
$DIMTIX
 70
     0
  9
$DIMSOXD
 70
     0
  9
$DIMSAH
 70
     0
  9
$DIMBLK1
  1

  9
$DIMBLK2
  1

  9
$LUNITS
 70
     2
  9
$LUPREC
 70
     4
  9
$SKETCHINC
 40
0.1
  9
$FILLETRAD
 40
0.5
  9
$AUNITS
 70
     0
  9
$AUPREC
 70
     0
  9
$MENU
  1
.
  9
$ELEVATION
 40
0.0
  9
$THICKNESS
 40
0.0
  9
$LIMCHECK
 70
     0
  9
$CHAMFERA
 40
0.0
  9
$CHAMFERB
 40
0.0
  9
$SKPOLY
 70
     0
  9
$TDCREATE
 40
2459695.602993519
  9
$TDUPDATE
 40
2459695.602994387
  9
$TDINDWG
 40
0.0000000116
  9
$TDUSRTIMER
 40
0.0000000116
  9
$USRTIMER
 70
     1
  9
$ANGBASE
 50
0.0
  9
$ANGDIR
 70
     0
  9
$PDMODE
 70
     0
  9
$PDSIZE
 40
0.0
  9
$PLINEWID
 40
0.0
  9
$COORDS
 70
     1
  9
$SPLFRAME
 70
     0
  9
$SPLINETYPE
 70
     6
  9
$SPLINESEGS
 70
     8
  9
$ATTDIA
 70
     0
  9
$ATTREQ
 70
     1
  9
$HANDLING
 70
     1
  9
$HANDSEED
  5
661
  9
$SURFTAB1
 70
     6
  9
$SURFTAB2
 70
     6
  9
$SURFTYPE
 70
     6
  9
$SURFU
 70
     6
  9
$SURFV
 70
     6
  9
$UCSNAME
  2

  9
$UCSORG
 10
0.0
 20
0.0
 30
0.0
  9
$UCSXDIR
 10
1.0
 20
0.0
 30
0.0
  9
$UCSYDIR
 10
0.0
 20
1.0
 30
0.0
  9
$USERI1
 70
     0
  9
$USERI2
 70
     0
  9
$USERI3
 70
     0
  9
$USERI4
 70
     0
  9
$USERI5
 70
     0
  9
$USERR1
 40
0.0
  9
$USERR2
 40
0.0
  9
$USERR3
 40
0.0
  9
$USERR4
 40
0.0
  9
$USERR5
 40
0.0
  9
$WORLDVIEW
 70
     1
  0
ENDSEC
  0
SECTION
  2
TABLES
  0
TABLE
  2
VPORT
 70
     1
  0
VPORT
  2
*ACTIVE
 70
     0
 10
0.0
 20
0.0
 11
1.0
 21
1.0
 12
-1791.349414879425
 22
1012.663303435355
 13
0.0
 23
0.0
 14
0.5
 24
0.5
 15
0.5
 25
0.5
 16
0.0
 26
0.0
 36
1.0
 17
0.0
 27
0.0
 37
0.0
 40
2883.136394859929
 41
1.6
 42
50.0
 43
0.0
 44
0.0
 50
0.0
 51
0.0
 71
     0
 72
   100
 73
     1
 74
     3
 75
     0
 76
     0
 77
     0
 78
     0
  0
ENDTAB
  0
TABLE
  2
LTYPE
 70
     1
  0
LTYPE
  2
CONTINUOUS
 70
     0
  3
Solid line
 72
    65
 73
     0
 40
0.0
  0
ENDTAB
  0
TABLE
  2
LAYER
 70
     1
  0
LAYER
  2
0
 70
     0
 62
     7
  6
CONTINUOUS
  0
ENDTAB
  0
TABLE
  2
STYLE
 70
     2
  0
STYLE
  2
STANDARD
 70
     0
 40
0.0
 41
1.0
 50
0.0
 71
     0
 42
0.2
  3
txt
  4

  0
STYLE
  2
ＭＳ_ゴシック
 70
     0
 40
0.0
 41
1.0
 50
0.0
 71
     0
 42
0.2
  3
ＭＳ ゴシック.shx
  4

  0
ENDTAB
  0
TABLE
  2
VIEW
 70
     0
  0
ENDTAB
  0
TABLE
  2
UCS
 70
     0
  0
ENDTAB
  0
ENDSEC
  0
SECTION
  2
BLOCKS
  0
ENDSEC
  0
SECTION
  2
ENTITIES
  0
ARC
  5
6F
  8
0
  6
CONTINUOUS
 62
     7
 10
-1917.638847641156
 20
2102.660179602998
 30
0.0
 40
1.672600913353956
 50
114.0024553017231
 51
145.1484520582046
  0
ARC
  5
70
  8
0
  6
CONTINUOUS
 62
     7
 10
-1906.849078244505
 20
2101.006356544936
 30
0.0
 40
12.2855401663473
 50
189.961235478238
 51
200.9921497020596
  0
ARC
  5
71
  8
0
  6
CONTINUOUS
 62
     7
 10
-1910.018387706385
 20
2100.4030992477
 30
0.0
 40
9.059771869431906
 50
167.1038040167108
 51
189.6707626561703
  0
ARC
  5
72
  8
0
  6
CONTINUOUS
 62
     7
 10
-1906.141095557875
 20
2099.563019762038
 30
0.0
 40
13.02683960054543
 50
159.2037346651592
 51
167.3081737632463
  0
LINE
  5
73
  8
0
  6
CONTINUOUS
 62
     7
 10
-1918.31922120064
 20
2096.605184230114
 30
0.0
 11
-1911.3237844436
 21
2096.605184230114
 31
0.0
  0
LINE
  5
74
  8
0
  6
CONTINUOUS
 62
     7
 10
-1918.31922120064
 20
2087.417036814986
 30
0.0
 11
-1911.3237844436
 21
2087.417036814986
 31
0.0
  0
LINE
  5
75
  8
0
  6
CONTINUOUS
 62
     7
 10
-1918.31922120064
 20
2104.188147415128
 30
0.0
 11
-1911.3237844436
 21
2104.188147415128
 31
0.0
  0
LINE
  5
76
  8
0
  6
CONTINUOUS
 62
     7
 10
-1918.31922120064
 20
2085.811852584874
 30
0.0
 11
-1911.3237844436
 21
2085.811852584874
 31
0.0
  0
ARC
  5
77
  8
0
  6
CONTINUOUS
 62
     7
 10
-1806.30136823308
 20
2089.561693994259
 30
0.0
 40
6.625283532745142
 50
0.3601087329715797
 51
19.05243115788739
  0
ARC
  5
78
  8
0
  6
CONTINUOUS
 62
     7
 10
-1809.867910889599
 20
2088.366129091907
 30
0.0
 40
10.38678022615949
 50
18.86396370080485
 51
28.95633770362889
  0
ARC
  5
79
  8
0
  6
CONTINUOUS
 62
     7
 10
-1813.108732706388
 20
2099.043856121982
 30
0.0
 40
13.56168616131245
 50
335.3834065060823
 51
345.9179159022344
  0
ARC
  5
7A
  8
0
  6
CONTINUOUS
 62
     7
 10
-1809.098764322046
 20
2098.01779814876
 30
0.0
 40
9.422593111520898
 50
346.0367974623105
 51
359.8242153262691
  0
ARC
  5
7B
  8
0
  6
CONTINUOUS
 62
     7
 10
-1918.502631614616
 20
2086.62382944602
 30
0.0
 40
0.5624971306265467
 50
116.9603735495119
 51
205.2361172857852
  0
ARC
  5
7C
  8
0
  6
CONTINUOUS
 62
     7
 10
-1916.971315898865
 20
2084.916842979983
 30
0.0
 40
2.840390451177365
 50
118.3300090871082
 51
128.9694236659628
  0
LINE
  5
7D
  8
0
  6
CONTINUOUS
 62
     7
 10
-1799.67621555677
 20
2097.988889477451
 30
0.0
 11
-1799.67621555677
 21
2089.60333417738
 31
0.0
  0
LINE
  5
7E
  8
0
  6
CONTINUOUS
 62
     7
 10
-1919.3237844436
 20
2086.925000000001
 30
0.0
 11
-1919.3237844436
 21
2103.075000000001
 31
0.0
  0
ARC
  5
7F
  8
0
  6
CONTINUOUS
 62
     7
 10
-1901.848327942724
 20
2092.628309202563
 30
0.0
 40
17.27563847188266
 50
187.8235013009735
 51
197.5569974534558
  0
ARC
  5
80
  8
0
  6
CONTINUOUS
 62
     7
 10
-1905.807465941706
 20
2092.019250603008
 30
0.0
 40
13.27060210711554
 50
169.0973415868942
 51
187.5451771594105
  0
ARC
  5
81
  8
0
  6
CONTINUOUS
 62
     7
 10
-1900.685199542233
 20
2091.090943815603
 30
0.0
 40
18.47608094803032
 50
162.6352940686504
 51
169.2749710840243
  0
ARC
  5
82
  8
0
  6
CONTINUOUS
 62
     7
 10
-1917.619968797643
 20
2087.362660928924
 30
0.0
 40
1.701164437400215
 50
215.1194910070369
 51
245.7296039920037
  0
ARC
  5
83
  8
0
  6
CONTINUOUS
 62
     7
 10
-1881.8451661725
 20
1460.022589097822
 30
0.0
 40
6.595166172315148
 50
337.1576471461054
 51
357.1710714587106
  0
ARC
  5
84
  8
0
  6
CONTINUOUS
 62
     7
 10
-1881.998040224382
 20
1460.086984445524
 30
0.0
 40
6.761049373828924
 50
314.8829955389103
 51
337.1576471461064
  0
ARC
  5
85
  8
0
  6
CONTINUOUS
 62
     7
 10
-1881.936965353666
 20
1460.025659620441
 30
0.0
 40
6.674499538447948
 50
292.1604321292027
 51
314.8829955389101
  0
ARC
  5
86
  8
0
  6
CONTINUOUS
 62
     7
 10
-1882.000000000185
 20
1460.180426740566
 30
0.0
 40
6.841610962753819
 50
270.0
 51
292.1604321292053
  0
ARC
  5
87
  8
0
  6
CONTINUOUS
 62
     7
 10
-1882.000000000185
 20
1460.180426740566
 30
0.0
 40
6.841610962753819
 50
247.8395678707946
 51
270.0
  0
ARC
  5
88
  8
0
  6
CONTINUOUS
 62
     7
 10
-1882.063034646704
 20
1460.025659620441
 30
0.0
 40
6.674499538447948
 50
225.1170044610899
 51
247.8395678707973
  0
ARC
  5
89
  8
0
  6
CONTINUOUS
 62
     7
 10
-1882.001959775988
 20
1460.086984445524
 30
0.0
 40
6.761049373828924
 50
202.8423528538936
 51
225.1170044610897
  0
ARC
  5
8A
  8
0
  6
CONTINUOUS
 62
     7
 10
-1882.15483382787
 20
1460.022589097822
 30
0.0
 40
6.595166172315148
 50
182.8289285413067
 51
202.8423528538946
  0
ARC
  5
8B
  8
0
  6
CONTINUOUS
 62
     7
 10
-1889.65491065587
 20
1996.351498234393
 30
0.0
 40
12.86042971176829
 50
103.5926910169393
 51
111.0948360109439
  0
ARC
  5
8C
  8
0
  6
CONTINUOUS
 62
     7
 10
-1889.366790062215
 20
1995.604615843176
 30
0.0
 40
13.66095877607384
 50
111.0948360109447
 51
121.1367491139401
  0
ARC
  5
8D
  8
0
  6
CONTINUOUS
 62
     7
 10
-1890.43982197523
 20
1997.380824384977
 30
0.0
 40
11.58579269348827
 50
121.1367491139332
 51
132.9832406779143
  0
ARC
  5
8E
  8
0
  6
CONTINUOUS
 62
     7
 10
-1889.732307893711
 20
1996.62166334162
 30
0.0
 40
12.62353142038305
 50
132.9832406779144
 51
143.5177266617598
  0
ARC
  5
8F
  8
0
  6
CONTINUOUS
 62
     7
 10
-1891.347981456008
 20
1997.816425493138
 30
0.0
 40
10.61408929416851
 50
143.5177266617577
 51
156.0539353398825
  0
ARC
  5
90
  8
0
  6
CONTINUOUS
 62
     7
 10
-1890.744359417666
 20
1997.548356217987
 30
0.0
 40
11.27455935514983
 50
156.0539353398816
 51
167.5801315382343
  0
ARC
  5
91
  8
0
  6
CONTINUOUS
 62
     7
 10
-1891.533857670863
 20
1997.722225697331
 30
0.0
 40
10.46614232932241
 50
167.5801315382291
 51
180.0
  0
ARC
  5
92
  8
0
  6
CONTINUOUS
 62
     7
 10
-1859.000000000185
 20
2095.0
 30
0.0
 40
46.80000000000017
 50
270.0
 51
299.8604859433115
  0
CIRCLE
  5
93
  8
0
  6
CONTINUOUS
 62
     7
 10
-1859.000000000185
 20
2095.0
 30
0.0
 40
92.50000000000024
  0
ARC
  5
94
  8
0
  6
CONTINUOUS
 62
     7
 10
-1882.15483382787
 20
1459.371589886058
 30
0.0
 40
6.595166172315148
 50
180.0
 51
202.8423528538945
  0
ARC
  5
95
  8
0
  6
CONTINUOUS
 62
     7
 10
-1882.001959775988
 20
1459.43598523376
 30
0.0
 40
6.761049373828924
 50
202.8423528538937
 51
225.1170044610896
  0
ARC
  5
96
  8
0
  6
CONTINUOUS
 62
     7
 10
-1882.063034646704
 20
1459.374660408676
 30
0.0
 40
6.674499538447948
 50
225.1170044610899
 51
247.8395678707973
  0
ARC
  5
97
  8
0
  6
CONTINUOUS
 62
     7
 10
-1882.000000000185
 20
1459.529427528801
 30
0.0
 40
6.841610962753819
 50
247.8395678707946
 51
270.0
  0
LINE
  5
98
  8
0
  6
CONTINUOUS
 62
     7
 10
-1919.01143412438
 20
2103.61600662265
 30
0.0
 11
-1919.3237844436
 21
2103.075000000001
 31
0.0
  0
LINE
  5
99
  8
0
  6
CONTINUOUS
 62
     7
 10
-1799.773565247571
 20
2086.383983156251
 30
0.0
 11
-1799.67621555677
 21
2086.500000000001
 31
0.0
  0
ARC
  5
9A
  8
0
  6
CONTINUOUS
 62
     7
 10
-1891.533857670868
 20
1999.482874783073
 30
0.0
 40
10.46614232931731
 50
167.5801315382244
 51
180.0
  0
ARC
  5
9B
  8
0
  6
CONTINUOUS
 62
     7
 10
-1890.744359417665
 20
1999.309005303729
 30
0.0
 40
11.27455935515073
 50
156.0539353398824
 51
167.5801315382353
  0
ARC
  5
9C
  8
0
  6
CONTINUOUS
 62
     7
 10
-1891.347981456008
 20
1999.57707457888
 30
0.0
 40
10.61408929416851
 50
143.5177266617577
 51
156.0539353398825
  0
ARC
  5
9D
  8
0
  6
CONTINUOUS
 62
     7
 10
-1889.732307893711
 20
1998.382312427363
 30
0.0
 40
12.62353142038305
 50
132.9832406779145
 51
143.5177266617599
  0
ARC
  5
9E
  8
0
  6
CONTINUOUS
 62
     7
 10
-1890.43982197523
 20
1999.141473470719
 30
0.0
 40
11.58579269348827
 50
121.1367491139332
 51
132.9832406779143
  0
ARC
  5
9F
  8
0
  6
CONTINUOUS
 62
     7
 10
-1889.366790062215
 20
1997.365264928919
 30
0.0
 40
13.66095877607327
 50
114.4548901617642
 51
121.1367491139395
  0
ARC
  5
A0
  8
0
  6
CONTINUOUS
 62
     7
 10
-1889.786729310709
 20
1454.292506846912
 30
0.0
 40
12.21327068947531
 50
180.0000000000011
 51
202.8423528538886
  0
ARC
  5
A1
  8
0
  6
CONTINUOUS
 62
     7
 10
-1889.503629214631
 20
1454.411757490808
 30
0.0
 40
12.52046180339164
 50
202.8423528539005
 51
225.1170044610891
  0
ARC
  5
A2
  8
0
  6
CONTINUOUS
 62
     7
 10
-1889.61673082707
 20
1454.29819299991
 30
0.0
 40
12.36018433046104
 50
225.1170044610891
 51
247.8395678707932
  0
ARC
  5
A3
  8
0
  6
CONTINUOUS
 62
     7
 10
-1889.500000000185
 20
1454.584798777916
 30
0.0
 40
12.66964993102393
 50
247.8395678707925
 51
270.0
  0
LINE
  5
A4
  8
0
  6
CONTINUOUS
 62
     7
 10
-1919.3237844436
 20
2086.925000000001
 30
0.0
 11
-1919.01143412438
 21
2086.383993377352
 31
0.0
  0
LINE
  5
A5
  8
0
  6
CONTINUOUS
 62
     7
 10
-1808.27621555677
 20
2100.0
 30
0.0
 11
-1808.446661831475
 21
2100.0
 31
0.0
  0
LINE
  5
A6
  8
0
  6
CONTINUOUS
 62
     7
 10
-1808.446661831475
 20
2090.000000000001
 30
0.0
 11
-1808.27621555677
 21
2090.000000000001
 31
0.0
  0
LINE
  5
A7
  8
0
  6
CONTINUOUS
 62
     7
 10
-1920.17621555677
 20
2090.000000000001
 30
0.0
 11
-1919.3238044436
 21
2090.000000000001
 31
0.0
  0
LINE
  5
A8
  8
0
  6
CONTINUOUS
 62
     7
 10
-1909.553338168896
 20
2100.0
 30
0.0
 11
-1909.7237844436
 21
2100.0
 31
0.0
  0
LINE
  5
A9
  8
0
  6
CONTINUOUS
 62
     7
 10
-1919.3238044436
 20
2100.0
 30
0.0
 11
-1920.17621555677
 21
2100.0
 31
0.0
  0
LINE
  5
AA
  8
0
  6
CONTINUOUS
 62
     7
 10
-1920.17621555677
 20
2100.0
 30
0.0
 11
-1920.92621555677
 21
2099.25
 31
0.0
  0
LINE
  5
AB
  8
0
  6
CONTINUOUS
 62
     7
 10
-1920.92621555677
 20
2099.25
 30
0.0
 11
-1921.67621555677
 21
2098.5
 31
0.0
  0
LINE
  5
AC
  8
0
  6
CONTINUOUS
 62
     7
 10
-1889.500000000185
 20
1441.915148846892
 30
0.0
 11
-1874.500000000185
 21
1441.915148846892
 31
0.0
  0
CIRCLE
  5
AD
  8
0
  6
CONTINUOUS
 62
     7
 10
-1859.000000000185
 20
2095.0
 30
0.0
 40
50.80000000000017
  0
LINE
  5
AE
  8
0
  6
CONTINUOUS
 62
     7
 10
-1921.67621555677
 20
2091.500000000001
 30
0.0
 11
-1920.92621555677
 21
2090.750000000001
 31
0.0
  0
LINE
  5
AF
  8
0
  6
CONTINUOUS
 62
     7
 10
-1920.92621555677
 20
2090.750000000001
 30
0.0
 11
-1920.17621555677
 21
2090.000000000001
 31
0.0
  0
ARC
  5
B0
  8
0
  6
CONTINUOUS
 62
     7
 10
-1859.000000000185
 20
2095.0
 30
0.0
 40
46.80000000000011
 50
240.1395140561655
 51
270.0000000000002
  0
LINE
  5
B1
  8
0
  6
CONTINUOUS
 62
     7
 10
-1909.7237844436
 20
2090.000000000001
 30
0.0
 11
-1909.553338168896
 21
2090.000000000001
 31
0.0
  0
ARC
  5
B2
  8
0
  6
CONTINUOUS
 62
     7
 10
-1882.000000000185
 20
1459.529427528801
 30
0.0
 40
6.841610962753819
 50
270.0
 51
292.1604321292053
  0
ARC
  5
B3
  8
0
  6
CONTINUOUS
 62
     7
 10
-1881.936965353666
 20
1459.374660408676
 30
0.0
 40
6.674499538447948
 50
292.1604321292027
 51
314.8829955389101
  0
ARC
  5
B4
  8
0
  6
CONTINUOUS
 62
     7
 10
-1881.998040224382
 20
1459.43598523376
 30
0.0
 40
6.761049373828924
 50
314.8829955389103
 51
337.1576471461063
  0
ARC
  5
B5
  8
0
  6
CONTINUOUS
 62
     7
 10
-1881.8451661725
 20
1459.371589886058
 30
0.0
 40
6.595166172315148
 50
337.1576471461055
 51
0.0000000000000568
  0
LINE
  5
B6
  8
0
  6
CONTINUOUS
 62
     7
 10
-1862.000000000185
 20
1505.265214655213
 30
0.0
 11
-1862.000000000185
 21
1454.292506846912
 31
0.0
  0
ARC
  5
B7
  8
0
  6
CONTINUOUS
 62
     7
 10
-1881.845166172501
 20
1459.371589886058
 30
0.0
 40
6.595166172316258
 50
0.000000000001929
 51
22.84235285389258
  0
ARC
  5
B8
  8
0
  6
CONTINUOUS
 62
     7
 10
-1881.998040224383
 20
1459.307194538355
 30
0.0
 40
6.761049373829867
 50
22.8423528538984
 51
45.11700446109224
  0
ARC
  5
B9
  8
0
  6
CONTINUOUS
 62
     7
 10
-1881.936965353668
 20
1459.368519363438
 30
0.0
 40
6.67449953844952
 50
45.11700446109256
 51
67.83956787079453
  0
ARC
  5
BA
  8
0
  6
CONTINUOUS
 62
     7
 10
-1882.000000000185
 20
1459.213752243314
 30
0.0
 40
6.841610962754485
 50
67.83956787079919
 51
90.00000000000188
  0
ARC
  5
BB
  8
0
  6
CONTINUOUS
 62
     7
 10
-1882.000000000185
 20
1459.213752243316
 30
0.0
 40
6.841610962752487
 50
90.00000000000188
 51
112.1604321292137
  0
ARC
  5
BC
  8
0
  6
CONTINUOUS
 62
     7
 10
-1882.063034646703
 20
1459.368519363439
 30
0.0
 40
6.674499538448105
 50
112.1604321292087
 51
134.8829955389142
  0
ARC
  5
BD
  8
0
  6
CONTINUOUS
 62
     7
 10
-1882.00195977599
 20
1459.307194538358
 30
0.0
 40
6.761049373826411
 50
134.882995538913
 51
157.1576471461178
  0
ARC
  5
BE
  8
0
  6
CONTINUOUS
 62
     7
 10
-1882.154833827873
 20
1459.371589886058
 30
0.0
 40
6.595166172312483
 50
157.1576471461
 51
180.0
  0
LINE
  5
BF
  8
0
  6
CONTINUOUS
 62
     7
 10
-1902.000000000185
 20
1476.571751246947
 30
0.0
 11
-1902.000000000185
 21
1454.292506846912
 31
0.0
  0
ARC
  5
C0
  8
0
  6
CONTINUOUS
 62
     7
 10
-1874.500000000185
 20
1454.584798777918
 30
0.0
 40
12.66964993102548
 50
270.0
 51
292.1604321292048
  0
ARC
  5
C1
  8
0
  6
CONTINUOUS
 62
     7
 10
-1874.383269173301
 20
1454.298192999911
 30
0.0
 40
12.36018433046261
 50
292.1604321292097
 51
314.8829955389108
  0
ARC
  5
C2
  8
0
  6
CONTINUOUS
 62
     7
 10
-1874.496370785734
 20
1454.411757490803
 30
0.0
 40
12.52046180338505
 50
314.8829955389108
 51
337.1576471461102
  0
ARC
  5
C3
  8
0
  6
CONTINUOUS
 62
     7
 10
-1874.213270689655
 20
1454.292506846912
 30
0.0
 40
12.21327068946954
 50
337.157647146101
 51
0.0
  0
TEXT
  5
C4
  8
0
  6
CONTINUOUS
 62
     7
 10
-1365.529068713268
 20
-210.9367528448169
 30
0.0
 40
50.50000000000004
  1
MRDS-15
  0
ARC
  5
C5
  8
0
  6
CONTINUOUS
 62
     7
 10
-1788.573942395528
 20
-209.7679438607647
 30
0.0
 40
9.961661189587652
 50
150.6912071560971
 51
159.9036372962194
  0
ARC
  5
C6
  8
0
  6
CONTINUOUS
 62
     7
 10
-1789.504499310505
 20
-209.4274753718213
 30
0.0
 40
8.970775240562434
 50
159.9036372962193
 51
170.5001303234428
  0
ARC
  5
C7
  8
0
  6
CONTINUOUS
 62
     7
 10
-1932.606515938978
 20
-210.3761374250857
 30
0.0
 40
4.109086887674711
 50
317.853363402651
 51
331.0090283422458
  0
ARC
  5
C8
  8
0
  6
CONTINUOUS
 62
     7
 10
-1793.682501075214
 20
-209.7679438607649
 30
0.0
 40
9.961661189587907
 50
20.09636270378091
 51
29.30879284390312
  0
ARC
  5
C9
  8
0
  6
CONTINUOUS
 62
     7
 10
-1791.128221735371
 20
-207.3478821559195
 30
0.0
 40
6.249956677473772
 50
76.64183142083874
 51
90.0
  0
ARC
  5
CA
  8
0
  6
CONTINUOUS
 62
     7
 10
-1792.751944160237
 20
-209.7683755850702
 30
0.0
 40
8.970775240562434
 50
339.9036372962192
 51
350.5001303234428
  0
ARC
  5
CB
  8
0
  6
CONTINUOUS
 62
     7
 10
-1790.696967851129
 20
-210.6197218649007
 30
0.0
 40
7.52698266292346
 50
209.3087928439004
 51
221.5109942250392
  0
ARC
  5
CC
  8
0
  6
CONTINUOUS
 62
     7
 10
-1788.485915404828
 20
-209.5979254784457
 30
0.0
 40
10.00352226270929
 50
180.0
 51
189.4998696765722
  0
ARC
  5
CD
  8
0
  6
CONTINUOUS
 62
     7
 10
-1793.682501075214
 20
-209.4279070961267
 30
0.0
 40
9.961661189587652
 50
330.6912071560972
 51
339.9036372962194
  0
ARC
  5
CE
  8
0
  6
CONTINUOUS
 62
     7
 10
-1769.984701043823
 20
-205.7467629002648
 30
0.0
 40
16.84570491011782
 50
153.8527629962022
 51
156.1016659075722
  0
ARC
  5
CF
  8
0
  6
CONTINUOUS
 62
     7
 10
-1932.637040590275
 20
-208.8197135318057
 30
0.0
 40
4.109086887674711
 50
137.853363402651
 51
151.0090283422457
  0
ARC
  5
D0
  8
0
  6
CONTINUOUS
 62
     7
 10
-1789.782929040759
 20
-209.3851150492561
 30
0.0
 40
8.747607595454037
 50
128.5462005173204
 51
138.4890057749605
  0
ARC
  5
D1
  8
0
  6
CONTINUOUS
 62
     7
 10
-1931.067480423116
 20
-209.5979254784457
 30
0.0
 40
5.884424860430837
 50
180.0
 51
189.4998696765499
  0
ARC
  5
D2
  8
0
  6
CONTINUOUS
 62
     7
 10
-1932.084043821187
 20
-209.5979254784457
 30
0.0
 40
4.318823356683543
 50
180.0000000000004
 51
197.8282679398668
  0
ARC
  5
D3
  8
0
  6
CONTINUOUS
 62
     7
 10
-1793.770528065914
 20
-209.5979254784457
 30
0.0
 40
10.00352226270929
 50
350.5001303234278
 51
0.0
  0
ARC
  5
D4
  8
0
  6
CONTINUOUS
 62
     7
 10
-1792.751944160237
 20
-209.4274753718213
 30
0.0
 40
8.970775240562661
 50
9.499869676557337
 51
20.09636270378063
  0
ARC
  5
D5
  8
0
  6
CONTINUOUS
 62
     7
 10
-1791.559475619612
 20
-208.5761290919908
 30
0.0
 40
7.52698266292346
 50
29.3087928439004
 51
41.5109942250392
  0
ARC
  5
D6
  8
0
  6
CONTINUOUS
 62
     7
 10
-1934.322016429743
 20
-209.4255733209603
 30
0.0
 40
6.070340071195084
 50
331.0090283422497
 51
339.903637296219
  0
ARC
  5
D7
  8
0
  6
CONTINUOUS
 62
     7
 10
-1791.336527384212
 20
-208.2250981680901
 30
0.0
 40
7.151565891794417
 50
64.9740196896386
 51
76.64183142083851
  0
ARC
  5
D8
  8
0
  6
CONTINUOUS
 62
     7
 10
-1792.751944160237
 20
-209.4274753718213
 30
0.0
 40
8.970775240562661
 50
9.499869676557337
 51
20.09636270378063
  0
ARC
  5
D9
  8
0
  6
CONTINUOUS
 62
     7
 10
-1775.879666957973
 20
-201.3713753121552
 30
0.0
 40
9.47874963324406
 50
136.4375371174819
 51
140.4755996787798
  0
LINE
  5
DA
  8
0
  6
CONTINUOUS
 62
     7
 10
-1302.489208017164
 20
-424.0112760063396
 30
0.0
 11
-1754.779743065682
 21
-201.973863526577
 31
0.0
  0
ARC
  5
DB
  8
0
  6
CONTINUOUS
 62
     7
 10
-1934.659512708065
 20
-209.5979254784457
 30
0.0
 40
4.318823356683543
 50
342.1717320601332
 51
359.9999999999996
  0
LINE
  5
DC
  8
0
  6
CONTINUOUS
 62
     7
 10
-1770.992089652654
 20
-197.0831716217364
 30
0.0
 11
-1780.992089652654
 21
-197.0831716217364
 31
0.0
  0
ARC
  5
DD
  8
0
  6
CONTINUOUS
 62
     7
 10
-1778.967123108481
 20
-197.1264335094588
 30
0.0
 40
4.234995999854842
 50
118.4034085990041
 51
125.6489134273518
  0
ARC
  5
DE
  8
0
  6
CONTINUOUS
 62
     7
 10
-1790.919916086529
 20
-210.9707527888014
 30
0.0
 40
7.151565891794417
 50
244.9740196896386
 51
256.6418314208385
  0
ARC
  5
DF
  8
0
  6
CONTINUOUS
 62
     7
 10
-1791.559475619612
 20
-208.5761290919908
 30
0.0
 40
7.52698266292346
 50
29.3087928439004
 51
41.5109942250392
  0
ARC
  5
E0
  8
0
  6
CONTINUOUS
 62
     7
 10
-1381.212021008123
 20
-324.2062840569072
 30
0.0
 40
92.37738866972116
 50
250.4567555777556
 51
257.1432576078248
  0
ARC
  5
E1
  8
0
  6
CONTINUOUS
 62
     7
 10
-1788.573942395528
 20
-209.7679438607647
 30
0.0
 40
9.961661189587652
 50
153.6644605888204
 51
159.9036372962194
  0
ARC
  5
E2
  8
0
  6
CONTINUOUS
 62
     7
 10
-1791.128221735371
 20
-211.847968800972
 30
0.0
 40
6.249956677473772
 50
256.6418314208387
 51
270.0
  0
ARC
  5
E3
  8
0
  6
CONTINUOUS
 62
     7
 10
-1932.084043821187
 20
-209.5979254784458
 30
0.0
 40
4.318823356683543
 50
162.1717320601332
 51
179.9999999999996
  0
ARC
  5
E4
  8
0
  6
CONTINUOUS
 62
     7
 10
-1791.0354615928
 20
-211.6156268644779
 30
0.0
 40
6.439875520749358
 50
295.0259803103615
 51
308.5462005173271
  0
ARC
  5
E5
  8
0
  6
CONTINUOUS
 62
     7
 10
-1790.919916086529
 20
-208.2250981680914
 30
0.0
 40
7.151565891795761
 50
103.3581685791625
 51
115.0259803103604
  0
ARC
  5
E6
  8
0
  6
CONTINUOUS
 62
     7
 10
-1791.220981877942
 20
-207.5802240924136
 30
0.0
 40
6.439875520749358
 50
115.0259803103615
 51
128.5462005173271
  0
ARC
  5
E7
  8
0
  6
CONTINUOUS
 62
     7
 10
-1793.770528065914
 20
-209.5979254784457
 30
0.0
 40
10.00352226270929
 50
0.0
 51
9.499869676572214
  0
ARC
  5
E8
  8
0
  6
CONTINUOUS
 62
     7
 10
-1792.473514429983
 20
-209.8107359076354
 30
0.0
 40
8.747607595454037
 50
308.5462005173204
 51
318.4890057749606
  0
ARC
  5
E9
  8
0
  6
CONTINUOUS
 62
     7
 10
-1788.573942395527
 20
-209.4279070961266
 30
0.0
 40
9.961661189587907
 50
206.3355394111769
 51
209.3087928439031
  0
ARC
  5
EA
  8
0
  6
CONTINUOUS
 62
     7
 10
-1772.974648581892
 20
-203.9462524253528
 30
0.0
 40
13.35548654292715
 50
142.7516481075559
 51
148.9441543901238
  0
ARC
  5
EB
  8
0
  6
CONTINUOUS
 62
     7
 10
-1776.679591593479
 20
-201.3565330297672
 30
0.0
 40
9.044002382033842
 50
115.4998154275342
 51
118.4034085990031
  0
ARC
  5
EC
  8
0
  6
CONTINUOUS
 62
     7
 10
-1933.146685526759
 20
-209.3085934432091
 30
0.0
 40
4.837638019262672
 50
42.14663659734879
 51
62.80379002771987
  0
ARC
  5
ED
  8
0
  6
CONTINUOUS
 62
     7
 10
-1791.220981877942
 20
-211.6156268644779
 30
0.0
 40
6.439875520749238
 50
231.4537994826742
 51
244.9740196896402
  0
ARC
  5
EE
  8
0
  6
CONTINUOUS
 62
     7
 10
-1793.682501075214
 20
-209.7679438607649
 30
0.0
 40
9.961661189587907
 50
20.09636270378091
 51
26.33553941117276
  0
ARC
  5
EF
  8
0
  6
CONTINUOUS
 62
     7
 10
-1788.573942395527
 20
-209.4279070961266
 30
0.0
 40
9.961661189587907
 50
200.0963627037809
 51
209.3087928439031
  0
ARC
  5
F0
  8
0
  6
CONTINUOUS
 62
     7
 10
-1930.921540099509
 20
-209.7702776359312
 30
0.0
 40
6.070340071195084
 50
151.0090283422497
 51
159.903637296219
  0
ARC
  5
F1
  8
0
  6
CONTINUOUS
 62
     7
 10
-1790.696967851129
 20
-208.5761290919909
 30
0.0
 40
7.526982662923719
 50
138.4890057749611
 51
150.6912071560996
  0
ARC
  5
F2
  8
0
  6
CONTINUOUS
 62
     7
 10
-1933.371778264626
 20
-210.5698060520822
 30
0.0
 40
2.528119426363495
 50
270.0
 51
297.7624206629478
  0
ARC
  5
F3
  8
0
  6
CONTINUOUS
 62
     7
 10
-1791.128221735371
 20
-207.3478821559205
 30
0.0
 40
6.249956677474855
 50
90.0
 51
103.3581685791589
  0
ARC
  5
F4
  8
0
  6
CONTINUOUS
 62
     7
 10
-1932.606515938978
 20
-208.8197135318057
 30
0.0
 40
4.109086887674711
 50
28.99097165775429
 51
42.14663659734897
  0
ARC
  5
F5
  8
0
  6
CONTINUOUS
 62
     7
 10
-1932.096871002493
 20
-209.8872575136824
 30
0.0
 40
4.837638019262672
 50
222.1466365973488
 51
242.8037900277198
  0
ARC
  5
F6
  8
0
  6
CONTINUOUS
 62
     7
 10
-1930.921540099509
 20
-209.4255733209603
 30
0.0
 40
6.070340071195084
 50
200.0963627037811
 51
208.9909716577504
  0
LINE
  5
F7
  8
0
  6
CONTINUOUS
 62
     7
 10
-1423.002781787979
 20
-406.704832021941
 30
0.0
 11
-1798.804028378123
 21
-222.2173622795242
 31
0.0
  0
ARC
  5
F8
  8
0
  6
CONTINUOUS
 62
     7
 10
-1380.648147471231
 20
-323.4813516852081
 30
0.0
 40
93.18821066176503
 50
263.451848380699
 51
263.5697174960267
  0
ARC
  5
F9
  8
0
  6
CONTINUOUS
 62
     7
 10
-1792.751944160237
 20
-209.7683755850702
 30
0.0
 40
8.970775240562434
 50
339.9036372962192
 51
350.5001303234428
  0
ARC
  5
FA
  8
0
  6
CONTINUOUS
 62
     7
 10
-1791.336527384213
 20
-210.9707527888001
 30
0.0
 40
7.151565891795761
 50
283.3581685791625
 51
295.0259803103603
  0
ARC
  5
FB
  8
0
  6
CONTINUOUS
 62
     7
 10
-1792.473514429983
 20
-209.3851150492562
 30
0.0
 40
8.747607595454259
 50
41.51099422503886
 51
51.45379948267886
  0
ARC
  5
FC
  8
0
  6
CONTINUOUS
 62
     7
 10
-1793.682501075214
 20
-209.4279070961267
 30
0.0
 40
9.961661189587652
 50
333.6644605888205
 51
339.9036372962194
  0
ARC
  5
FD
  8
0
  6
CONTINUOUS
 62
     7
 10
-1793.770528065914
 20
-209.5979254784457
 30
0.0
 40
10.00352226270929
 50
0.0
 51
9.499869676572214
  0
ARC
  5
FE
  8
0
  6
CONTINUOUS
 62
     7
 10
-1933.57690910279
 20
-209.497660709846
 30
0.0
 40
5.276926612103718
 50
9.499869676573951
 51
20.09636270378132
  0
ARC
  5
FF
  8
0
  6
CONTINUOUS
 62
     7
 10
-1793.770528065914
 20
-209.5979254784457
 30
0.0
 40
10.00352226270929
 50
350.5001303234278
 51
0.0
  0
ARC
  5
100
  8
0
  6
CONTINUOUS
 62
     7
 10
-1376.057564041901
 20
-309.6853863831452
 30
0.0
 40
107.7859867846861
 50
244.7269898300727
 51
250.4567555777562
  0
ARC
  5
101
  8
0
  6
CONTINUOUS
 62
     7
 10
-1932.096871002493
 20
-209.3085934432091
 30
0.0
 40
4.837638019262672
 50
117.1962099722802
 51
137.8533634026512
  0
ARC
  5
102
  8
0
  6
CONTINUOUS
 62
     7
 10
-1775.369051910927
 20
-202.1431124337777
 30
0.0
 40
10.40858359317315
 50
125.6489134273424
 51
128.5952913892697
  0
ARC
  5
103
  8
0
  6
CONTINUOUS
 62
     7
 10
-1810.16382939905
 20
-218.3838574496799
 30
0.0
 40
28.5593155414475
 50
27.15834169212763
 51
37.24785766169049
  0
ARC
  5
104
  8
0
  6
CONTINUOUS
 62
     7
 10
-1916.087152861563
 20
-69.8374998054521
 30
0.0
 40
3.016377768440531
 50
187.9524961020881
 51
222.2700306092868
  0
ARC
  5
105
  8
0
  6
CONTINUOUS
 62
     7
 10
-1933.371778264626
 20
-210.5698060520822
 30
0.0
 40
2.528119426363495
 50
242.2375793370522
 51
269.9999999999999
  0
ARC
  5
106
  8
0
  6
CONTINUOUS
 62
     7
 10
-1791.559475619613
 20
-210.6197218649006
 30
0.0
 40
7.526982662923719
 50
318.4890057749611
 51
330.6912071560996
  0
ARC
  5
107
  8
0
  6
CONTINUOUS
 62
     7
 10
-1789.782929040759
 20
-209.8107359076353
 30
0.0
 40
8.747607595454259
 50
221.5109942250388
 51
231.4537994826789
  0
ARC
  5
108
  8
0
  6
CONTINUOUS
 62
     7
 10
-1816.357775235503
 20
-223.2439210538262
 30
0.0
 40
21.06606086913244
 50
14.13922689926226
 51
26.48895418817878
  0
LINE
  5
109
  8
0
  6
CONTINUOUS
 62
     7
 10
-1919.323784443415
 20
-86.17292548171484
 30
0.0
 11
-1919.323784443415
 21
-70.02292548171485
 31
0.0
  0
ARC
  5
10A
  8
0
  6
CONTINUOUS
 62
     7
 10
-1934.176076106136
 20
-209.5979254784457
 30
0.0
 40
5.884424860430837
 50
0.0
 51
9.499869676549963
  0
LINE
  5
10B
  8
0
  6
CONTINUOUS
 62
     7
 10
-1920.176215556585
 20
-223.0979254817149
 30
0.0
 11
-1920.176215556585
 21
-228.915649199969
 31
0.0
  0
LINE
  5
10C
  8
0
  6
CONTINUOUS
 62
     7
 10
-1920.176215556585
 20
-78.91564919996901
 30
0.0
 11
-1920.176215556585
 21
-83.09792548171485
 31
0.0
  0
ARC
  5
10D
  8
0
  6
CONTINUOUS
 62
     7
 10
-1801.492091791756
 20
-235.9349449728598
 30
0.0
 40
1.819846813336381
 50
316.9080055154276
 51
356.2144753081493
  0
LINE
  5
10E
  8
0
  6
CONTINUOUS
 62
     7
 10
-1799.676215556585
 20
-219.5979254817148
 30
0.0
 11
-1799.676215556585
 21
-221.5308867275302
 31
0.0
  0
ARC
  5
10F
  8
0
  6
CONTINUOUS
 62
     7
 10
-1809.387097312177
 20
-201.3011864940373
 30
0.0
 40
27.6450444940198
 50
322.5848488996915
 51
333.0089517464853
  0
ARC
  5
110
  8
0
  6
CONTINUOUS
 62
     7
 10
-1805.316558811647
 20
-71.28673865817436
 30
0.0
 40
5.645624882570233
 50
323.4776731138112
 51
357.5214403855777
  0
LINE
  5
111
  8
0
  6
CONTINUOUS
 62
     7
 10
-1791.128221735371
 20
-218.0979254784456
 30
0.0
 11
-1795.929910685332
 21
-218.0979254784453
 31
0.0
  0
LINE
  5
112
  8
0
  6
CONTINUOUS
 62
     7
 10
-1918.743492766807
 20
-219.0178308356781
 30
0.0
 11
-1918.319221200455
 21
-218.415120262114
 31
0.0
  0
LINE
  5
113
  8
0
  6
CONTINUOUS
 62
     7
 10
-1806.676215556585
 20
-218.415120262114
 30
0.0
 11
-1800.779593456509
 21
-218.415120262114
 31
0.0
  0
LINE
  5
114
  8
0
  6
CONTINUOUS
 62
     7
 10
-1918.319221200455
 20
-231.5491977704833
 30
0.0
 11
-1911.323784443415
 21
-231.5491977704833
 31
0.0
  0
LINE
  5
115
  8
0
  6
CONTINUOUS
 62
     7
 10
-1787.429910685334
 20
-218.0979254784457
 30
0.0
 11
-1791.128221735371
 21
-218.0979254784456
 31
0.0
  0
LINE
  5
116
  8
0
  6
CONTINUOUS
 62
     7
 10
-1921.676215556585
 20
-231.5979254817148
 30
0.0
 11
-1921.676215556585
 21
-228.6703320844928
 31
0.0
  0
ARC
  5
117
  8
0
  6
CONTINUOUS
 62
     7
 10
-1916.087152861565
 20
-219.8374998054533
 30
0.0
 40
3.016377768438221
 50
187.9524961020707
 51
222.270030609295
  0
ARC
  5
118
  8
0
  6
CONTINUOUS
 62
     7
 10
-1791.559475619613
 20
-210.6197218649006
 30
0.0
 40
7.526982662923719
 50
318.4890057749611
 51
330.6912071560996
  0
ARC
  5
119
  8
0
  6
CONTINUOUS
 62
     7
 10
-1916.946500414591
 20
-70.16151058203734
 30
0.0
 40
2.130066871286838
 50
147.5256497418767
 51
182.5107421685169
  0
ARC
  5
11A
  8
0
  6
CONTINUOUS
 62
     7
 10
-1934.322016429743
 20
-209.7702776359312
 30
0.0
 40
6.070340071195084
 50
20.0963627037811
 51
28.99097165775038
  0
ARC
  5
11B
  8
0
  6
CONTINUOUS
 62
     7
 10
-1934.176076106136
 20
-209.5979254784457
 30
0.0
 40
5.884424860430837
 50
350.5001303234499
 51
0.0
  0
LINE
  5
11C
  8
0
  6
CONTINUOUS
 62
     7
 10
-1918.743492766807
 20
-237.1780201277515
 30
0.0
 11
-1918.319221200455
 21
-237.7807307013157
 31
0.0
  0
LINE
  5
11D
  8
0
  6
CONTINUOUS
 62
     7
 10
-1918.319221200455
 20
-237.7807307013157
 30
0.0
 11
-1911.323784443415
 21
-237.7807307013157
 31
0.0
  0
ARC
  5
11E
  8
0
  6
CONTINUOUS
 62
     7
 10
-1933.30330351155
 20
-209.2058003592727
 30
0.0
 40
3.038059404336642
 50
136.7209420213244
 51
162.1717320601312
  0
ARC
  5
11F
  8
0
  6
CONTINUOUS
 62
     7
 10
-1822.137097312167
 20
-226.394664462849
 30
0.0
 40
27.64504449401247
 50
26.99104825351083
 51
37.41515110030728
  0
LINE
  5
120
  8
0
  6
CONTINUOUS
 62
     7
 10
-1791.128221735371
 20
-201.0979254784459
 30
0.0
 11
-1787.429910685334
 21
-201.097925478446
 31
0.0
  0
ARC
  5
121
  8
0
  6
CONTINUOUS
 62
     7
 10
-1790.696967851129
 20
-210.6197218649007
 30
0.0
 40
7.52698266292346
 50
209.3087928439004
 51
221.5109942250392
  0
ARC
  5
122
  8
0
  6
CONTINUOUS
 62
     7
 10
-1791.0354615928
 20
-207.5802240924136
 30
0.0
 40
6.439875520749238
 50
51.45379948267429
 51
64.97401968964017
  0
ARC
  5
123
  8
0
  6
CONTINUOUS
 62
     7
 10
-1933.371778264626
 20
-208.6260449048093
 30
0.0
 40
2.528119426363495
 50
62.23757933705222
 51
90.0
  0
ARC
  5
124
  8
0
  6
CONTINUOUS
 62
     7
 10
-1933.909629727833
 20
-209.6477947954463
 30
0.0
 40
3.682786926335174
 50
43.27905797867454
 51
62.2375793370573
  0
ARC
  5
125
  8
0
  6
CONTINUOUS
 62
     7
 10
-1789.504499310505
 20
-209.7683755850702
 30
0.0
 40
8.970775240562661
 50
189.4998696765573
 51
200.0963627037806
  0
LINE
  5
126
  8
0
  6
CONTINUOUS
 62
     7
 10
-1806.676215556585
 20
-74.64665319294645
 30
0.0
 11
-1800.779593456509
 21
-74.64665319294645
 31
0.0
  0
ARC
  5
127
  8
0
  6
CONTINUOUS
 62
     7
 10
-1932.833926801419
 20
-209.6477947954459
 30
0.0
 40
3.682786926334584
 50
117.7624206629396
 51
136.7209420213252
  0
ARC
  5
128
  8
0
  6
CONTINUOUS
 62
     7
 10
-1916.946500414591
 20
-220.1615105820374
 30
0.0
 40
2.13006687128728
 50
147.5256497418812
 51
182.5107421685157
  0
ARC
  5
129
  8
0
  6
CONTINUOUS
 62
     7
 10
-1933.57690910279
 20
-209.6981902470455
 30
0.0
 40
5.276926612103718
 50
339.9036372962186
 51
350.500130323426
  0
ARC
  5
12A
  8
0
  6
CONTINUOUS
 62
     7
 10
-1933.146685526759
 20
-209.8872575136824
 30
0.0
 40
4.837638019262672
 50
297.1962099722801
 51
317.8533634026512
  0
ARC
  5
12B
  8
0
  6
CONTINUOUS
 62
     7
 10
-1932.621778264626
 20
-210.9087827864079
 30
0.0
 40
3.689142692037822
 50
270.0
 51
297.19620997228
  0
LINE
  5
12C
  8
0
  6
CONTINUOUS
 62
     7
 10
-1806.676215556585
 20
-234.3294584125473
 30
0.0
 11
-1800.779593456509
 21
-234.3294584125473
 31
0.0
  0
ARC
  5
12D
  8
0
  6
CONTINUOUS
 62
     7
 10
-1801.927318500037
 20
-86.32745279652242
 30
0.0
 40
2.26751923314671
 50
6.898616586405267
 51
52.44535214747273
  0
LINE
  5
12E
  8
0
  6
CONTINUOUS
 62
     7
 10
-1808.276215556585
 20
-217.0979254817149
 30
0.0
 11
-1808.276215556585
 21
-229.896917661874
 31
0.0
  0
ARC
  5
12F
  8
0
  6
CONTINUOUS
 62
     7
 10
-1789.782929040759
 20
-209.8107359076353
 30
0.0
 40
8.747607595454259
 50
221.5109942250388
 51
231.4537994826789
  0
ARC
  5
130
  8
0
  6
CONTINUOUS
 62
     7
 10
-1790.919916086529
 20
-210.9707527888014
 30
0.0
 40
7.151565891794417
 50
244.9740196896386
 51
256.6418314208385
  0
ARC
  5
131
  8
0
  6
CONTINUOUS
 62
     7
 10
-1803.607775235506
 20
-204.4519299030643
 30
0.0
 40
21.06606086913237
 50
333.5110458118188
 51
345.8607731007355
  0
ARC
  5
132
  8
0
  6
CONTINUOUS
 62
     7
 10
-1912.298376253571
 20
-234.6649642358995
 30
0.0
 40
6.779275369936085
 50
152.6385912655302
 51
207.3614087344697
  0
ARC
  5
133
  8
0
  6
CONTINUOUS
 62
     7
 10
-1932.621778264626
 20
-208.2870681704836
 30
0.0
 40
3.689142692037822
 50
62.80379002772004
 51
90.0
  0
LINE
  5
134
  8
0
  6
CONTINUOUS
 62
     7
 10
-1921.676215556585
 20
-81.59792548171491
 30
0.0
 11
-1921.676215556585
 21
-78.67033208449276
 31
0.0
  0
ARC
  5
135
  8
0
  6
CONTINUOUS
 62
     7
 10
-1788.485915404828
 20
-209.5979254784457
 30
0.0
 40
10.00352226270929
 50
170.5001303234278
 51
180.0
  0
ARC
  5
136
  8
0
  6
CONTINUOUS
 62
     7
 10
-1793.682501075214
 20
-209.4279070961267
 30
0.0
 40
9.961661189587652
 50
330.6912071560972
 51
333.6644605888154
  0
LINE
  5
137
  8
0
  6
CONTINUOUS
 62
     7
 10
-1806.676215556585
 20
-68.41512026211399
 30
0.0
 11
-1800.779593456509
 21
-68.41512026211399
 31
0.0
  0
ARC
  5
138
  8
0
  6
CONTINUOUS
 62
     7
 10
-1791.128221735371
 20
-211.847968800971
 30
0.0
 40
6.249956677474855
 50
270.0
 51
283.3581685791589
  0
LINE
  5
139
  8
0
  6
CONTINUOUS
 62
     7
 10
-1800.779593456509
 20
-87.78073070131576
 30
0.0
 11
-1800.163134573827
 21
-87.17821289930438
 31
0.0
  0
LINE
  5
13A
  8
0
  6
CONTINUOUS
 62
     7
 10
-1918.319221200455
 20
-87.7807307013157
 30
0.0
 11
-1911.323784443415
 21
-87.7807307013157
 31
0.0
  0
ARC
  5
13B
  8
0
  6
CONTINUOUS
 62
     7
 10
-1933.371778264626
 20
-208.6260449048093
 30
0.0
 40
2.528119426363495
 50
90.0
 51
117.7624206629478
  0
ARC
  5
13C
  8
0
  6
CONTINUOUS
 62
     7
 10
-1791.128221735371
 20
-211.847968800972
 30
0.0
 40
6.249956677473772
 50
256.6418314208387
 51
269.9999999999919
  0
LINE
  5
13D
  8
0
  6
CONTINUOUS
 62
     7
 10
-1799.676215556585
 20
-229.4880558027469
 30
0.0
 11
-1799.676215556585
 21
-236.0550945569316
 31
0.0
  0
ARC
  5
13E
  8
0
  6
CONTINUOUS
 62
     7
 10
-1933.30330351155
 20
-209.9900505976188
 30
0.0
 40
3.038059404336623
 50
197.8282679398687
 51
223.2790579786752
  0
ARC
  5
13F
  8
0
  6
CONTINUOUS
 62
     7
 10
-1932.833926801419
 20
-209.5480561614452
 30
0.0
 40
3.682786926335174
 50
223.2790579786745
 51
242.2375793370573
  0
ARC
  5
140
  8
0
  6
CONTINUOUS
 62
     7
 10
-1791.0354615928
 20
-211.6156268644779
 30
0.0
 40
6.439875520749358
 50
295.0259803103615
 51
308.5462005173271
  0
LINE
  5
141
  8
0
  6
CONTINUOUS
 62
     7
 10
-1798.878221735369
 20
-201.0979254784458
 30
0.0
 11
-1795.929910685331
 21
-201.0979254784458
 31
0.0
  0
ARC
  5
142
  8
0
  6
CONTINUOUS
 62
     7
 10
-1791.220981877942
 20
-211.6156268644779
 30
0.0
 40
6.439875520749238
 50
231.4537994826742
 51
244.9740196896402
  0
ARC
  5
143
  8
0
  6
CONTINUOUS
 62
     7
 10
-1776.922969555155
 20
-202.3406443371576
 30
0.0
 40
7.045826004880253
 50
153.8527629962079
 51
158.5474258456835
  0
ARC
  5
144
  8
0
  6
CONTINUOUS
 62
     7
 10
-1784.179898517698
 20
-271.3884633131997
 30
0.0
 40
80.1207026851075
 50
74.82980092405
 51
76.29280586341217
  0
ARC
  5
145
  8
0
  6
CONTINUOUS
 62
     7
 10
-1794.097793751917
 20
-207.8213254297983
 30
0.0
 40
9.254967624677256
 50
64.97401969699581
 51
76.64183142819593
  0
ARC
  5
146
  8
0
  6
CONTINUOUS
 62
     7
 10
-1793.708179198433
 20
-206.9867825082872
 30
0.0
 40
8.333956556268864
 50
51.45379949003527
 51
64.97401969699541
  0
ARC
  5
147
  8
0
  6
CONTINUOUS
 62
     7
 10
-1778.974627052093
 20
-201.534436058033
 30
0.0
 40
4.841450747789519
 50
158.5474258457482
 51
159.5528526283748
  0
ARC
  5
148
  8
0
  6
CONTINUOUS
 62
     7
 10
-1785.704665353098
 20
-275.5297330214846
 30
0.0
 40
80.12070268509333
 50
74.8298009240497
 51
76.29280586341231
  0
ARC
  5
149
  8
0
  6
CONTINUOUS
 62
     7
 10
-1790.522683766375
 20
-209.3779016891527
 30
0.0
 40
12.89156153945433
 50
200.0963627111369
 51
209.3087928512687
  0
ARC
  5
14A
  8
0
  6
CONTINUOUS
 62
     7
 10
-1792.087254718946
 20
-209.87332721012
 30
0.0
 40
11.32043335883041
 50
221.5109942323984
 51
231.453799490033
  0
ARC
  5
14B
  8
0
  6
CONTINUOUS
 62
     7
 10
-1792.9328203427
 20
-210.7138353120274
 30
0.0
 40
14.71106215105356
 50
170.5001303234349
 51
180.0
  0
ARC
  5
14C
  8
0
  6
CONTINUOUS
 62
     7
 10
-1779.638559202901
 20
-270.4908071543617
 30
0.0
 40
74.00240565384132
 50
81.52073547155202
 51
82.1395685401021
  0
ARC
  5
14D
  8
0
  6
CONTINUOUS
 62
     7
 10
-1793.828221735915
 20
-206.6861047081325
 30
0.0
 40
8.088179229675585
 50
76.64183142819644
 51
90.00000000735349
  0
LINE
  5
14E
  8
0
  6
CONTINUOUS
 62
     7
 10
-1302.489208017164
 20
-424.0112760063396
 30
0.0
 11
-1283.194816389612
 21
-427.155360764025
 31
0.0
  0
ARC
  5
14F
  8
0
  6
CONTINUOUS
 62
     7
 10
-1790.812271799633
 20
-210.4638082792081
 30
0.0
 40
14.64950174938267
 50
200.0963627037847
 51
209.3087928439145
  0
ARC
  5
150
  8
0
  6
CONTINUOUS
 62
     7
 10
-1794.097793751461
 20
-211.3745255271832
 30
0.0
 40
9.254967624678926
 50
283.3581685865109
 51
295.0259803177088
  0
ARC
  5
151
  8
0
  6
CONTINUOUS
 62
     7
 10
-1793.270128473751
 20
-208.275600742977
 30
0.0
 40
9.740801093199316
 50
138.4890057823054
 51
150.6912071634397
  0
LINE
  5
152
  8
0
  6
CONTINUOUS
 62
   253
 10
-1806.78091153342
 20
-205.8231434071868
 30
0.0
 11
-1804.53091153342
 21
-205.8231434071868
 31
0.0
  0
ARC
  5
153
  8
0
  6
CONTINUOUS
 62
     7
 10
-1784.675331339962
 20
-266.1953275442582
 30
0.0
 40
70.88152268235672
 50
67.85151778984398
 51
69.78688607491652
  0
LINE
  5
154
  8
0
  6
CONTINUOUS
 62
   253
 10
-1770.992089652654
 20
-197.0831716217364
 30
0.0
 11
-1769.524768861384
 21
-193.0979254817014
 31
0.0
  0
ARC
  5
155
  8
0
  6
CONTINUOUS
 62
     7
 10
-1772.033906583362
 20
-219.4806127366774
 30
0.0
 40
22.42847157863408
 50
76.29280586341369
 51
81.52073547155138
  0
ARC
  5
156
  8
0
  6
CONTINUOUS
 62
     7
 10
-1793.94826427332
 20
-206.9867825083191
 30
0.0
 40
8.333956556270008
 50
115.0259803177084
 51
128.5462005246677
  0
ARC
  5
157
  8
0
  6
CONTINUOUS
 62
     7
 10
-1771.080234832848
 20
-200.6611059454387
 30
0.0
 40
3.585635507372899
 50
87.57626663356136
 51
88.58875960161718
  0
ARC
  5
158
  8
0
  6
CONTINUOUS
 62
     7
 10
-1773.071830673128
 20
-237.2932563548423
 30
0.0
 40
44.14805740693605
 50
64.74397122578239
 51
67.85151778984543
  0
ARC
  5
159
  8
0
  6
CONTINUOUS
 62
     7
 10
-1793.682501075214
 20
-209.7679438607649
 30
0.0
 40
9.961661189587907
 50
26.33553941117734
 51
29.30879284390312
  0
ARC
  5
15A
  8
0
  6
CONTINUOUS
 62
     7
 10
-1778.113792367526
 20
-266.3495374462343
 30
0.0
 40
74.00240565401477
 50
81.52073547155068
 51
81.81942657375691
  0
ARC
  5
15B
  8
0
  6
CONTINUOUS
 62
     7
 10
-1793.934368057859
 20
-212.2164770568122
 30
0.0
 40
11.06909215135945
 50
209.3087928439071
 51
214.0838210496354
  0
ARC
  5
15C
  8
0
  6
CONTINUOUS
 62
     7
 10
-1794.430737851068
 20
-210.964497233536
 30
0.0
 40
13.19231653023094
 50
189.4998696765542
 51
200.0963627037843
  0
ARC
  5
15D
  8
0
  6
CONTINUOUS
 62
     7
 10
-1788.420060019604
 20
-269.8272856815226
 30
0.0
 40
80.12070268499836
 50
63.96726863422316
 51
64.74397122578227
  0
ARC
  5
15E
  8
0
  6
CONTINUOUS
 62
     7
 10
-1783.150564504567
 20
-262.0540578359805
 30
0.0
 40
70.8815226823791
 50
69.78688607491654
 51
71.72225435998826
  0
LINE
  5
15F
  8
0
  6
CONTINUOUS
 62
   253
 10
-1283.194816389613
 20
-427.155360764025
 30
0.0
 11
-1282.631034534381
 21
-422.5423265550468
 31
0.0
  0
ARC
  5
160
  8
0
  6
CONTINUOUS
 62
     7
 10
-1776.922969555215
 20
-202.3406443371281
 30
0.0
 40
7.045826004813436
 50
149.1581001466891
 51
153.8527629962086
  0
ARC
  5
161
  8
0
  6
CONTINUOUS
 62
     7
 10
-1776.291084004041
 20
-240.8106360503591
 30
0.0
 40
44.14805740696945
 50
71.72225435998955
 51
74.82980092404955
  0
ARC
  5
162
  8
0
  6
CONTINUOUS
 62
     7
 10
-1783.15056450451
 20
-262.0540578358256
 30
0.0
 40
70.8815226822141
 50
67.85151778984027
 51
69.78688607491654
  0
ARC
  5
163
  8
0
  6
CONTINUOUS
 62
     7
 10
-1796.18436805786
 20
-212.216477056813
 30
0.0
 40
11.06909215135816
 50
209.3087928439069
 51
214.0838210496348
  0
ARC
  5
164
  8
0
  6
CONTINUOUS
 62
     7
 10
-1933.440253017701
 20
-209.9900505976188
 30
0.0
 40
3.038059404336623
 50
316.7209420213247
 51
342.1717320601312
  0
ARC
  5
165
  8
0
  6
CONTINUOUS
 62
     7
 10
-1932.621778264626
 20
-210.9087827864079
 30
0.0
 40
3.689142692037822
 50
242.80379002772
 51
270.0
  0
ARC
  5
166
  8
0
  6
CONTINUOUS
 62
     7
 10
-1781.014853227521
 20
-197.8197526751955
 30
0.0
 40
0.7449645513046939
 50
88.22987331139926
 51
118.1110911697906
  0
ARC
  5
167
  8
0
  6
CONTINUOUS
 62
     7
 10
-1793.270128473413
 20
-210.9202502137957
 30
0.0
 40
9.740801093196682
 50
209.3087928512605
 51
221.5109942323979
  0
ARC
  5
168
  8
0
  6
CONTINUOUS
 62
     7
 10
-1768.304345081269
 20
-209.3275973176565
 30
0.0
 40
18.12202387187448
 50
140.7084911000983
 51
142.323756594451
  0
LINE
  5
169
  8
0
  6
CONTINUOUS
 62
   253
 10
-1328.838885637866
 20
-423.049412152454
 30
0.0
 11
-1783.508600876255
 21
-199.8440180939334
 31
0.0
  0
ARC
  5
16A
  8
0
  6
CONTINUOUS
 62
     7
 10
-1781.022618548693
 20
-198.9209582302883
 30
0.0
 40
1.688746137748154
 50
123.3087824538079
 51
140.7084911000959
  0
ARC
  5
16B
  8
0
  6
CONTINUOUS
 62
     7
 10
-1793.558649719167
 20
-211.3745255271164
 30
0.0
 40
9.25496762467634
 50
244.9740196969962
 51
256.6418314281974
  0
ARC
  5
16C
  8
0
  6
CONTINUOUS
 62
     7
 10
-1794.704976920817
 20
-213.6810432326581
 30
0.0
 40
9.470405177577394
 50
238.3153532904981
 51
244.3501666994373
  0
ARC
  5
16D
  8
0
  6
CONTINUOUS
 62
     7
 10
-1778.815613559801
 20
-201.2105253408031
 30
0.0
 40
4.841450747750723
 50
142.3237565944504
 51
149.1581001467187
  0
ARC
  5
16E
  8
0
  6
CONTINUOUS
 62
     7
 10
-1793.062271799645
 20
-210.4638082792126
 30
0.0
 40
14.64950174936965
 50
200.0963627037845
 51
209.3087928439232
  0
ARC
  5
16F
  8
0
  6
CONTINUOUS
 62
     7
 10
-1770.509139747961
 20
-215.3393430283928
 30
0.0
 40
22.42847157864838
 50
76.29280586341554
 51
81.52073547155068
  0
ARC
  5
170
  8
0
  6
CONTINUOUS
 62
     7
 10
-1790.408766484253
 20
-209.5979254780179
 30
0.0
 40
12.94573469291715
 50
170.5001303307808
 51
180.0000000073535
  0
ARC
  5
171
  8
0
  6
CONTINUOUS
 62
     7
 10
-1791.0354615928
 20
-207.5802240924136
 30
0.0
 40
6.439875520749238
 50
51.45379948267429
 51
64.97401968964017
  0
ARC
  5
172
  8
0
  6
CONTINUOUS
 62
     7
 10
-1792.180737851055
 20
-210.4631733905234
 30
0.0
 40
13.19231653024375
 50
159.9036372962152
 51
170.500130323435
  0
ARC
  5
173
  8
0
  6
CONTINUOUS
 62
     7
 10
-1793.062271799646
 20
-210.9638623448421
 30
0.0
 40
14.6495017493694
 50
159.4577637143208
 51
159.9036372962156
  0
ARC
  5
174
  8
0
  6
CONTINUOUS
 62
     7
 10
-1793.94826427265
 20
-212.2090684486264
 30
0.0
 40
8.333956556269142
 50
231.4537994900368
 51
244.9740196969962
  0
ARC
  5
175
  8
0
  6
CONTINUOUS
 62
     7
 10
-1770.812779853101
 20
-206.5625838678388
 30
0.0
 40
9.467824895127983
 50
82.13956854009896
 51
86.97790503437335
  0
ARC
  5
176
  8
0
  6
CONTINUOUS
 62
     7
 10
-1790.6828203427
 20
-210.7138353120274
 30
0.0
 40
14.71106215105378
 50
170.5001303234349
 51
180.0
  0
ARC
  5
177
  8
0
  6
CONTINUOUS
 62
     7
 10
-1774.596597508557
 20
-241.4345260631951
 30
0.0
 40
44.14805740699572
 50
64.74397122578269
 51
67.85151778984128
  0
ARC
  5
178
  8
0
  6
CONTINUOUS
 62
     7
 10
-1793.828221735168
 20
-212.5097462487824
 30
0.0
 40
8.088179229674502
 50
256.6418314281946
 51
270.0000000073535
  0
LINE
  5
179
  8
0
  6
CONTINUOUS
 62
   253
 10
-1798.804028378123
 20
-222.2173622795242
 30
0.0
 11
-1799.676215556585
 21
-222.2173622795242
 31
0.0
  0
LINE
  5
17A
  8
0
  6
CONTINUOUS
 62
     7
 10
-1301.925426161934
 20
-419.3982417973612
 30
0.0
 11
-1282.631034534381
 21
-422.5423265550468
 31
0.0
  0
ARC
  5
17B
  8
0
  6
CONTINUOUS
 62
     7
 10
-1795.569188752071
 20
-209.8733272105621
 30
0.0
 40
11.32043335883723
 50
308.5462005246767
 51
313.4273348696448
  0
ARC
  5
17C
  8
0
  6
CONTINUOUS
 62
     7
 10
-1789.944826854957
 20
-273.9685553897162
 30
0.0
 40
80.12070268488202
 50
63.9672686342223
 51
64.74397122578256
  0
ARC
  5
17D
  8
0
  6
CONTINUOUS
 62
     7
 10
-1777.835833724999
 20
-203.7707542869138
 30
0.0
 40
7.491859035442386
 50
118.1110911698032
 51
123.3087824538086
  0
ARC
  5
17E
  8
0
  6
CONTINUOUS
 62
     7
 10
-1793.708179197763
 20
-212.2090684485944
 30
0.0
 40
8.333956556270454
 50
295.0259803177088
 51
308.546200524667
  0
ARC
  5
17F
  8
0
  6
CONTINUOUS
 62
     7
 10
-1793.828221735168
 20
-212.5097462487791
 30
0.0
 40
8.088179229677833
 50
270.0000000073535
 51
283.3581685865067
  0
ARC
  5
180
  8
0
  6
CONTINUOUS
 62
     7
 10
-1790.6828203427
 20
-210.7138353120274
 30
0.0
 40
14.71106215105378
 50
180.0
 51
189.4998696765651
  0
ARC
  5
181
  8
0
  6
CONTINUOUS
 62
     7
 10
-1774.766317168649
 20
-236.6693663421032
 30
0.0
 40
44.14805740701375
 50
71.72225435999292
 51
74.82980092405012
  0
ARC
  5
182
  8
0
  6
CONTINUOUS
 62
     7
 10
-1792.9328203427
 20
-210.7138353120274
 30
0.0
 40
14.71106215105356
 50
180.0
 51
189.4998696765652
  0
ARC
  5
183
  8
0
  6
CONTINUOUS
 62
     7
 10
-1777.697416295119
 20
-199.2259290873506
 30
0.0
 40
6.676126040535294
 50
128.5952913892703
 51
133.813228314499
  0
LINE
  5
184
  8
0
  6
CONTINUOUS
 62
     7
 10
-1803.128221735368
 20
-209.5979254784455
 30
0.0
 11
-1800.179910685331
 21
-209.5979254784455
 31
0.0
  0
LINE
  5
185
  8
0
  6
CONTINUOUS
 62
     7
 10
-1798.878221735369
 20
-218.0979254784453
 30
0.0
 11
-1795.929910685332
 21
-218.0979254784453
 31
0.0
  0
ARC
  5
186
  8
0
  6
CONTINUOUS
 62
     7
 10
-1789.504499310505
 20
-209.7683755850702
 30
0.0
 40
8.970775240562661
 50
189.4998696765573
 51
200.0963627037806
  0
ARC
  5
187
  8
0
  6
CONTINUOUS
 62
     7
 10
-1793.558649719622
 20
-207.8213254297303
 30
0.0
 40
9.25496762467848
 50
103.3581685865101
 51
115.0259803177086
  0
ARC
  5
188
  8
0
  6
CONTINUOUS
 62
     7
 10
-1380.02943797272
 20
-318.0982053377256
 30
0.0
 40
98.4826913854813
 50
244.1270702800992
 51
244.7269898300728
  0
ARC
  5
189
  8
0
  6
CONTINUOUS
 62
     7
 10
-1791.128221735371
 20
-207.3478821559195
 30
0.0
 40
6.249956677473772
 50
76.64183142083874
 51
89.99999999999189
  0
ARC
  5
18A
  8
0
  6
CONTINUOUS
 62
     7
 10
-1932.621778264626
 20
-208.2870681704836
 30
0.0
 40
3.689142692037822
 50
90.0
 51
117.19620997228
  0
LINE
  5
18B
  8
0
  6
CONTINUOUS
 62
     7
 10
-1391.085126208116
 20
-416.0872431636251
 30
0.0
 11
-1328.838885637866
 21
-423.049412152454
 31
0.0
  0
ARC
  5
18C
  8
0
  6
CONTINUOUS
 62
     7
 10
-1773.13187620891
 20
-203.9846304967598
 30
0.0
 40
13.27077503670574
 50
133.8132283145183
 51
136.437537117482
  0
ARC
  5
18D
  8
0
  6
CONTINUOUS
 62
     7
 10
-1932.637040590275
 20
-210.3761374250857
 30
0.0
 40
4.109086887674711
 50
208.9909716577542
 51
222.1466365973489
  0
ARC
  5
18E
  8
0
  6
CONTINUOUS
 62
     7
 10
-1779.658807208773
 20
-195.1104258190291
 30
0.0
 40
2.123772546945613
 50
108.1259379470644
 51
115.4998154274871
  0
ARC
  5
18F
  8
0
  6
CONTINUOUS
 62
     7
 10
-1793.828221735915
 20
-206.6861047081348
 30
0.0
 40
8.088179229677833
 50
90.00000000735349
 51
103.3581685865067
  0
ARC
  5
190
  8
0
  6
CONTINUOUS
 62
     7
 10
-1788.485915404828
 20
-209.5979254784457
 30
0.0
 40
10.00352226270929
 50
170.5001303234278
 51
180.0
  0
ARC
  5
191
  8
0
  6
CONTINUOUS
 62
     7
 10
-1789.504499310505
 20
-209.4274753718213
 30
0.0
 40
8.970775240562434
 50
159.9036372962193
 51
170.5001303234428
  0
ARC
  5
192
  8
0
  6
CONTINUOUS
 62
     7
 10
-1788.485915404828
 20
-209.5979254784457
 30
0.0
 40
10.00352226270929
 50
180.0
 51
189.4998696765722
  0
ARC
  5
193
  8
0
  6
CONTINUOUS
 62
     7
 10
-1931.666647426462
 20
-209.497660709846
 30
0.0
 40
5.276926612103718
 50
159.9036372962186
 51
170.500130323426
  0
ARC
  5
194
  8
0
  6
CONTINUOUS
 62
     7
 10
-1769.984701043803
 20
-205.7467629002746
 30
0.0
 40
16.84570491014007
 50
148.9441543901474
 51
153.8527629962024
  0
ARC
  5
195
  8
0
  6
CONTINUOUS
 62
     7
 10
-1791.726933891639
 20
-209.3773429872586
 30
0.0
 40
11.60923854659938
 50
159.9036373035676
 51
170.5001303308011
  0
ARC
  5
196
  8
0
  6
CONTINUOUS
 62
     7
 10
-1933.909629727833
 20
-209.5480561614452
 30
0.0
 40
3.682786926334993
 50
297.7624206629398
 51
316.7209420213234
  0
ARC
  5
197
  8
0
  6
CONTINUOUS
 62
     7
 10
-1788.573942395527
 20
-209.4279070961266
 30
0.0
 40
9.961661189587907
 50
200.0963627037809
 51
206.3355394111728
  0
ARC
  5
198
  8
0
  6
CONTINUOUS
 62
     7
 10
-1934.659512708065
 20
-209.5979254784458
 30
0.0
 40
4.318823356683543
 50
0.0000000000003682
 51
17.82826793986684
  0
ARC
  5
199
  8
0
  6
CONTINUOUS
 62
     7
 10
-1933.440253017701
 20
-209.2058003592727
 30
0.0
 40
3.038059404336623
 50
17.82826793986873
 51
43.27905797867522
  0
ARC
  5
19A
  8
0
  6
CONTINUOUS
 62
     7
 10
-1792.087254719013
 20
-209.3225237463514
 30
0.0
 40
11.32043335883659
 50
128.5462005246765
 51
138.4890057823052
  0
ARC
  5
19B
  8
0
  6
CONTINUOUS
 62
     7
 10
-1770.221289646928
 20
-206.0398302175704
 30
0.0
 40
16.81439582141567
 50
140.4755996788034
 51
142.7516481075558
  0
ARC
  5
19C
  8
0
  6
CONTINUOUS
 62
     7
 10
-1790.408766484239
 20
-209.597925478018
 30
0.0
 40
12.94573469293159
 50
180.0000000073532
 51
189.4998696839151
  0
ARC
  5
19D
  8
0
  6
CONTINUOUS
 62
     7
 10
-1791.336527384212
 20
-208.2250981680901
 30
0.0
 40
7.151565891794417
 50
64.9740196896386
 51
76.64183142083851
  0
ARC
  5
19E
  8
0
  6
CONTINUOUS
 62
     7
 10
-1822.91382939905
 20
-192.3119935072078
 30
0.0
 40
28.55931554145295
 50
322.752142338308
 51
332.841658307869
  0
ARC
  5
19F
  8
0
  6
CONTINUOUS
 62
     7
 10
-1790.522683766321
 20
-209.8179492669121
 30
0.0
 40
12.89156153945181
 50
150.6912071634338
 51
159.9036373035675
  0
ARC
  5
1A0
  8
0
  6
CONTINUOUS
 62
     7
 10
-1931.067480423116
 20
-209.5979254784457
 30
0.0
 40
5.884424860430837
 50
170.5001303234501
 51
180.0
  0
ARC
  5
1A1
  8
0
  6
CONTINUOUS
 62
     7
 10
-1791.726933891569
 20
-209.8185079691112
 30
0.0
 40
11.60923854661346
 50
189.4998696839163
 51
200.0963627111371
  0
ARC
  5
1A2
  8
0
  6
CONTINUOUS
 62
     7
 10
-1792.473514429983
 20
-209.3851150492562
 30
0.0
 40
8.747607595454259
 50
41.51099422503886
 51
51.45379948267886
  0
ARC
  5
1A3
  8
0
  6
CONTINUOUS
 62
     7
 10
-1380.24503121087
 20
-319.9694884365098
 30
0.0
 40
96.72313445117328
 50
257.1432576078251
 51
263.4518483806981
  0
ARC
  5
1A4
  8
0
  6
CONTINUOUS
 62
     7
 10
-1931.666647426462
 20
-209.6981902470455
 30
0.0
 40
5.276926612103718
 50
189.499869676574
 51
200.0963627037813
  0
ARC
  5
1A5
  8
0
  6
CONTINUOUS
 62
     7
 10
-1887.16723552739
 20
1207.725100178459
 30
0.0
 40
3.243386159665033
 50
109.633244161833
 51
120.9064491114771
  0
ARC
  5
1A6
  8
0
  6
CONTINUOUS
 62
     7
 10
-1836.084805974223
 20
-341.6347660490752
 30
0.0
 40
8.938617339192222
 50
339.0103328702085
 51
344.6708064053295
  0
LINE
  5
1A7
  8
0
  6
CONTINUOUS
 62
     7
 10
-1832.750000000002
 20
1116.320138271537
 30
0.0
 11
-1833.188888888839
 21
1116.320138271537
 31
0.0
  0
LINE
  5
1A8
  8
0
  6
CONTINUOUS
 62
   251
 10
-1830.99999999932
 20
-253.0979254817072
 30
0.0
 11
-1830.99999999932
 21
-256.0979254817073
 31
0.0
  0
ARC
  5
1A9
  8
0
  6
CONTINUOUS
 62
     7
 10
-1830.370786516195
 20
-345.2159577716732
 30
0.0
 40
1.868444050921125
 50
282.8101097705485
 51
289.6332441618129
  0
LINE
  5
1AA
  8
0
  6
CONTINUOUS
 62
     7
 10
-1833.188888888854
 20
1116.320138271538
 30
0.0
 11
-1884.811111111026
 21
1116.32013827154
 31
0.0
  0
LINE
  5
1AB
  8
0
  6
CONTINUOUS
 62
   251
 10
-1830.594202898059
 20
1210.87428243113
 30
0.0
 11
-1829.955870378924
 21
1210.844876603148
 31
0.0
  0
LINE
  5
1AC
  8
0
  6
CONTINUOUS
 62
     7
 10
-1918.319221200455
 20
-81.54919777048325
 30
0.0
 11
-1911.323784443415
 21
-81.54919777048325
 31
0.0
  0
ARC
  5
1AD
  8
0
  6
CONTINUOUS
 62
     7
 10
-1835.614080889721
 20
-342.0844018225882
 30
0.0
 40
8.389361789278293
 50
353.3966987681025
 51
359.9999999999337
  0
LINE
  5
1AE
  8
0
  6
CONTINUOUS
 62
     7
 10
-1921.676215556585
 20
-228.6703320844928
 30
0.0
 11
-1921.676215556585
 21
-224.5979254817148
 31
0.0
  0
LINE
  5
1AF
  8
0
  6
CONTINUOUS
 62
     7
 10
-1885.24999999999
 20
1116.320138271539
 30
0.0
 11
-1884.81111111105
 21
1116.320138271539
 31
0.0
  0
ARC
  5
1B0
  8
0
  6
CONTINUOUS
 62
     7
 10
-1884.410504785081
 20
1206.122921628035
 30
0.0
 40
6.351255605451414
 50
164.6708064053308
 51
173.3966987681058
  0
LINE
  5
1B1
  8
0
  6
CONTINUOUS
 62
   251
 10
-1827.224719100654
 20
1205.888550859078
 30
0.0
 11
-1830.999999999538
 21
1205.917536603804
 31
0.0
  0
LINE
  5
1B2
  8
0
  6
CONTINUOUS
 62
     7
 10
-1806.676215556585
 20
-229.896917661874
 30
0.0
 11
-1806.676215556585
 21
-239.0979254817149
 31
0.0
  0
ARC
  5
1B3
  8
0
  6
CONTINUOUS
 62
     7
 10
-1836.084805974579
 20
1205.438915085566
 30
0.0
 40
8.938617339336085
 50
15.3291935942982
 51
20.98966712931849
  0
ARC
  5
1B4
  8
0
  6
CONTINUOUS
 62
     7
 10
-1801.492091791756
 20
-85.93494497285967
 30
0.0
 40
1.8198468133368
 50
316.908005515434
 51
356.2144753081477
  0
ARC
  5
1B5
  8
0
  6
CONTINUOUS
 62
     7
 10
-1887.629213482658
 20
1209.020106808263
 30
0.0
 40
1.868444050924234
 50
102.8101097705275
 51
109.6332441617797
  0
CIRCLE
  5
1B6
  8
0
  6
CONTINUOUS
 62
   253
 10
-1859.000000000185
 20
1166.902074518295
 30
0.0
 40
24.99999999999998
  0
LINE
  5
1B7
  8
0
  6
CONTINUOUS
 62
   251
 10
-1808.499999999492
 20
-256.09792548171
 30
0.0
 11
-1827.224719100435
 21
-256.0979254817075
 31
0.0
  0
ARC
  5
1B8
  8
0
  6
CONTINUOUS
 62
   251
 10
-1858.999999998667
 20
-0.0979254817007891
 30
0.0
 40
343.1596950482407
 50
269.4990975611081
 51
274.6802329612427
  0
ARC
  5
1B9
  8
0
  6
CONTINUOUS
 62
     7
 10
-1833.589495214022
 20
1206.122921627945
 30
0.0
 40
6.35125560549029
 50
6.60330123157945
 51
15.32919359429684
  0
ARC
  5
1BA
  8
0
  6
CONTINUOUS
 62
     7
 10
-1835.614080890045
 20
1205.888550859093
 30
0.0
 40
8.389361789389982
 50
359.9999999999029
 51
6.603301231589398
  0
LINE
  5
1BB
  8
0
  6
CONTINUOUS
 62
     7
 10
-1832.999999999519
 20
1116.902074518293
 30
0.0
 11
-1832.999999999519
 21
1116.320138271537
 31
0.0
  0
ARC
  5
1BC
  8
0
  6
CONTINUOUS
 62
   251
 10
-1859.000000000185
 20
863.9020745182935
 30
0.0
 40
343.1596950482408
 50
85.31976703854032
 51
94.68023296124274
  0
LINE
  5
1BD
  8
0
  6
CONTINUOUS
 62
   251
 10
-1829.955870378762
 20
-347.0407275666653
 30
0.0
 11
-1830.594202897896
 21
-347.0701333946453
 31
0.0
  0
LINE
  5
1BE
  8
0
  6
CONTINUOUS
 62
   251
 10
-1886.999999999538
 20
1205.91753660391
 30
0.0
 11
-1890.775280898409
 21
1205.888550859187
 31
0.0
  0
LINE
  5
1BF
  8
0
  6
CONTINUOUS
 62
   251
 10
-1830.999999999532
 20
1119.902074518292
 30
0.0
 11
-1830.999999999533
 21
1116.902074518293
 31
0.0
  0
ARC
  5
1C0
  8
0
  6
CONTINUOUS
 62
   253
 10
-1858.999999998667
 20
-303.0979254817022
 30
0.0
 40
24.99999999999999
 50
0.0
 51
96.89210258242281
  0
LINE
  5
1C1
  8
0
  6
CONTINUOUS
 62
     7
 10
-1918.319221200455
 20
-218.415120262114
 30
0.0
 11
-1911.323784443415
 21
-218.415120262114
 31
0.0
  0
ARC
  5
1C2
  8
0
  6
CONTINUOUS
 62
     7
 10
-1831.403407063995
 20
-343.4308181333057
 30
0.0
 40
3.924507363737135
 50
326.0957290279028
 51
339.0103328702286
  0
ARC
  5
1C3
  8
0
  6
CONTINUOUS
 62
     7
 10
-1830.83276447146
 20
-343.920951141871
 30
0.0
 40
3.243386159659644
 50
289.6332441618127
 51
300.9064491114747
  0
LINE
  5
1C4
  8
0
  6
CONTINUOUS
 62
     7
 10
-1799.676215556585
 20
-86.05509455693155
 30
0.0
 11
-1799.676215556585
 21
-86.59792548171491
 31
0.0
  0
ARC
  5
1C5
  8
0
  6
CONTINUOUS
 62
   251
 10
-1859.000000000165
 20
863.9020745182937
 30
0.0
 40
348.1330239619835
 50
85.3197670385403
 51
94.68023296124278
  0
ARC
  5
1C6
  8
0
  6
CONTINUOUS
 62
     7
 10
-1830.832764471642
 20
1207.725100178382
 30
0.0
 40
3.243386159637972
 50
59.09355088809951
 51
70.36675583772148
  0
LINE
  5
1C7
  8
0
  6
CONTINUOUS
 62
   251
 10
-1830.999999999307
 20
-256.0979254817073
 30
0.0
 11
-1862.0
 21
-256.0979254817032
 31
0.0
  0
ARC
  5
1C8
  8
0
  6
CONTINUOUS
 62
     7
 10
-1903.238559938192
 20
-226.7077951606828
 30
0.0
 40
15.83873490330915
 50
162.2016119947514
 51
197.7983880052491
  0
LINE
  5
1C9
  8
0
  6
CONTINUOUS
 62
     7
 10
-1885.249999999988
 20
-43.09792548180003
 30
0.0
 11
-1885.24999999999
 21
1116.320138271539
 31
0.0
  0
LINE
  5
1CA
  8
0
  6
CONTINUOUS
 62
     7
 10
-1918.319221200455
 20
-221.8663925508824
 30
0.0
 11
-1911.323784443415
 21
-221.8663925508824
 31
0.0
  0
LINE
  5
1CB
  8
0
  6
CONTINUOUS
 62
   251
 10
-1890.775280898418
 20
1119.9020745183
 30
0.0
 11
-1886.999999999546
 21
1119.9020745183
 31
0.0
  0
LINE
  5
1CC
  8
0
  6
CONTINUOUS
 62
   251
 10
-1830.999999999546
 20
1119.902074518292
 30
0.0
 11
-1827.224719100663
 21
1119.902074518292
 31
0.0
  0
ARC
  5
1CD
  8
0
  6
CONTINUOUS
 62
     7
 10
-1881.915194024662
 20
1205.438915085677
 30
0.0
 40
8.938617339158064
 50
159.0103328701873
 51
164.6708064053314
  0
LINE
  5
1CE
  8
0
  6
CONTINUOUS
 62
   251
 10
-1830.999999999546
 20
1119.902074518292
 30
0.0
 11
-1830.999999999538
 21
1205.917536603804
 31
0.0
  0
LINE
  5
1CF
  8
0
  6
CONTINUOUS
 62
   253
 10
-1884.811111111048
 20
-43.09792548180003
 30
0.0
 11
-1884.81111111105
 21
1116.320138271539
 31
0.0
  0
ARC
  5
1D0
  8
0
  6
CONTINUOUS
 62
     7
 10
-1830.330170147339
 20
-344.760510595864
 30
0.0
 40
2.264886731235233
 50
300.9064491114758
 51
319.9394559856735
  0
LINE
  5
1D1
  8
0
  6
CONTINUOUS
 62
   253
 10
-1829.112359550091
 20
1116.902074518292
 30
0.0
 11
-1830.999999999533
 21
1116.902074518293
 31
0.0
  0
LINE
  5
1D2
  8
0
  6
CONTINUOUS
 62
   251
 10
-1827.224719100443
 20
-342.084401822544
 30
0.0
 11
-1808.4999999995
 21
-342.0844018225659
 31
0.0
  0
ARC
  5
1D3
  8
0
  6
CONTINUOUS
 62
     7
 10
-1927.171778264637
 20
-207.4603843246483
 30
0.0
 40
5.937458843605831
 50
90.0000000001457
 51
103.3581685718162
  0
LINE
  5
1D4
  8
0
  6
CONTINUOUS
 62
     7
 10
-1918.319221200455
 20
-71.8663925508824
 30
0.0
 11
-1911.323784443415
 21
-71.8663925508824
 31
0.0
  0
LINE
  5
1D5
  8
0
  6
CONTINUOUS
 62
     7
 10
-1808.276215556585
 20
-79.89691766187396
 30
0.0
 11
-1808.276215556585
 21
-89.09792548171485
 31
0.0
  0
LINE
  5
1D6
  8
0
  6
CONTINUOUS
 62
   251
 10
-1902.0
 20
-347.0407275665737
 30
0.0
 11
-1905.159420288732
 21
-347.0407275665735
 31
0.0
  0
LINE
  5
1D7
  8
0
  6
CONTINUOUS
 62
   251
 10
-1909.499999999361
 20
1119.902074518302
 30
0.0
 11
-1890.775280898418
 21
1119.9020745183
 31
0.0
  0
LINE
  5
1D8
  8
0
  6
CONTINUOUS
 62
   251
 10
-1830.999999999315
 20
-342.1133875673174
 30
0.0
 11
-1827.224719100443
 21
-342.0844018225945
 31
0.0
  0
LINE
  5
1D9
  8
0
  6
CONTINUOUS
 62
   251
 10
-1890.775280898418
 20
1119.9020745183
 30
0.0
 11
-1890.775280898409
 21
1205.888550859187
 31
0.0
  0
LINE
  5
1DA
  8
0
  6
CONTINUOUS
 62
     7
 10
-1808.276215556585
 20
-67.09792548171484
 30
0.0
 11
-1808.276215556585
 21
-79.89691766187396
 31
0.0
  0
LINE
  5
1DB
  8
0
  6
CONTINUOUS
 62
     7
 10
-1806.676215556585
 20
-67.09792548171484
 30
0.0
 11
-1806.676215556585
 21
-79.89691766187396
 31
0.0
  0
ARC
  5
1DC
  8
0
  6
CONTINUOUS
 62
     7
 10
-1811.834360457047
 20
-229.2635924674868
 30
0.0
 40
12.16021674187996
 50
335.380299858491
 51
358.9423270579236
  0
LINE
  5
1DD
  8
0
  6
CONTINUOUS
 62
   253
 10
-1906.499999999492
 20
-253.0979254816972
 30
0.0
 11
-1902.0
 21
-253.0979254816979
 31
0.0
  0
LINE
  5
1DE
  8
0
  6
CONTINUOUS
 62
     7
 10
-1806.676215556585
 20
-79.89691766187396
 30
0.0
 11
-1806.676215556585
 21
-89.09792548171485
 31
0.0
  0
LINE
  5
1DF
  8
0
  6
CONTINUOUS
 62
     7
 10
-1911.323784443415
 20
-239.0979254817149
 30
0.0
 11
-1911.323784443415
 21
-217.0979254817149
 31
0.0
  0
LINE
  5
1E0
  8
0
  6
CONTINUOUS
 62
     7
 10
-1832.75
 20
-43.09792548180003
 30
0.0
 11
-1832.750000000002
 21
1116.320138271537
 31
0.0
  0
ARC
  5
1E1
  8
0
  6
CONTINUOUS
 62
     7
 10
-1833.589495213769
 20
-342.318772591443
 30
0.0
 40
6.351255605448697
 50
344.6708064053292
 51
353.396698768108
  0
ARC
  5
1E2
  8
0
  6
CONTINUOUS
 62
     7
 10
-1884.066078743774
 20
1205.534258381828
 30
0.0
 40
6.973427246760452
 50
139.9394559856711
 51
146.0957290279007
  0
LINE
  5
1E3
  8
0
  6
CONTINUOUS
 62
   251
 10
-1827.224719100435
 20
-256.0979254817078
 30
0.0
 11
-1830.999999999307
 21
-256.0979254817073
 31
0.0
  0
LINE
  5
1E4
  8
0
  6
CONTINUOUS
 62
     7
 10
-1911.323784443415
 20
-89.09792548171485
 30
0.0
 11
-1911.323784443415
 21
-67.09792548171484
 31
0.0
  0
ARC
  5
1E5
  8
0
  6
CONTINUOUS
 62
     7
 10
-1926.973887898345
 20
-208.2937395362324
 30
0.0
 40
6.793987597207145
 50
103.3581685718252
 51
115.0259803030238
  0
ARC
  5
1E6
  8
0
  6
CONTINUOUS
 62
     7
 10
-1890.580595745063
 20
-190.4909750329423
 30
0.0
 40
33.55924624017301
 50
198.4252039337962
 51
214.7048984174254
  0
LINE
  5
1E7
  8
0
  6
CONTINUOUS
 62
   253
 10
-1851.602835252287
 20
-243.0979254817141
 30
0.0
 11
-1851.602835252288
 21
-253.0979254817047
 31
0.0
  0
ARC
  5
1E8
  8
0
  6
CONTINUOUS
 62
     7
 10
-1927.171778265184
 20
-211.7354666374381
 30
0.0
 40
5.937458843604499
 50
256.6418314135113
 51
269.9999999926633
  0
LINE
  5
1E9
  8
0
  6
CONTINUOUS
 62
     7
 10
-1800.660491588749
 20
-234.4273992384325
 30
0.0
 11
-1800.779593456509
 21
-234.3294584125473
 31
0.0
  0
LINE
  5
1EA
  8
0
  6
CONTINUOUS
 62
   253
 10
-1847.507075030852
 20
-243.0979254817141
 30
0.0
 11
-1847.507075030853
 21
-253.0979254817051
 31
0.0
  0
LINE
  5
1EB
  8
0
  6
CONTINUOUS
 62
     7
 10
-1800.660491588749
 20
-84.4273992384326
 30
0.0
 11
-1800.779593456509
 21
-84.32945841254735
 31
0.0
  0
ARC
  5
1EC
  8
0
  6
CONTINUOUS
 62
     7
 10
-1929.681969278955
 20
-209.597925480721
 30
0.0
 40
9.503346149603686
 50
350.5001303161216
 51
359.9999999926636
  0
ARC
  5
1ED
  8
0
  6
CONTINUOUS
 62
     7
 10
-1929.598343637767
 20
-209.7594429439308
 30
0.0
 40
9.463578130094287
 50
20.0963626964496
 51
29.30879283658691
  0
ARC
  5
1EE
  8
0
  6
CONTINUOUS
 62
     7
 10
-1925.893750204998
 20
-209.3957555734836
 30
0.0
 40
8.310227215691544
 50
128.5462005099893
 51
138.4890057676177
  0
ARC
  5
1EF
  8
0
  6
CONTINUOUS
 62
     7
 10
-1927.259900400108
 20
-207.6811091643034
 30
0.0
 40
6.117881744714559
 50
115.0259803030224
 51
128.5462005099837
  0
ARC
  5
1F0
  8
0
  6
CONTINUOUS
 62
     7
 10
-1928.449806324824
 20
-209.8000953886015
 30
0.0
 40
8.310227215691544
 50
308.5462005099893
 51
318.4890057676177
  0
ARC
  5
1F1
  8
0
  6
CONTINUOUS
 62
     7
 10
-1926.762087075002
 20
-210.5686320482217
 30
0.0
 40
7.150633529784237
 50
214.3237424192447
 51
221.5109942177136
  0
ARC
  5
1F2
  8
0
  6
CONTINUOUS
 62
     7
 10
-1929.681969278955
 20
-209.597925480721
 30
0.0
 40
9.503346149603686
 50
359.9999999926636
 51
9.49986966920551
  0
LINE
  5
1F3
  8
0
  6
CONTINUOUS
 62
   251
 10
-1886.999999999546
 20
1119.9020745183
 30
0.0
 11
-1830.999999999546
 21
1119.902074518292
 31
0.0
  0
ARC
  5
1F4
  8
0
  6
CONTINUOUS
 62
     7
 10
-1927.581469455066
 20
-210.568632048119
 30
0.0
 40
7.15063352978128
 50
318.4890057676183
 51
330.6912071487512
  0
ARC
  5
1F5
  8
0
  6
CONTINUOUS
 62
     7
 10
-1927.171778265184
 20
-211.7354666374368
 30
0.0
 40
5.937458843605831
 50
269.9999999926634
 51
283.3581685718162
  0
LINE
  5
1F6
  8
0
  6
CONTINUOUS
 62
   251
 10
-1830.594202898056
 20
1210.87428243113
 30
0.0
 11
-1830.999999999515
 21
1205.917536603802
 31
0.0
  0
ARC
  5
1F7
  8
0
  6
CONTINUOUS
 62
     7
 10
-1791.208766484237
 20
-209.5979254781207
 30
0.0
 40
12.94573469293359
 50
170.5001303307928
 51
180.000000007353
  0
ARC
  5
1F8
  8
0
  6
CONTINUOUS
 62
     7
 10
-1792.887254719013
 20
-209.3225237464532
 30
0.0
 40
11.32043335883548
 50
128.5462005246766
 51
138.4890057823064
  0
ARC
  5
1F9
  8
0
  6
CONTINUOUS
 62
   251
 10
-1858.999999998688
 20
-0.0979254817010111
 30
0.0
 40
348.1330239619834
 50
269.5062534886592
 51
274.6802329612428
  0
ARC
  5
1FA
  8
0
  6
CONTINUOUS
 62
     7
 10
-1925.893750205053
 20
-209.8000953889316
 30
0.0
 40
8.310227215686968
 50
221.5109942177135
 51
231.4537994753481
  0
LINE
  5
1FB
  8
0
  6
CONTINUOUS
 62
     7
 10
-1286.225709929861
 20
-428.9020745182947
 30
0.0
 11
-1278.725709929861
 21
-428.9020745182947
 31
0.0
  0
ARC
  5
1FC
  8
0
  6
CONTINUOUS
 62
     7
 10
-1829.112359550091
 20
1118.108998626504
 30
0.0
 40
1.206924108211105
 50
269.9999999999895
 51
309.7973227801267
  0
LINE
  5
1FD
  8
0
  6
CONTINUOUS
 62
   251
 10
-1830.999999999338
 20
-342.1133875673193
 30
0.0
 11
-1830.594202897898
 21
-347.0701333946456
 31
0.0
  0
ARC
  5
1FE
  8
0
  6
CONTINUOUS
 62
     7
 10
-1766.015698734588
 20
1111.887507926562
 30
0.0
 40
46.76482711927232
 50
173.7211262871774
 51
179.9821531631165
  0
ARC
  5
1FF
  8
0
  6
CONTINUOUS
 62
     7
 10
-1882.3859191091
 20
1205.888550859181
 30
0.0
 40
8.389361789309602
 50
173.3966987681288
 51
179.9999999999333
  0
ARC
  5
200
  8
0
  6
CONTINUOUS
 62
     7
 10
-1791.74310065038
 20
-208.1001734050234
 30
0.0
 40
12.86412881685989
 50
128.5462005173248
 51
138.4890057749534
  0
LINE
  5
201
  8
0
  6
CONTINUOUS
 62
   253
 10
-1829.112359549884
 20
-253.0979254817076
 30
0.0
 11
-1811.499999999492
 21
-253.09792548171
 31
0.0
  0
LINE
  5
202
  8
0
  6
CONTINUOUS
 62
   253
 10
-1833.188888888837
 20
-43.09792548180003
 30
0.0
 11
-1833.188888888839
 21
1116.320138271537
 31
0.0
  0
LINE
  5
203
  8
0
  6
CONTINUOUS
 62
     7
 10
-1778.273603985039
 20
-233.4006749855679
 30
0.0
 11
-1799.676215556594
 21
-222.8937549299715
 31
0.0
  0
ARC
  5
204
  8
0
  6
CONTINUOUS
 62
     7
 10
-1929.59834363773
 20
-209.4364080175318
 30
0.0
 40
9.463578130098167
 50
330.6912071487476
 51
339.9036372888807
  0
ARC
  5
205
  8
0
  6
CONTINUOUS
 62
     7
 10
-1928.714314568561
 20
-209.7598530821345
 30
0.0
 40
8.52223647854395
 50
339.9036372888806
 51
350.5001303160929
  0
LINE
  5
206
  8
0
  6
CONTINUOUS
 62
     7
 10
-1930.919496643159
 20
-201.0979254811069
 30
0.0
 11
-1933.049634249307
 21
-204.622765853014
 31
0.0
  0
LINE
  5
207
  8
0
  6
CONTINUOUS
 62
     7
 10
-1800.545225073808
 20
-234.5298262407928
 30
0.0
 11
-1800.660491588749
 21
-234.4273992384325
 31
0.0
  0
ARC
  5
208
  8
0
  6
CONTINUOUS
 62
     7
 10
-1927.083656129714
 20
-211.5147417977817
 30
0.0
 40
6.117881744714559
 50
295.0259803030224
 51
308.5462005099837
  0
ARC
  5
209
  8
0
  6
CONTINUOUS
 62
     7
 10
-1926.762087074756
 20
-208.6272189139661
 30
0.0
 40
7.15063352978128
 50
138.4890057676183
 51
145.6762575288785
  0
ARC
  5
20A
  8
0
  6
CONTINUOUS
 62
     7
 10
-1927.2599004006
 20
-211.5147417977627
 30
0.0
 40
6.117881744710623
 50
231.4537994753394
 51
244.9740196823093
  0
ARC
  5
20B
  8
0
  6
CONTINUOUS
 62
     7
 10
-1927.58146945482
 20
-208.6272189138634
 30
0.0
 40
7.150633529784237
 50
29.30879283658523
 51
41.51099421771367
  0
LINE
  5
20C
  8
0
  6
CONTINUOUS
 62
   251
 10
-1902.0
 20
-256.0979254816976
 30
0.0
 11
-1909.499999999492
 21
-256.0979254816966
 31
0.0
  0
ARC
  5
20D
  8
0
  6
CONTINUOUS
 62
     7
 10
-1887.669829851512
 20
1208.564659632455
 30
0.0
 40
2.264886731237328
 50
120.9064491114768
 51
139.9394559856572
  0
LINE
  5
20E
  8
0
  6
CONTINUOUS
 62
     7
 10
-1800.545225073808
 20
-84.52982624079286
 30
0.0
 11
-1800.660491588749
 21
-84.4273992384326
 31
0.0
  0
ARC
  5
20F
  8
0
  6
CONTINUOUS
 62
     7
 10
-1307.583069325766
 20
-264.1106356414417
 30
0.0
 40
160.3021283579065
 50
264.0250540955359
 51
265.1347401757572
  0
ARC
  5
210
  8
0
  6
CONTINUOUS
 62
     7
 10
-1276.400796872815
 20
-423.4599636528087
 30
0.0
 40
0.4946485720848435
 50
234.064232061516
 51
251.8133021069299
  0
LINE
  5
211
  8
0
  6
CONTINUOUS
 62
     7
 10
-1322.489208017026
 20
-424.0112760063585
 30
0.0
 11
-1318.739208017165
 21
-424.0112760063393
 31
0.0
  0
ARC
  5
212
  8
0
  6
CONTINUOUS
 62
     7
 10
-1833.933921255057
 20
-341.73010934525
 30
0.0
 40
6.973427246734341
 50
319.9394559856485
 51
326.0957290279027
  0
ARC
  5
213
  8
0
  6
CONTINUOUS
 62
     7
 10
-1926.97388789868
 20
-210.9021114259057
 30
0.0
 40
6.793987597204447
 50
244.9740196823093
 51
256.6418314135134
  0
LINE
  5
214
  8
0
  6
CONTINUOUS
 62
   251
 10
-1886.999999999515
 20
1205.917536603912
 30
0.0
 11
-1887.405797100955
 21
1210.874282431238
 31
0.0
  0
LINE
  5
215
  8
0
  6
CONTINUOUS
 62
   253
 10
-1830.99999999932
 20
-253.0979254817073
 30
0.0
 11
-1829.112359549884
 21
-253.0979254817077
 31
0.0
  0
LINE
  5
216
  8
0
  6
CONTINUOUS
 62
   253
 10
-1830.999999999533
 20
1116.902074518293
 30
0.0
 11
-1886.999999999533
 21
1116.9020745183
 31
0.0
  0
ARC
  5
217
  8
0
  6
CONTINUOUS
 62
   253
 10
-1858.999999998667
 20
-303.0979254817022
 30
0.0
 40
25.00000000000004
 50
263.1078974175772
 51
0.0
  0
ARC
  5
218
  8
0
  6
CONTINUOUS
 62
     7
 10
-1951.984301276913
 20
371.9166411103022
 30
0.0
 40
46.76482713193337
 50
353.7211262885489
 51
359.982153162788
  0
LINE
  5
219
  8
0
  6
CONTINUOUS
 62
     7
 10
-1909.723784443415
 20
-89.09792548171485
 30
0.0
 11
-1909.723784443415
 21
-67.09792548171484
 31
0.0
  0
LINE
  5
21A
  8
0
  6
CONTINUOUS
 62
   251
 10
-1886.999999999546
 20
1119.9020745183
 30
0.0
 11
-1886.999999999538
 21
1205.91753660391
 31
0.0
  0
ARC
  5
21B
  8
0
  6
CONTINUOUS
 62
     7
 10
-1927.083656129221
 20
-207.6811091643224
 30
0.0
 40
6.117881744710623
 50
51.45379947533938
 51
64.97401968230929
  0
LINE
  5
21C
  8
0
  6
CONTINUOUS
 62
   251
 10
-1909.4999999995
 20
-342.0844018225023
 30
0.0
 11
-1902.0
 21
-342.0844018225029
 31
0.0
  0
ARC
  5
21D
  8
0
  6
CONTINUOUS
 62
     7
 10
-1928.714314568516
 20
-209.4359978795542
 30
0.0
 40
8.5222364785398
 50
9.499869669232162
 51
20.09636269644937
  0
LINE
  5
21E
  8
0
  6
CONTINUOUS
 62
     7
 10
-1882.703892927767
 20
1116.902074518299
 30
0.0
 11
-1882.703892927767
 21
1116.320138271539
 31
0.0
  0
ARC
  5
21F
  8
0
  6
CONTINUOUS
 62
     7
 10
-1927.369668631477
 20
-210.9021114258527
 30
0.0
 40
6.793987597207145
 50
283.3581685718252
 51
295.0259803030239
  0
LINE
  5
220
  8
0
  6
CONTINUOUS
 62
   253
 10
-1829.741573033233
 20
1116.902074518292
 30
0.0
 11
-1829.741573033343
 21
-43.09792548171409
 31
0.0
  0
ARC
  5
221
  8
0
  6
CONTINUOUS
 62
     7
 10
-1928.449806324769
 20
-209.3957555731535
 30
0.0
 40
8.310227215686968
 50
41.51099421771349
 51
51.45379947534812
  0
ARC
  5
222
  8
0
  6
CONTINUOUS
 62
     7
 10
-1766.02840624506
 20
521.9159421381715
 30
0.0
 40
46.7521193969188
 50
180.0169950819959
 51
186.2797254676883
  0
ARC
  5
223
  8
0
  6
CONTINUOUS
 62
     7
 10
-1886.596592934858
 20
1207.234967169898
 30
0.0
 40
3.924507363737166
 50
146.0957290279022
 51
159.0103328702271
  0
LINE
  5
224
  8
0
  6
CONTINUOUS
 62
   251
 10
-1827.224719100435
 20
-256.0979254817076
 30
0.0
 11
-1827.224719100443
 21
-342.0844018225945
 31
0.0
  0
LINE
  5
225
  8
0
  6
CONTINUOUS
 62
   253
 10
-2289.747218212021
 20
-406.7048320219409
 30
0.0
 11
-2287.497218212021
 21
-406.7048320219409
 31
0.0
  0
ARC
  5
226
  8
0
  6
CONTINUOUS
 62
     7
 10
-1276.042337185332
 20
-419.4564392372345
 30
0.0
 40
4.364292022068518
 50
252.1888664097797
 51
256.9967772101477
  0
ARC
  5
227
  8
0
  6
CONTINUOUS
 62
     7
 10
-1796.107884234481
 20
-205.4459219978953
 30
0.0
 40
9.470405177577394
 50
115.0259803103572
 51
128.5462005173181
  0
ARC
  5
228
  8
0
  6
CONTINUOUS
 62
     7
 10
-1794.027804096643
 20
-206.3942662268285
 30
0.0
 40
10.51700866440534
 50
64.97401968964306
 51
76.64183142084357
  0
ARC
  5
229
  8
0
  6
CONTINUOUS
 62
     7
 10
-1318.776522109568
 20
-424.9402921995467
 30
0.0
 40
0.9293425393411429
 50
87.69994165059427
 51
90.25033976882517
  0
ARC
  5
22A
  8
0
  6
CONTINUOUS
 62
     7
 10
-1793.087275371524
 20
-206.9104881737404
 30
0.0
 40
11.06909215135816
 50
138.4890057749539
 51
150.6912071560932
  0
ARC
  5
22B
  8
0
  6
CONTINUOUS
 62
     7
 10
-1792.215179113297
 20
-208.6631569513453
 30
0.0
 40
14.64950174938267
 50
150.6912071560854
 51
159.4577637143209
  0
ARC
  5
22C
  8
0
  6
CONTINUOUS
 62
     7
 10
-1793.857884234481
 20
-205.4459219978947
 30
0.0
 40
9.470405177576897
 50
115.0259803103571
 51
128.5462005173189
  0
ARC
  5
22D
  8
0
  6
CONTINUOUS
 62
     7
 10
-1773.421706792471
 20
-255.9792487971864
 30
0.0
 40
58.95331036828851
 50
86.97790503437345
 51
87.57626663355582
  0
LINE
  5
22E
  8
0
  6
CONTINUOUS
 62
     7
 10
-1425.252781787979
 20
-406.704832021941
 30
0.0
 11
-1778.273603985039
 21
-233.4006749855679
 31
0.0
  0
ARC
  5
22F
  8
0
  6
CONTINUOUS
 62
     7
 10
-1383.462021008126
 20
-324.2062840569135
 30
0.0
 40
92.37738866971449
 50
250.4567555777558
 51
257.1432576078254
  0
ARC
  5
230
  8
0
  6
CONTINUOUS
 62
     7
 10
-1795.569188752138
 20
-209.3225237467949
 30
0.0
 40
11.32043335883172
 50
46.57266513381429
 51
51.45379949003257
  0
LINE
  5
231
  8
0
  6
CONTINUOUS
 62
     7
 10
-1783.508600876255
 20
-199.8440180939334
 30
0.0
 11
-1789.486008828438
 21
-196.9096029510291
 31
0.0
  0
ARC
  5
232
  8
0
  6
CONTINUOUS
 62
     7
 10
-1382.898147471231
 20
-323.4813516852081
 30
0.0
 40
93.18821066176503
 50
263.4518483806989
 51
263.5697174960267
  0
ARC
  5
233
  8
0
  6
CONTINUOUS
 62
     7
 10
-1794.358649719622
 20
-207.8213254298339
 30
0.0
 40
9.254967624679278
 50
103.3581685865104
 51
115.0259803177078
  0
ARC
  5
234
  8
0
  6
CONTINUOUS
 62
     7
 10
-1795.337275371523
 20
-206.9104881737412
 30
0.0
 40
11.06909215135945
 50
138.489005774955
 51
150.6912071560929
  0
LINE
  5
235
  8
0
  6
CONTINUOUS
 62
     7
 10
-1805.933818847084
 20
-203.5224380136854
 30
0.0
 11
-1806.78091153342
 21
-205.8231434071868
 31
0.0
  0
ARC
  5
236
  8
0
  6
CONTINUOUS
 62
     7
 10
-1793.585060285744
 20
-205.4459219978947
 30
0.0
 40
9.470405177576822
 50
64.35016669943715
 51
64.97401968964273
  0
ARC
  5
237
  8
0
  6
CONTINUOUS
 62
     7
 10
-1794.628221735168
 20
-212.5097462488851
 30
0.0
 40
8.088179229674502
 50
256.6418314281946
 51
270.0000000073535
  0
ARC
  5
238
  8
0
  6
CONTINUOUS
 62
     7
 10
-1793.993100650383
 20
-208.1001734050209
 30
0.0
 40
12.86412881685635
 50
128.5462005173235
 51
138.4890057749549
  0
ARC
  5
239
  8
0
  6
CONTINUOUS
 62
     7
 10
-1382.279437972721
 20
-318.0982053377269
 30
0.0
 40
98.48269138547992
 50
244.1270702800992
 51
244.7269898300727
  0
ARC
  5
23A
  8
0
  6
CONTINUOUS
 62
     7
 10
-1382.495031210871
 20
-319.9694884365098
 30
0.0
 40
96.72313445117328
 50
257.1432576078251
 51
263.4518483806982
  0
ARC
  5
23B
  8
0
  6
CONTINUOUS
 62
     7
 10
-1794.070128473749
 20
-208.2756007430807
 30
0.0
 40
9.740801093200957
 50
138.4890057823062
 51
150.6912071634387
  0
ARC
  5
23C
  8
0
  6
CONTINUOUS
 62
     7
 10
-1378.307564041899
 20
-309.6853863831408
 30
0.0
 40
107.7859867846909
 50
244.726989830073
 51
250.4567555777562
  0
ARC
  5
23D
  8
0
  6
CONTINUOUS
 62
     7
 10
-1793.721472260113
 20
-205.1042426795243
 30
0.0
 40
9.191112760998433
 50
76.6418314208467
 51
89.99999999999996
  0
ARC
  5
23E
  8
0
  6
CONTINUOUS
 62
     7
 10
-1317.923319582551
 20
-398.6637474118064
 30
0.0
 40
25.36026491786414
 50
264.7806787012773
 51
266.9319107889559
  0
ARC
  5
23F
  8
0
  6
CONTINUOUS
 62
     7
 10
-1240.948016716352
 20
372.5574772706332
 30
0.0
 40
800.4478275821391
 50
263.802825530964
 51
264.0250540955333
  0
LINE
  5
240
  8
0
  6
CONTINUOUS
 62
   253
 10
-1803.683818847084
 20
-203.5224380136854
 30
0.0
 11
-1805.933818847084
 21
-203.5224380136854
 31
0.0
  0
ARC
  5
241
  8
0
  6
CONTINUOUS
 62
     7
 10
-1795.971472260113
 20
-205.1042426795244
 30
0.0
 40
9.191112760998433
 50
90.00000000000006
 51
103.3581685791533
  0
ARC
  5
242
  8
0
  6
CONTINUOUS
 62
     7
 10
-1320.175977600421
 20
-440.6913421013936
 30
0.0
 40
16.72765714461943
 50
86.07443354405312
 51
86.93191078895556
  0
ARC
  5
243
  8
0
  6
CONTINUOUS
 62
     7
 10
-1276.59271505881
 20
-424.0441431984466
 30
0.0
 40
0.12024843689898
 50
353.0321524473905
 51
71.8133021068952
  0
ARC
  5
244
  8
0
  6
CONTINUOUS
 62
     7
 10
-1794.358649719167
 20
-211.374525527219
 30
0.0
 40
9.25496762467634
 50
244.9740196969962
 51
256.6418314281974
  0
ARC
  5
245
  8
0
  6
CONTINUOUS
 62
     7
 10
-1794.070128473412
 20
-210.9202502138973
 30
0.0
 40
9.74080109319834
 50
209.3087928512619
 51
221.5109942323972
  0
ARC
  5
246
  8
0
  6
CONTINUOUS
 62
     7
 10
-1099.986611767549
 20
331.1784109246898
 30
0.0
 40
775.3316689387287
 50
256.6882977207229
 51
256.73135002009
  0
ARC
  5
247
  8
0
  6
CONTINUOUS
 62
     7
 10
-1277.231527213705
 20
-424.6060656198248
 30
0.0
 40
0.9208593290142706
 50
54.06423206151118
 51
76.9967772101324
  0
LINE
  5
248
  8
0
  6
CONTINUOUS
 62
     7
 10
-1318.739208017165
 20
-424.0112760063393
 30
0.0
 11
-1302.489208017164
 21
-424.0112760063396
 31
0.0
  0
LINE
  5
249
  8
0
  6
CONTINUOUS
 62
   253
 10
-1753.254976230279
 20
-197.8325938182782
 30
0.0
 11
-1754.779743065682
 21
-201.9738635265769
 31
0.0
  0
LINE
  5
24A
  8
0
  6
CONTINUOUS
 62
     7
 10
-2287.497218212021
 20
-406.7048320219409
 30
0.0
 11
-1938.849839651711
 21
-235.5476757151448
 31
0.0
  0
ARC
  5
24B
  8
0
  6
CONTINUOUS
 62
     7
 10
-1792.526933891624
 20
-209.3773429873663
 30
0.0
 40
11.60923854661445
 50
159.9036373035686
 51
170.5001303307884
  0
ARC
  5
24C
  8
0
  6
CONTINUOUS
 62
     7
 10
-1279.625596020872
 20
-430.6095372817815
 30
0.0
 40
7.350286069939495
 50
72.18886640977803
 51
76.73135002009872
  0
ARC
  5
24D
  8
0
  6
CONTINUOUS
 62
     7
 10
-1240.948016717863
 20
372.5574772567155
 30
0.0
 40
800.4478275681397
 50
263.6960832895977
 51
263.802825530964
  0
ARC
  5
24E
  8
0
  6
CONTINUOUS
 62
     7
 10
-1795.665140423582
 20
-206.3942662268291
 30
0.0
 40
10.51700866440591
 50
103.3581685791569
 51
115.0259803103568
  0
LINE
  5
24F
  8
0
  6
CONTINUOUS
 62
     7
 10
-1804.53091153342
 20
-205.8231434071868
 30
0.0
 11
-1803.683818847084
 21
-203.5224380136854
 31
0.0
  0
ARC
  5
250
  8
0
  6
CONTINUOUS
 62
     7
 10
-1789.96517911331
 20
-208.6631569513407
 30
0.0
 40
14.64950174936965
 50
150.6912071560768
 51
159.4577637143203
  0
LINE
  5
251
  8
0
  6
CONTINUOUS
 62
   253
 10
-1425.252781787979
 20
-406.704832021941
 30
0.0
 11
-1423.002781787979
 21
-406.704832021941
 31
0.0
  0
ARC
  5
252
  8
0
  6
CONTINUOUS
 62
     7
 10
-1791.208766484255
 20
-209.5979254781207
 30
0.0
 40
12.94573469291471
 50
180.000000007353
 51
189.4998696839274
  0
LINE
  5
253
  8
0
  6
CONTINUOUS
 62
     7
 10
-1301.925426161934
 20
-419.3982417973612
 30
0.0
 11
-1753.254976230279
 21
-197.8325938182782
 31
0.0
  0
ARC
  5
254
  8
0
  6
CONTINUOUS
 62
     7
 10
-1792.180737851055
 20
-210.9644972335313
 30
0.0
 40
13.19231653024399
 50
189.4998696765653
 51
200.0963627037848
  0
ARC
  5
255
  8
0
  6
CONTINUOUS
 62
     7
 10
-1790.812271799632
 20
-210.963862344847
 30
0.0
 40
14.64950174938359
 50
159.4577637143216
 51
159.9036372962155
  0
ARC
  5
256
  8
0
  6
CONTINUOUS
 62
     7
 10
-1794.430737851068
 20
-210.4631733905189
 30
0.0
 40
13.19231653023094
 50
159.9036372962157
 51
170.5001303234458
  0
ARC
  5
257
  8
0
  6
CONTINUOUS
 62
     7
 10
-1784.675331339924
 20
-266.1953275441559
 30
0.0
 40
70.88152268224769
 50
69.78688607491642
 51
71.72225435999191
  0
LINE
  5
258
  8
0
  6
CONTINUOUS
 62
   253
 10
-1780.992089652654
 20
-197.0831716217364
 30
0.0
 11
-1318.739208017165
 21
-424.0112760063391
 31
0.0
  0
ARC
  5
259
  8
0
  6
CONTINUOUS
 62
     7
 10
-1792.887254718948
 20
-209.8733272102242
 30
0.0
 40
11.32043335882818
 50
221.5109942323975
 51
231.453799490034
  0
ARC
  5
25A
  8
0
  6
CONTINUOUS
 62
     7
 10
-1791.322683766365
 20
-209.3779016892521
 30
0.0
 40
12.8915615394642
 50
200.0963627111361
 51
209.3087928512603
  0
ARC
  5
25B
  8
0
  6
CONTINUOUS
 62
     7
 10
-1794.748264273319
 20
-206.9867825084235
 30
0.0
 40
8.333956556271774
 50
115.0259803177079
 51
128.5462005246639
  0
ARC
  5
25C
  8
0
  6
CONTINUOUS
 62
     7
 10
-1334.246433640912
 20
-577.3569363204324
 30
0.0
 40
154.0769102017196
 50
84.78067870128562
 51
85.13474017575717
  0
LINE
  5
25D
  8
0
  6
CONTINUOUS
 62
   253
 10
-1391.085126208116
 20
-416.0872431636251
 30
0.0
 11
-1393.335126208116
 21
-416.0872431636251
 31
0.0
  0
ARC
  5
25E
  8
0
  6
CONTINUOUS
 62
     7
 10
-1318.795593465944
 20
-420.5754192844047
 30
0.0
 40
3.435572039659699
 50
266.0744335440625
 51
270.2503397688297
  0
ARC
  5
25F
  8
0
  6
CONTINUOUS
 62
     7
 10
-1791.32268376631
 20
-209.8179492670186
 30
0.0
 40
12.89156153946331
 50
150.6912071634435
 51
159.9036373035685
  0
ARC
  5
260
  8
0
  6
CONTINUOUS
 62
     7
 10
-1794.74826427265
 20
-212.209068448729
 30
0.0
 40
8.333956556269142
 50
231.4537994900368
 51
244.9740196969962
  0
ARC
  5
261
  8
0
  6
CONTINUOUS
 62
     7
 10
-1792.526933891578
 20
-209.8185079692178
 30
0.0
 40
11.6092385466025
 50
189.4998696839054
 51
200.096362711136
  0
ARC
  5
262
  8
0
  6
CONTINUOUS
 62
     7
 10
-1793.415140423582
 20
-206.3942662268299
 30
0.0
 40
10.51700866440688
 50
103.3581685791582
 51
115.025980310357
  0
ARC
  5
263
  8
0
  6
CONTINUOUS
 62
     7
 10
-1793.721472260113
 20
-205.1042426795253
 30
0.0
 40
9.191112760999431
 50
90.0
 51
103.3581685791518
  0
ARC
  5
264
  8
0
  6
CONTINUOUS
 62
     7
 10
-1794.628221735915
 20
-206.6861047082376
 30
0.0
 40
8.088179229677833
 50
90.00000000735349
 51
103.3581685865067
  0
ARC
  5
265
  8
0
  6
CONTINUOUS
 62
     7
 10
-1883.310433132004
 20
-482.6047891123795
 30
0.0
 40
61.77348411112393
 50
85.36606518240323
 51
86.38628537823452
  0
ARC
  5
266
  8
0
  6
CONTINUOUS
 62
     7
 10
-1892.447496405144
 20
-207.3417664358498
 30
0.0
 40
14.31514360828494
 50
121.3416192334119
 51
124.2118467077288
  0
ARC
  5
267
  8
0
  6
CONTINUOUS
 62
     7
 10
-1893.34031596059
 20
-206.5386662041714
 30
0.0
 40
13.15126307151064
 50
103.1846913308898
 51
112.3385756535218
  0
ARC
  5
268
  8
0
  6
CONTINUOUS
 62
     7
 10
-1877.630011682993
 20
-482.6642581073991
 30
0.0
 40
62.18150925088479
 50
98.45523331898505
 51
98.84760737650242
  0
LINE
  5
269
  8
0
  6
CONTINUOUS
 62
   253
 10
-2319.414873791884
 20
-416.087243163625
 30
0.0
 11
-2321.664873791884
 21
-416.0872431636251
 31
0.0
  0
ARC
  5
26A
  8
0
  6
CONTINUOUS
 62
     7
 10
-1858.089388946001
 20
-427.1117688466306
 30
0.0
 40
5.92543624497023
 50
132.411316048668
 51
134.4674981284646
  0
ARC
  5
26B
  8
0
  6
CONTINUOUS
 62
     7
 10
-1900.196892426364
 20
-197.8325938182781
 30
0.0
 40
1.803107573635554
 50
164.2248319281196
 51
180.0000000000009
  0
LINE
  5
26C
  8
0
  6
CONTINUOUS
 62
   253
 10
-1862.0
 20
-196.9096029510313
 30
0.0
 11
-1862.71156821552
 21
-196.9096029510291
 31
0.0
  0
ARC
  5
26D
  8
0
  6
CONTINUOUS
 62
     7
 10
-2390.667240333313
 20
-425.9430679180857
 30
0.0
 40
0.2671102289231337
 50
108.1866978927736
 51
125.9357679384127
  0
ARC
  5
26E
  8
0
  6
CONTINUOUS
 62
     7
 10
-2398.911814202878
 20
-394.5299790114585
 30
0.0
 40
32.27809804078422
 50
279.2792694439935
 51
281.2251623271415
  0
LINE
  5
26F
  8
0
  6
CONTINUOUS
 62
   253
 10
-1874.5
 20
-428.9020745182946
 30
0.0
 11
-1874.5
 21
-424.2890403093165
 31
0.0
  0
ARC
  5
270
  8
0
  6
CONTINUOUS
 62
     7
 10
-1888.607700069714
 20
-421.8255577419009
 30
0.0
 40
0.1422999302858052
 50
180.0
 51
227.5886839513386
  0
ARC
  5
271
  8
0
  6
CONTINUOUS
 62
     7
 10
-2404.066874290845
 20
-427.580703831844
 30
0.0
 40
0.2671102289271837
 50
67.99992716672926
 51
85.74899721201041
  0
ARC
  5
272
  8
0
  6
CONTINUOUS
 62
     7
 10
-1887.423622934216
 20
-420.040891312156
 30
0.0
 40
2.294331909727366
 50
249.2579398065782
 51
257.3201430790579
  0
ARC
  5
273
  8
0
  6
CONTINUOUS
 62
     7
 10
-1881.503800441416
 20
-389.6526625007838
 30
0.0
 40
33.11015582523388
 50
271.3774453184569
 51
273.6137146217654
  0
ARC
  5
274
  8
0
  6
CONTINUOUS
 62
     7
 10
-2398.38612121954
 20
-846.0337987074084
 30
0.0
 40
418.679101207996
 50
90.62399282592865
 51
90.66704512529765
  0
ARC
  5
275
  8
0
  6
CONTINUOUS
 62
     7
 10
-2404.042261187365
 20
-427.2495729383152
 30
0.0
 40
0.0649341559259608
 50
108.1866978935886
 51
186.9678475524596
  0
ARC
  5
276
  8
0
  6
CONTINUOUS
 62
     7
 10
-2389.979404888628
 20
-491.3557871206059
 30
0.0
 40
65.80734684150124
 50
97.65459752659227
 51
98.77926507324693
  0
ARC
  5
277
  8
0
  6
CONTINUOUS
 62
     7
 10
-1879.652440120694
 20
-406.1765209355275
 30
0.0
 40
16.49528434275017
 50
274.6339348175966
 51
278.455233318988
  0
ARC
  5
278
  8
0
  6
CONTINUOUS
 62
     7
 10
-1883.310433132026
 20
-361.0463263710749
 30
0.0
 40
61.77348411147211
 50
273.6137146217656
 51
274.633934817591
  0
ARC
  5
279
  8
0
  6
CONTINUOUS
 62
     7
 10
-1882.496199558588
 20
-389.6526625008563
 30
0.0
 40
33.1101558251612
 50
266.3862853782343
 51
268.6225546815477
  0
ARC
  5
27A
  8
0
  6
CONTINUOUS
 62
     7
 10
-1888.308203181049
 20
-421.6916186286305
 30
0.0
 40
0.4455323834463121
 50
225.5325018715417
 51
253.1383173193377
  0
ARC
  5
27B
  8
0
  6
CONTINUOUS
 62
     7
 10
-1898.870430528032
 20
-320.9519569595305
 30
0.0
 40
103.8602796034131
 50
282.5019051449177
 51
282.6798569209008
  0
LINE
  5
27C
  8
0
  6
CONTINUOUS
 62
     7
 10
-1859.0
 20
-43.09792548171482
 30
0.0
 11
-1909.8
 21
-43.09792548171482
 31
0.0
  0
ARC
  5
27D
  8
0
  6
CONTINUOUS
 62
     7
 10
-1882.0
 20
-474.63423625371
 30
0.0
 40
53.75190393911472
 50
88.62255468154169
 51
90.00000000000001
  0
ARC
  5
27E
  8
0
  6
CONTINUOUS
 62
     7
 10
-1877.630011682993
 20
-360.9868573764028
 30
0.0
 40
62.18150925088479
 50
261.1523926234976
 51
261.5447666810149
  0
ARC
  5
27F
  8
0
  6
CONTINUOUS
 62
     7
 10
-1886.166872742767
 20
-415.8301698200337
 30
0.0
 40
6.677753373074045
 50
257.4980948550817
 51
261.1523926235091
  0
ARC
  5
280
  8
0
  6
CONTINUOUS
 62
     7
 10
-2394.710305725511
 20
-413.7336988284582
 30
0.0
 40
12.62328015642871
 50
281.399555857067
 51
283.3117022792781
  0
ARC
  5
281
  8
0
  6
CONTINUOUS
 62
     7
 10
-2410.423116113186
 20
-319.9332511378673
 30
0.0
 40
107.7694138515233
 50
276.9678475526039
 51
277.6545975265865
  0
ARC
  5
282
  8
0
  6
CONTINUOUS
 62
     7
 10
-2413.961716375571
 20
-302.4167363581888
 30
0.0
 40
125.61270591754
 50
278.7792650732466
 51
279.2792694439923
  0
ARC
  5
283
  8
0
  6
CONTINUOUS
 62
     7
 10
-2403.6302665674
 20
-395.1066445439498
 30
0.0
 40
32.27809804064864
 50
272.7105327780642
 51
274.6564256612202
  0
ARC
  5
284
  8
0
  6
CONTINUOUS
 62
     7
 10
-2330.254968789131
 20
-319.9694884365059
 30
0.0
 40
96.72313445117726
 50
276.5481516193022
 51
282.8567423921749
  0
ARC
  5
285
  8
0
  6
CONTINUOUS
 62
     7
 10
-2400.102831615603
 20
-439.1434850733
 30
0.0
 40
12.62328015642871
 50
101.399555857067
 51
103.3117022792781
  0
ARC
  5
286
  8
0
  6
CONTINUOUS
 62
     7
 10
-1862.818142257318
 20
-422.2942911601003
 30
0.0
 40
0.8250599693465045
 50
286.8616826807205
 51
314.4674981284647
  0
ARC
  5
287
  8
0
  6
CONTINUOUS
 62
     7
 10
-1888.308203181049
 20
-421.9594968551714
 30
0.0
 40
0.4455323834463121
 50
106.8616826806623
 51
134.4674981284583
  0
ARC
  5
288
  8
0
  6
CONTINUOUS
 62
     7
 10
-2330.470562027283
 20
-318.0982053377188
 30
0.0
 40
98.48269138548876
 50
295.2730101699273
 51
295.8729297199009
  0
ARC
  5
289
  8
0
  6
CONTINUOUS
 62
     7
 10
-1864.456253825519
 20
-419.2373887222044
 30
0.0
 40
4.24876279577168
 50
282.6798569209049
 51
290.7420601934288
  0
ARC
  5
28A
  8
0
  6
CONTINUOUS
 62
     7
 10
-1880.689566867997
 20
-482.6047891123795
 30
0.0
 40
61.77348411112393
 50
93.6137146217655
 51
94.63393481759677
  0
ARC
  5
28B
  8
0
  6
CONTINUOUS
 62
     7
 10
-1873.13827003085
 20
-419.3580589044558
 30
0.0
 40
3.199735572269736
 50
225.5325018715323
 51
227.5886839513372
  0
ARC
  5
28C
  8
0
  6
CONTINUOUS
 62
     7
 10
-1884.347559879307
 20
-437.4745945482736
 30
0.0
 40
16.49528434274922
 50
94.63393481759381
 51
98.45523331898526
  0
ARC
  5
28D
  8
0
  6
CONTINUOUS
 62
     7
 10
-2410.423116113056
 20
-319.9332511389252
 30
0.0
 40
107.7694138504576
 50
276.2810975786144
 51
276.9678475526039
  0
ARC
  5
28E
  8
0
  6
CONTINUOUS
 62
     7
 10
-1886.166872742767
 20
-427.8209456637682
 30
0.0
 40
6.677753373074045
 50
98.84760737649073
 51
102.501905144918
  0
ARC
  5
28F
  8
0
  6
CONTINUOUS
 62
     7
 10
-2404.145897007801
 20
-426.9341159836725
 30
0.0
 40
0.2671102289231337
 50
288.1866978927735
 51
305.9357679384127
  0
ARC
  5
290
  8
0
  6
CONTINUOUS
 62
     7
 10
-2390.770876153749
 20
-425.6276109634431
 30
0.0
 40
0.0649341559259608
 50
288.1866978935885
 51
6.967847552459546
  0
ARC
  5
291
  8
0
  6
CONTINUOUS
 62
     7
 10
-2411.207219189163
 20
-302.0800955563743
 30
0.0
 40
125.6127059177391
 50
274.6564256612171
 51
275.1564300319619
  0
ARC
  5
292
  8
0
  6
CONTINUOUS
 62
     7
 10
-1898.361632224223
 20
-198.6432491494327
 30
0.0
 40
3.796531272590681
 50
124.2118467077341
 51
135.0493000417251
  0
ARC
  5
293
  8
0
  6
CONTINUOUS
 62
     7
 10
-1890.86172996915
 20
-419.3580589044558
 30
0.0
 40
3.199735572269736
 50
312.4113160486629
 51
314.4674981284677
  0
ARC
  5
294
  8
0
  6
CONTINUOUS
 62
     7
 10
-1881.503800441412
 20
-453.9984529829456
 30
0.0
 40
33.1101558251612
 50
86.38628537823438
 51
88.62255468154773
  0
ARC
  5
295
  8
0
  6
CONTINUOUS
 62
     7
 10
-1793.29056577159
 20
-228.3987197875217
 30
0.0
 40
15.83077983628648
 50
339.903637296215
 51
341.577753053258
  0
LINE
  5
296
  8
0
  6
CONTINUOUS
 62
     7
 10
-1919.323804443415
 20
-73.09792548171484
 30
0.0
 11
-1920.176215556585
 21
-73.09792548171484
 31
0.0
  0
ARC
  5
297
  8
0
  6
CONTINUOUS
 62
     7
 10
-1887.999680223416
 20
-229.3359795128327
 30
0.0
 40
36.56578600430702
 50
99.895450879253
 51
103.1846913308883
  0
ARC
  5
298
  8
0
  6
CONTINUOUS
 62
     7
 10
-1790.261478887881
 20
-231.6585749864732
 30
0.0
 40
11.36448621309125
 50
295.0259803103565
 51
308.5462005173194
  0
LINE
  5
299
  8
0
  6
CONTINUOUS
 62
     7
 10
-1808.2
 20
-239.0979254817149
 30
0.0
 11
-1806.676215556585
 21
-239.0979254817149
 31
0.0
  0
ARC
  5
29A
  8
0
  6
CONTINUOUS
 62
   253
 10
-1906.499999999361
 20
1119.902074518302
 30
0.0
 40
3.000000000000003
 50
179.9999999999958
 51
269.9999999999927
  0
LINE
  5
29B
  8
0
  6
CONTINUOUS
 62
     7
 10
-1832.250000000009
 20
-213.8479254784461
 30
0.0
 11
-1831.500000000009
 21
-213.0979254784457
 31
0.0
  0
LINE
  5
29C
  8
0
  6
CONTINUOUS
 62
     7
 10
-1808.338560799777
 20
-83.09792548171485
 30
0.0
 11
-1808.276215556585
 21
-83.09792548171485
 31
0.0
  0
ARC
  5
29D
  8
0
  6
CONTINUOUS
 62
     7
 10
-1866.783568994884
 20
-411.439756329326
 30
0.0
 40
12.36620995017859
 50
278.8476073765038
 51
282.5019051449166
  0
LINE
  5
29E
  8
0
  6
CONTINUOUS
 62
     7
 10
-1920.176215556585
 20
-83.09792548171485
 30
0.0
 11
-1919.323804443415
 21
-83.09792548171485
 31
0.0
  0
LINE
  5
29F
  8
0
  6
CONTINUOUS
 62
     7
 10
-1920.926215556585
 20
-223.8479254817149
 30
0.0
 11
-1921.676215556585
 21
-224.5979254817148
 31
0.0
  0
LINE
  5
2A0
  8
0
  6
CONTINUOUS
 62
     7
 10
-1812.499999999417
 20
527.0009866721592
 30
0.0
 11
-1812.499999999362
 21
1106.802212699115
 31
0.0
  0
LINE
  5
2A1
  8
0
  6
CONTINUOUS
 62
     7
 10
-1800.164632426409
 20
-87.17999804101134
 30
0.0
 11
-1799.676215556585
 21
-86.59792548171491
 31
0.0
  0
ARC
  5
2A2
  8
0
  6
CONTINUOUS
 62
     7
 10
-1881.407429042378
 20
-314.491100826616
 30
0.0
 40
115.1509430585108
 50
261.1523926234984
 51
261.5447666810112
  0
ARC
  5
2A3
  8
0
  6
CONTINUOUS
 62
     7
 10
-1865.129569471897
 20
-522.6991585245903
 30
0.0
 40
103.8602796037399
 50
102.5019051449181
 51
102.6798569209005
  0
ARC
  5
2A4
  8
0
  6
CONTINUOUS
 62
     7
 10
-1876.576377065784
 20
-423.6102241716458
 30
0.0
 40
2.294331909727366
 50
69.25793980657826
 51
77.32014307905796
  0
ARC
  5
2A5
  8
0
  6
CONTINUOUS
 62
     7
 10
-1889.348126545923
 20
-418.5284583003694
 30
0.0
 40
3.139640718280818
 50
286.861682680708
 51
290.7420601934243
  0
ARC
  5
2A6
  8
0
  6
CONTINUOUS
 62
     7
 10
-1893.84733310983
 20
-398.1756629744754
 30
0.0
 40
30.54682285691338
 50
261.5447666810112
 51
265.3660651824064
  0
ARC
  5
2A7
  8
0
  6
CONTINUOUS
 62
     7
 10
-1882.592570957488
 20
-309.8780666185389
 30
0.0
 40
115.1509430575998
 50
278.4552333189889
 51
278.8476073765049
  0
LINE
  5
2A8
  8
0
  6
CONTINUOUS
 62
     7
 10
-1862.000000000003
 20
-193.0979254817148
 30
0.0
 11
-1862.0
 21
-203.9303227966692
 31
0.0
  0
ARC
  5
2A9
  8
0
  6
CONTINUOUS
 62
     7
 10
-1887.912183631731
 20
-219.7484804637772
 30
0.0
 40
27.43285308638269
 50
112.3385756535221
 51
114.1384754923756
  0
ARC
  5
2AA
  8
0
  6
CONTINUOUS
 62
     7
 10
-1899.819544398272
 20
-197.7819130307154
 30
0.0
 40
2.140296322923698
 50
139.3853504214618
 51
155.0319683783166
  0
LINE
  5
2AB
  8
0
  6
CONTINUOUS
 62
     7
 10
-1766.5
 20
-193.0979254817148
 30
0.0
 11
-1855.999999999997
 21
-193.0979254817148
 31
0.0
  0
ARC
  5
2AC
  8
0
  6
CONTINUOUS
 62
     7
 10
-1888.607700069714
 20
-421.8255577419009
 30
0.0
 40
0.1422999302858052
 50
132.4113160486614
 51
180.0
  0
LINE
  5
2AD
  8
0
  6
CONTINUOUS
 62
     7
 10
-1808.276215556585
 20
-73.09792548171484
 30
0.0
 11
-1808.338550712431
 21
-73.09792548171484
 31
0.0
  0
LINE
  5
2AE
  8
0
  6
CONTINUOUS
 62
     7
 10
-1921.988933519038
 20
-204.5979254784459
 30
0.0
 11
-1932.621778264626
 21
-204.5979254784459
 31
0.0
  0
ARC
  5
2AF
  8
0
  6
CONTINUOUS
 62
     7
 10
-1862.263518389418
 20
-422.5423265550465
 30
0.0
 40
0.2635183894181825
 50
312.4113160486781
 51
359.9999999999637
  0
ARC
  5
2B0
  8
0
  6
CONTINUOUS
 62
     7
 10
-1886.369988317007
 20
-482.6642581073991
 30
0.0
 40
62.18150925088479
 50
81.15239262349759
 51
81.5447666810149
  0
ARC
  5
2B1
  8
0
  6
CONTINUOUS
 62
     7
 10
-1875.392299930286
 20
-421.8255577419009
 30
0.0
 40
0.1422999302858052
 50
0.0
 51
47.5886839513386
  0
ARC
  5
2B2
  8
0
  6
CONTINUOUS
 62
     7
 10
-1870.15266689017
 20
-393.562628765497
 30
0.0
 40
30.54682285691354
 50
274.6339348175936
 51
278.4552333189886
  0
ARC
  5
2B3
  8
0
  6
CONTINUOUS
 62
     7
 10
-1876.926728022258
 20
-309.9881943870255
 30
0.0
 40
114.3953409469949
 50
273.6137146217653
 51
274.6339348175924
  0
ARC
  5
2B4
  8
0
  6
CONTINUOUS
 62
     7
 10
-1874.651873454075
 20
-418.5284583003635
 30
0.0
 40
3.139640718287133
 50
249.2579398065805
 51
253.1383173192889
  0
ARC
  5
2B5
  8
0
  6
CONTINUOUS
 62
     7
 10
-1889.5
 20
-329.3615116677964
 30
0.0
 40
99.54056285049816
 50
268.6225546815455
 51
270.0
  0
ARC
  5
2B6
  8
0
  6
CONTINUOUS
 62
     7
 10
-1898.960662255997
 20
-198.181833084401
 30
0.0
 40
3.087721562010573
 50
155.0319683783163
 51
164.2248319280717
  0
ARC
  5
2B7
  8
0
  6
CONTINUOUS
 62
     7
 10
-1882.0
 20
-474.63423625371
 30
0.0
 40
53.75190393911472
 50
90.0
 51
91.37744531845834
  0
ARC
  5
2B8
  8
0
  6
CONTINUOUS
 62
   253
 10
-1858.999999998853
 20
-0.0979254817021213
 30
0.0
 40
350.0000000000001
 50
269.5088873045214
 51
269.9999901509914
  0
LINE
  5
2B9
  8
0
  6
CONTINUOUS
 62
     7
 10
-2319.414873791884
 20
-416.087243163625
 30
0.0
 11
-2381.661114362134
 21
-423.0494121524539
 31
0.0
  0
ARC
  5
2BA
  8
0
  6
CONTINUOUS
 62
     7
 10
-1882.496199558588
 20
-453.9984529829456
 30
0.0
 40
33.1101558251612
 50
91.37744531845229
 51
93.61371462176564
  0
ARC
  5
2BB
  8
0
  6
CONTINUOUS
 62
     7
 10
-1790.425173257124
 20
-232.0685901685207
 30
0.0
 40
11.02933531319414
 50
270.0
 51
283.358168579156
  0
LINE
  5
2BC
  8
0
  6
CONTINUOUS
 62
     7
 10
-1911.323784443415
 20
-89.09792548171485
 30
0.0
 11
-1909.8
 21
-89.09792548171485
 31
0.0
  0
LINE
  5
2BD
  8
0
  6
CONTINUOUS
 62
     7
 10
-1808.2
 20
-243.0979254817149
 30
0.0
 11
-1790.425173257124
 21
-243.0979254817149
 31
0.0
  0
ARC
  5
2BE
  8
0
  6
CONTINUOUS
 62
     7
 10
-1875.691796818951
 20
-421.9594968551714
 30
0.0
 40
0.4455323834463121
 50
45.53250187154164
 51
73.13831731933773
  0
ARC
  5
2BF
  8
0
  6
CONTINUOUS
 62
     7
 10
-1887.423622934217
 20
-423.6102241716437
 30
0.0
 40
2.294331909725158
 50
102.6798569209374
 51
110.7420601934249
  0
LINE
  5
2C0
  8
0
  6
CONTINUOUS
 62
     7
 10
-1799.676215556585
 20
-219.5979254817148
 30
0.0
 11
-1800.164632426409
 21
-219.0158529224185
 31
0.0
  0
ARC
  5
2C1
  8
0
  6
CONTINUOUS
 62
     7
 10
-1874.5
 20
-324.7484774588182
 30
0.0
 40
99.54056285049816
 50
270.0
 51
271.3774453184545
  0
ARC
  5
2C2
  8
0
  6
CONTINUOUS
 62
     7
 10
-1905.741538014409
 20
-235.7393621453281
 30
0.0
 40
192.3338511153017
 50
282.5019051449165
 51
282.6798569209014
  0
ARC
  5
2C3
  8
0
  6
CONTINUOUS
 62
     7
 10
-1890.418888071454
 20
-367.5759251323668
 30
0.0
 40
61.31510338002224
 50
266.3862853782346
 51
268.6225546815442
  0
ARC
  5
2C4
  8
0
  6
CONTINUOUS
 62
     7
 10
-2329.851852528769
 20
-323.4813516852112
 30
0.0
 40
93.1882106617618
 50
276.4302825039736
 51
276.5481516193011
  0
LINE
  5
2C5
  8
0
  6
CONTINUOUS
 62
     7
 10
-1902.0
 20
-419.3982417973612
 30
0.0
 11
-1902.0
 21
-422.5423265550467
 31
0.0
  0
ARC
  5
2C6
  8
0
  6
CONTINUOUS
 62
     7
 10
-1895.598302826728
 20
-201.4018272312362
 30
0.0
 40
7.70111094170633
 50
135.0493000417239
 51
139.3853504214726
  0
LINE
  5
2C7
  8
0
  6
CONTINUOUS
 62
     7
 10
-2388.760791982835
 20
-424.0112760063393
 30
0.0
 11
-2372.510791982836
 21
-424.0112760063395
 31
0.0
  0
ARC
  5
2C8
  8
0
  6
CONTINUOUS
 62
     7
 10
-1896.325694398169
 20
-200.9736763887932
 30
0.0
 40
6.859072892383168
 50
114.1384754923513
 51
121.341619233413
  0
ARC
  5
2C9
  8
0
  6
CONTINUOUS
 62
     7
 10
-2334.442435958098
 20
-309.6853863831448
 30
0.0
 40
107.7859867846861
 50
289.5432444222432
 51
295.2730101699268
  0
ARC
  5
2CA
  8
0
  6
CONTINUOUS
 62
     7
 10
-1877.833127257233
 20
-427.8209456637682
 30
0.0
 40
6.677753373074045
 50
77.49809485508179
 51
81.15239262350913
  0
ARC
  5
2CB
  8
0
  6
CONTINUOUS
 62
     7
 10
-1860.892358248283
 20
-428.6480662616052
 30
0.0
 40
5.814149478318015
 50
106.8616826807258
 51
110.7420601934287
  0
LINE
  5
2CC
  8
0
  6
CONTINUOUS
 62
     7
 10
-1766.5
 20
-187.0979254817148
 30
0.0
 11
-1859.0
 21
-187.0979254817148
 31
0.0
  0
ARC
  5
2CD
  8
0
  6
CONTINUOUS
 62
     7
 10
-1879.652440120693
 20
-437.4745945482736
 30
0.0
 40
16.49528434274922
 50
81.54476668101469
 51
85.36606518240615
  0
ARC
  5
2CE
  8
0
  6
CONTINUOUS
 62
     7
 10
-1873.581111928546
 20
-362.9628909233886
 30
0.0
 40
61.31510338002224
 50
271.3774453184557
 51
273.6137146217654
  0
ARC
  5
2CF
  8
0
  6
CONTINUOUS
 62
   253
 10
-1813.499999999353
 20
1205.888550859095
 30
0.0
 40
4.999999999999997
 50
359.9999999999948
 51
82.42152159387882
  0
ARC
  5
2D0
  8
0
  6
CONTINUOUS
 62
     7
 10
-2329.287978991874
 20
-324.2062840569168
 30
0.0
 40
92.37738866971094
 50
282.8567423921746
 51
289.5432444222447
  0
ARC
  5
2D1
  8
0
  6
CONTINUOUS
 62
     7
 10
-1960.138824649743
 20
-228.0979262976727
 30
0.0
 40
50.72475857754577
 50
353.6643030436262
 51
6.335394255020788
  0
ARC
  5
2D2
  8
0
  6
CONTINUOUS
 62
     7
 10
-1898.8704305281
 20
-522.6991585245758
 30
0.0
 40
103.860279603725
 50
77.32014307909941
 51
77.49809485508189
  0
ARC
  5
2D3
  8
0
  6
CONTINUOUS
 62
     7
 10
-1757.861175350256
 20
-78.09792466575705
 30
0.0
 40
50.72475857754673
 50
173.6643030436263
 51
186.3353942550206
  0
LINE
  5
2D4
  8
0
  6
CONTINUOUS
 62
     7
 10
-1862.000000000001
 20
-195.9131299185259
 30
0.0
 11
-1863.335165148333
 21
-195.9131299185259
 31
0.0
  0
ARC
  5
2D5
  8
0
  6
CONTINUOUS
 62
   253
 10
-1813.4999999995
 20
-342.0844018225114
 30
0.0
 40
5.000000000000065
 50
277.5784784061103
 51
359.9999999999946
  0
LINE
  5
2D6
  8
0
  6
CONTINUOUS
 62
     7
 10
-1905.499999999447
 20
216.8031623644314
 30
0.0
 11
-1905.499999999471
 21
-43.09792548171412
 31
0.0
  0
LINE
  5
2D7
  8
0
  6
CONTINUOUS
 62
     7
 10
-1905.499999999362
 20
1106.803162364431
 30
0.0
 11
-1905.499999999417
 21
527.0019363374863
 31
0.0
  0
LINE
  5
2D8
  8
0
  6
CONTINUOUS
 62
     7
 10
-1909.661439200223
 20
-73.09792548171484
 30
0.0
 11
-1909.723784443415
 21
-73.09792548171484
 31
0.0
  0
LINE
  5
2D9
  8
0
  6
CONTINUOUS
 62
     7
 10
-1920.176215556585
 20
-233.0979254817149
 30
0.0
 11
-1919.323804443415
 21
-233.0979254817149
 31
0.0
  0
LINE
  5
2DA
  8
0
  6
CONTINUOUS
 62
     7
 10
-1918.742810529742
 20
-219.0166491453603
 30
0.0
 11
-1919.323784443415
 21
-220.0229254817148
 31
0.0
  0
LINE
  5
2DB
  8
0
  6
CONTINUOUS
 62
   253
 10
-1909.499999999492
 20
-256.097925481699
 30
0.0
 11
-1909.4999999995
 21
-342.0844018225879
 31
0.0
  0
ARC
  5
2DC
  8
0
  6
CONTINUOUS
 62
     7
 10
-1790.79277146096
 20
-230.5205619117528
 30
0.0
 40
12.62041039728509
 50
283.358168579153
 51
295.0259803103559
  0
ARC
  5
2DD
  8
0
  6
CONTINUOUS
 62
     7
 10
-1792.799219188796
 20
-228.4734732979237
 30
0.0
 40
15.43695458022318
 50
308.5462005173191
 51
318.4890057749538
  0
LINE
  5
2DE
  8
0
  6
CONTINUOUS
 62
     7
 10
-1806.676215556585
 20
-67.09792548171484
 30
0.0
 11
-1808.2
 21
-67.09792548171484
 31
0.0
  0
LINE
  5
2DF
  8
0
  6
CONTINUOUS
 62
     7
 10
-1808.2
 20
-67.09792548171484
 30
0.0
 11
-1808.2
 21
-43.09792548171482
 31
0.0
  0
LINE
  5
2E0
  8
0
  6
CONTINUOUS
 62
     7
 10
-1921.921778263733
 20
-200.3979254817172
 30
0.0
 11
-1923.171778263734
 21
-200.3979254815573
 31
0.0
  0
LINE
  5
2E1
  8
0
  6
CONTINUOUS
 62
     7
 10
-1909.8
 20
-193.0979254817148
 30
0.0
 11
-1909.8
 21
-217.0979254817149
 31
0.0
  0
LINE
  5
2E2
  8
0
  6
CONTINUOUS
 62
     7
 10
-1766.5
 20
-193.097925481715
 30
0.0
 11
-1766.5
 21
-187.0979254817148
 31
0.0
  0
LINE
  5
2E3
  8
0
  6
CONTINUOUS
 62
     7
 10
-1921.92177826632
 20
-220.5979254817116
 30
0.0
 11
-1921.121778266319
 21
-220.5979254818141
 31
0.0
  0
LINE
  5
2E4
  8
0
  6
CONTINUOUS
 62
     7
 10
-1932.621778264626
 20
-214.5979254784456
 30
0.0
 11
-1921.988933492223
 21
-214.5979254784456
 31
0.0
  0
ARC
  5
2E5
  8
0
  6
CONTINUOUS
 62
     7
 10
-1901.736481610582
 20
-427.1553607640249
 30
0.0
 40
0.2635183894177384
 50
180.0000000000121
 51
227.5886839513767
  0
LINE
  5
2E6
  8
0
  6
CONTINUOUS
 62
     7
 10
-1808.2
 20
-89.09792548171485
 30
0.0
 11
-1806.676215556585
 21
-89.09792548171485
 31
0.0
  0
LINE
  5
2E7
  8
0
  6
CONTINUOUS
 62
     7
 10
-1800.164632426409
 20
-237.1799980410113
 30
0.0
 11
-1799.676215556585
 21
-236.5979254817149
 31
0.0
  0
LINE
  5
2E8
  8
0
  6
CONTINUOUS
 62
     7
 10
-1909.8
 20
-67.09792548171484
 30
0.0
 11
-1911.323784443415
 21
-67.09792548171484
 31
0.0
  0
LINE
  5
2E9
  8
0
  6
CONTINUOUS
 62
     7
 10
-1831.500000000009
 20
-206.0979254784458
 30
0.0
 11
-1832.250000000009
 21
-205.3479254784453
 31
0.0
  0
ARC
  5
2EA
  8
0
  6
CONTINUOUS
 62
   253
 10
-1904.499999999353
 20
1205.888550859104
 30
0.0
 40
5.000000000000066
 50
97.57847840611024
 51
179.9999999999949
  0
LINE
  5
2EB
  8
0
  6
CONTINUOUS
 62
     7
 10
-1911.323784443415
 20
-239.0979254817149
 30
0.0
 11
-1909.8
 21
-239.0979254817149
 31
0.0
  0
LINE
  5
2EC
  8
0
  6
CONTINUOUS
 62
     7
 10
-1808.338560799777
 20
-233.0979254817149
 30
0.0
 11
-1808.276215556585
 21
-233.0979254817149
 31
0.0
  0
LINE
  5
2ED
  8
0
  6
CONTINUOUS
 62
     7
 10
-1833.000000000008
 20
-214.5979254784456
 30
0.0
 11
-1832.250000000009
 21
-213.8479254784461
 31
0.0
  0
ARC
  5
2EE
  8
0
  6
CONTINUOUS
 62
   253
 10
-1859.0
 20
863.9020745182949
 30
0.0
 40
350.0000000000001
 50
82.42152159002937
 51
89.99997166930552
  0
LINE
  5
2EF
  8
0
  6
CONTINUOUS
 62
     7
 10
-1920.176215556585
 20
-223.0979254817149
 30
0.0
 11
-1920.926215556585
 21
-223.8479254817149
 31
0.0
  0
ARC
  5
2F0
  8
0
  6
CONTINUOUS
 62
     7
 10
-1887.073271977742
 20
-314.6012285960043
 30
0.0
 40
114.3953409469944
 50
265.3660651824075
 51
266.3862853782347
  0
ARC
  5
2F1
  8
0
  6
CONTINUOUS
 62
     7
 10
-1794.932725033313
 20
-227.7978930423274
 30
0.0
 40
17.57940209927117
 50
330.6912071560914
 51
339.9036372962148
  0
ARC
  5
2F2
  8
0
  6
CONTINUOUS
 62
   253
 10
-1859.0
 20
863.9020745182949
 30
0.0
 40
350.0
 50
89.99997166930552
 51
97.57847840995977
  0
LINE
  5
2F3
  8
0
  6
CONTINUOUS
 62
   253
 10
-1808.4999999995
 20
-342.0844018225976
 30
0.0
 11
-1808.499999999492
 21
-256.0979254817087
 31
0.0
  0
ARC
  5
2F4
  8
0
  6
CONTINUOUS
 62
     7
 10
-1897.216431005112
 20
-416.0527905382876
 30
0.0
 40
12.36620995019563
 50
257.4980948550852
 51
261.1523926234938
  0
ARC
  5
2F5
  8
0
  6
CONTINUOUS
 62
     7
 10
-1905.910611054005
 20
-431.7248030556154
 30
0.0
 40
5.925436244979376
 50
45.53250187153499
 51
47.58868395132841
  0
LINE
  5
2F6
  8
0
  6
CONTINUOUS
 62
     7
 10
-1909.8
 20
-217.0979254817149
 30
0.0
 11
-1911.323784443415
 21
-217.0979254817149
 31
0.0
  0
ARC
  5
2F7
  8
0
  6
CONTINUOUS
 62
   253
 10
-1858.999999998853
 20
-0.0979254817021213
 30
0.0
 40
350.0
 50
269.9999901509914
 51
277.5784784099599
  0
LINE
  5
2F8
  8
0
  6
CONTINUOUS
 62
     7
 10
-1909.723784443415
 20
-233.0979254817149
 30
0.0
 11
-1909.661449287569
 21
-233.0979254817149
 31
0.0
  0
LINE
  5
2F9
  8
0
  6
CONTINUOUS
 62
     7
 10
-1806.676215556585
 20
-217.0979254817149
 30
0.0
 11
-1808.2
 21
-217.0979254817149
 31
0.0
  0
ARC
  5
2FA
  8
0
  6
CONTINUOUS
 62
   253
 10
-1811.499999999361
 20
1119.90207451829
 30
0.0
 40
2.999999999999892
 50
269.9999999999922
 51
359.9999999999873
  0
LINE
  5
2FB
  8
0
  6
CONTINUOUS
 62
     7
 10
-1832.250000000009
 20
-205.3479254784453
 30
0.0
 11
-1833.000000000008
 21
-204.5979254784459
 31
0.0
  0
LINE
  5
2FC
  8
0
  6
CONTINUOUS
 62
     7
 10
-1854.400000000702
 20
-198.5979254817178
 30
0.0
 11
-1856.000000000704
 21
-198.5979254818201
 31
0.0
  0
ARC
  5
2FD
  8
0
  6
CONTINUOUS
 62
     7
 10
-1899.543746174482
 20
-423.850422931186
 30
0.0
 40
4.248762795768094
 50
249.257939806572
 51
257.3201430791025
  0
LINE
  5
2FE
  8
0
  6
CONTINUOUS
 62
     7
 10
-1808.276215556585
 20
-223.0979254817149
 30
0.0
 11
-1808.338550712431
 21
-223.0979254817149
 31
0.0
  0
LINE
  5
2FF
  8
0
  6
CONTINUOUS
 62
     7
 10
-1909.723784443415
 20
-83.09792548171485
 30
0.0
 11
-1909.661449287569
 21
-83.09792548171485
 31
0.0
  0
LINE
  5
300
  8
0
  6
CONTINUOUS
 62
     7
 10
-1921.676215556585
 20
-81.59792548171491
 30
0.0
 11
-1920.926215556585
 21
-82.34792548171488
 31
0.0
  0
LINE
  5
301
  8
0
  6
CONTINUOUS
 62
   253
 10
-1909.499999999353
 20
1205.88855085919
 30
0.0
 11
-1909.499999999361
 21
1119.902074518302
 31
0.0
  0
LINE
  5
302
  8
0
  6
CONTINUOUS
 62
     7
 10
-1843.900000000517
 20
-201.5229254810426
 30
0.0
 11
-1844.146102918904
 21
-201.0966627225674
 31
0.0
  0
ARC
  5
303
  8
0
  6
CONTINUOUS
 62
   253
 10
-1858.999999998853
 20
-0.0979254817021213
 30
0.0
 40
350.0
 50
262.4215215900293
 51
262.9429747347738
  0
ARC
  5
304
  8
0
  6
CONTINUOUS
 62
   253
 10
-1811.499999999492
 20
-256.0979254817098
 30
0.0
 40
3.000000000000003
 50
359.9999999999967
 51
89.9999999999926
  0
LINE
  5
305
  8
0
  6
CONTINUOUS
 62
     7
 10
-1793.721472260112
 20
-195.9131299185259
 30
0.0
 11
-1795.971472260112
 21
-195.9131299185259
 31
0.0
  0
ARC
  5
306
  8
0
  6
CONTINUOUS
 62
     7
 10
-1791.186209523438
 20
-229.9010955754502
 30
0.0
 40
13.28291058164079
 50
318.4890057749538
 51
330.6912071560837
  0
ARC
  5
307
  8
0
  6
CONTINUOUS
 62
     7
 10
-1901.181857742682
 20
-426.9073253690785
 30
0.0
 40
0.8250599693465045
 50
225.5325018715355
 51
253.1383173192795
  0
LINE
  5
308
  8
0
  6
CONTINUOUS
 62
   253
 10
-1808.499999999361
 20
1119.902074518292
 30
0.0
 11
-1808.499999999352
 21
1205.88855085918
 31
0.0
  0
LINE
  5
309
  8
0
  6
CONTINUOUS
 62
     7
 10
-2418.526645269346
 20
-424.0587308178312
 30
0.0
 11
-2417.962863414115
 21
-428.6717650268094
 31
0.0
  0
ARC
  5
30A
  8
0
  6
CONTINUOUS
 62
     7
 10
-1858.25846198632
 20
-240.3523963575731
 30
0.0
 40
192.3338511119545
 50
257.320143079097
 51
257.498094855085
  0
LINE
  5
30B
  8
0
  6
CONTINUOUS
 62
     7
 10
-1808.2
 20
-187.0979254817148
 30
0.0
 11
-1808.2
 21
-89.09792548171485
 31
0.0
  0
LINE
  5
30C
  8
0
  6
CONTINUOUS
 62
     7
 10
-1833.000000000008
 20
-204.5979254784459
 30
0.0
 11
-1843.900000000338
 21
-204.5979254784459
 31
0.0
  0
ARC
  5
30D
  8
0
  6
CONTINUOUS
 62
     7
 10
-1903.107641751718
 20
-433.2611004705879
 30
0.0
 40
5.814149478322666
 50
69.25793980657235
 51
73.13831731927222
  0
ARC
  5
30E
  8
0
  6
CONTINUOUS
 62
   253
 10
-1904.4999999995
 20
-342.0844018225027
 30
0.0
 40
4.999999999999997
 50
179.9999999999946
 51
262.4215215938789
  0
LINE
  5
30F
  8
0
  6
CONTINUOUS
 62
     7
 10
-1799.676215556585
 20
-69.59792548171484
 30
0.0
 11
-1800.164632426409
 21
-69.01585292241846
 31
0.0
  0
LINE
  5
310
  8
0
  6
CONTINUOUS
 62
     7
 10
-1905.499999999418
 20
516.8031623644312
 30
0.0
 11
-1905.499999999432
 21
377.0019363374861
 31
0.0
  0
LINE
  5
311
  8
0
  6
CONTINUOUS
 62
     7
 10
-1919.323784443415
 20
-236.1729254817148
 30
0.0
 11
-1918.742810529742
 21
-237.1792018180693
 31
0.0
  0
LINE
  5
312
  8
0
  6
CONTINUOUS
 62
     7
 10
-1812.499999999432
 20
377.0009866721591
 30
0.0
 11
-1812.499999999418
 21
516.8022126991157
 31
0.0
  0
LINE
  5
313
  8
0
  6
CONTINUOUS
 62
     7
 10
-1921.121778263503
 20
-198.5979254818201
 30
0.0
 11
-1921.921778263503
 21
-198.5979254817178
 31
0.0
  0
ARC
  5
314
  8
0
  6
CONTINUOUS
 62
     7
 10
-1805.088954012381
 20
-71.69443372866895
 30
0.0
 40
5.415208695187058
 50
1.730677163235492
 51
37.2702093373749
  0
ARC
  5
315
  8
0
  6
CONTINUOUS
 62
     7
 10
-1831.043584768695
 20
1119.761452056981
 30
0.0
 40
3.810753363305246
 50
344.6708064055403
 51
353.3966987682355
  0
ARC
  5
316
  8
0
  6
CONTINUOUS
 62
     7
 10
-1830.491793760473
 20
1119.764804306743
 30
0.0
 40
3.362041550831034
 50
309.7973227801501
 51
323.8335855409608
  0
ARC
  5
317
  8
0
  6
CONTINUOUS
 62
     7
 10
-1805.316558811647
 20
-221.2867386581744
 30
0.0
 40
5.6456248825702
 50
323.4776731138117
 51
357.5214403855783
  0
ARC
  5
318
  8
0
  6
CONTINUOUS
 62
     7
 10
-1830.330170147509
 20
1208.564659632382
 30
0.0
 40
2.264886731201554
 50
40.06054401371455
 51
59.09355088809923
  0
LINE
  5
319
  8
0
  6
CONTINUOUS
 62
   253
 10
-1862.0
 20
-253.0979254817033
 30
0.0
 11
-1830.99999999932
 21
-253.0979254817073
 31
0.0
  0
ARC
  5
31A
  8
0
  6
CONTINUOUS
 62
     7
 10
-1811.679819618878
 20
-229.6772985709082
 30
0.0
 40
12.00509572263398
 50
0.9032215380177211
 51
24.77415154556699
  0
LINE
  5
31B
  8
0
  6
CONTINUOUS
 62
     7
 10
-1940.565207799644
 20
-198.8890030459239
 30
0.0
 11
-2388.087441383447
 21
-418.5855721139728
 31
0.0
  0
LINE
  5
31C
  8
0
  6
CONTINUOUS
 62
     7
 10
-1920.176215556585
 20
-73.09792548171484
 30
0.0
 11
-1920.926215556585
 21
-73.84792548171487
 31
0.0
  0
LINE
  5
31D
  8
0
  6
CONTINUOUS
 62
   251
 10
-1886.999999999533
 20
1116.9020745183
 30
0.0
 11
-1886.999999999532
 21
1119.9020745183
 31
0.0
  0
LINE
  5
31E
  8
0
  6
CONTINUOUS
 62
     7
 10
-1806.676215556585
 20
-87.78073070131576
 30
0.0
 11
-1800.779593456509
 21
-87.78073070131576
 31
0.0
  0
ARC
  5
31F
  8
0
  6
CONTINUOUS
 62
   253
 10
-1906.499999999492
 20
-256.0979254816971
 30
0.0
 40
2.999999999999892
 50
89.99999999999204
 51
179.9999999999882
  0
LINE
  5
320
  8
0
  6
CONTINUOUS
 62
     7
 10
-1806.676215556585
 20
-217.0979254817149
 30
0.0
 11
-1806.676215556585
 21
-229.896917661874
 31
0.0
  0
LINE
  5
321
  8
0
  6
CONTINUOUS
 62
     7
 10
-1920.926215556585
 20
-73.84792548171487
 30
0.0
 11
-1921.676215556585
 21
-74.5979254817149
 31
0.0
  0
LINE
  5
322
  8
0
  6
CONTINUOUS
 62
     7
 10
-1851.900000000586
 20
-200.3979254815573
 30
0.0
 11
-1854.400000000589
 21
-200.3979254817172
 31
0.0
  0
LINE
  5
323
  8
0
  6
CONTINUOUS
 62
     7
 10
-1855.999999999296
 20
-220.5979254818141
 30
0.0
 11
-1854.399999999294
 21
-220.5979254817116
 31
0.0
  0
LINE
  5
324
  8
0
  6
CONTINUOUS
 62
     7
 10
-1844.145973267876
 20
-218.0989636792659
 30
0.0
 11
-1843.899999999483
 21
-217.6729254810426
 31
0.0
  0
LINE
  5
325
  8
0
  6
CONTINUOUS
 62
     7
 10
-1793.828221736953
 20
-198.5979254784569
 30
0.0
 11
-1794.628221736953
 21
-198.5979254785596
 31
0.0
  0
LINE
  5
326
  8
0
  6
CONTINUOUS
 62
     7
 10
-1799.676215556585
 20
-236.0550945569316
 30
0.0
 11
-1799.676215556585
 21
-236.5979254817149
 31
0.0
  0
LINE
  5
327
  8
0
  6
CONTINUOUS
 62
     7
 10
-1794.62822173413
 20
-220.5979254785595
 30
0.0
 11
-1793.82822173413
 21
-220.597925478457
 31
0.0
  0
LINE
  5
328
  8
0
  6
CONTINUOUS
 62
     7
 10
-1812.499999999472
 20
-43.09792548171415
 30
0.0
 11
-1812.499999999447
 21
216.8022126991154
 31
0.0
  0
ARC
  5
329
  8
0
  6
CONTINUOUS
 62
     7
 10
-1830.370786516359
 20
1209.020106808201
 30
0.0
 40
1.868444050877383
 50
70.36675583770779
 51
77.18989022907766
  0
ARC
  5
32A
  8
0
  6
CONTINUOUS
 62
     7
 10
-1831.403407064205
 20
1207.234967169806
 30
0.0
 40
3.924507363741907
 50
20.98966712932656
 51
33.90427097161387
  0
LINE
  5
32B
  8
0
  6
CONTINUOUS
 62
     7
 10
-1909.8
 20
-239.0979254817149
 30
0.0
 11
-1909.8
 21
-243.0979254817149
 31
0.0
  0
LINE
  5
32C
  8
0
  6
CONTINUOUS
 62
   251
 10
-1827.224719100662
 20
1119.902074518292
 30
0.0
 11
-1827.224719100654
 21
1205.888550859078
 31
0.0
  0
LINE
  5
32D
  8
0
  6
CONTINUOUS
 62
     7
 10
-1808.2
 20
-217.0979254817149
 30
0.0
 11
-1808.2
 21
-193.0979254817148
 31
0.0
  0
LINE
  5
32E
  8
0
  6
CONTINUOUS
 62
     7
 10
-1812.499999999492
 20
-253.0979254817092
 30
0.0
 11
-1812.499999999491
 21
-243.0979254817141
 31
0.0
  0
LINE
  5
32F
  8
0
  6
CONTINUOUS
 62
     7
 10
-1921.676215556585
 20
-231.5979254817148
 30
0.0
 11
-1920.926215556585
 21
-232.3479254817148
 31
0.0
  0
LINE
  5
330
  8
0
  6
CONTINUOUS
 62
     7
 10
-1843.899999999698
 20
-214.5979254784456
 30
0.0
 11
-1833.000000000008
 21
-214.5979254784456
 31
0.0
  0
LINE
  5
331
  8
0
  6
CONTINUOUS
 62
     7
 10
-1905.499999999491
 20
-243.0979254817141
 30
0.0
 11
-1905.499999999492
 21
-253.0979254816968
 31
0.0
  0
ARC
  5
332
  8
0
  6
CONTINUOUS
 62
     7
 10
-1830.49179376021
 20
-255.9606552701434
 30
0.0
 40
3.362041550789401
 50
36.16641445923563
 51
50.20267722032757
  0
LINE
  5
333
  8
0
  6
CONTINUOUS
 62
     7
 10
-1799.676215556585
 20
-69.59792548171484
 30
0.0
 11
-1799.676215556585
 21
-71.53088672753022
 31
0.0
  0
ARC
  5
334
  8
0
  6
CONTINUOUS
 62
     7
 10
-1833.933921255413
 20
1205.534258381683
 30
0.0
 40
6.973427246897811
 50
33.90427097161341
 51
40.06054401369221
  0
LINE
  5
335
  8
0
  6
CONTINUOUS
 62
     7
 10
-1905.499999999433
 20
366.8031623644309
 30
0.0
 11
-1905.499999999446
 21
227.0019363374862
 31
0.0
  0
LINE
  5
336
  8
0
  6
CONTINUOUS
 62
     7
 10
-1909.8
 20
-89.09792548171485
 30
0.0
 11
-1909.8
 21
-187.0979254817148
 31
0.0
  0
LINE
  5
337
  8
0
  6
CONTINUOUS
 62
     7
 10
-1812.499999999446
 20
227.0009866721591
 30
0.0
 11
-1812.499999999433
 21
366.8022126991153
 31
0.0
  0
ARC
  5
338
  8
0
  6
CONTINUOUS
 62
     7
 10
-1829.286205101663
 20
1118.883531564553
 30
0.0
 40
1.868694417583816
 50
323.8335855409654
 51
340.1414046141979
  0
ARC
  5
339
  8
0
  6
CONTINUOUS
 62
     7
 10
-1829.112359549884
 20
-254.3048495899416
 30
0.0
 40
1.20692410823392
 50
50.20267722032634
 51
89.99999999998948
  0
LINE
  5
33A
  8
0
  6
CONTINUOUS
 62
     7
 10
-1799.676215556585
 20
-221.5308867275302
 30
0.0
 11
-1799.676215556585
 21
-229.4880558027469
 31
0.0
  0
LINE
  5
33B
  8
0
  6
CONTINUOUS
 62
   251
 10
-1830.999999999307
 20
-256.0979254817073
 30
0.0
 11
-1830.999999999315
 21
-342.1133875673174
 31
0.0
  0
ARC
  5
33C
  8
0
  6
CONTINUOUS
 62
     7
 10
-1832.258336174302
 20
1119.902074518293
 30
0.0
 40
5.033617073638252
 50
353.3966987682538
 51
359.9999999999899
  0
LINE
  5
33D
  8
0
  6
CONTINUOUS
 62
     7
 10
-1951.5
 20
-187.0979254817148
 30
0.0
 11
-1951.5
 21
-193.0979254817148
 31
0.0
  0
LINE
  5
33E
  8
0
  6
CONTINUOUS
 62
     7
 10
-1909.661439200223
 20
-223.0979254817149
 30
0.0
 11
-1909.723784443415
 21
-223.0979254817149
 31
0.0
  0
LINE
  5
33F
  8
0
  6
CONTINUOUS
 62
     7
 10
-1920.926215556585
 20
-82.34792548171488
 30
0.0
 11
-1920.176215556585
 21
-83.09792548171485
 31
0.0
  0
ARC
  5
340
  8
0
  6
CONTINUOUS
 62
     7
 10
-1831.043584768424
 20
-255.9573030203943
 30
0.0
 40
3.810753363262414
 50
6.603301231803698
 51
15.32919359459805
  0
LINE
  5
341
  8
0
  6
CONTINUOUS
 62
     7
 10
-1808.2
 20
-243.0979254817149
 30
0.0
 11
-1808.2
 21
-239.0979254817149
 31
0.0
  0
LINE
  5
342
  8
0
  6
CONTINUOUS
 62
     7
 10
-1277.037136585886
 20
-428.6717650268095
 30
0.0
 11
-1276.473354730654
 21
-424.0587308178314
 31
0.0
  0
ARC
  5
343
  8
0
  6
CONTINUOUS
 62
     7
 10
-1829.286205101452
 20
-255.0793825279853
 30
0.0
 40
1.868694417602867
 50
19.85859538613755
 51
36.16641445923375
  0
LINE
  5
344
  8
0
  6
CONTINUOUS
 62
     7
 10
-1800.779593456509
 20
-218.415120262114
 30
0.0
 11
-1800.163134573827
 21
-219.0176380641254
 31
0.0
  0
LINE
  5
345
  8
0
  6
CONTINUOUS
 62
     7
 10
-1808.276215556585
 20
-229.896917661874
 30
0.0
 11
-1808.276215556585
 21
-239.0979254817149
 31
0.0
  0
LINE
  5
346
  8
0
  6
CONTINUOUS
 62
   251
 10
-1812.84057970904
 20
-347.0407275665823
 30
0.0
 11
-1829.955870378357
 21
-347.0407275665806
 31
0.0
  0
LINE
  5
347
  8
0
  6
CONTINUOUS
 62
     7
 10
-1920.926215556585
 20
-232.3479254817148
 30
0.0
 11
-1920.176215556585
 21
-233.0979254817149
 31
0.0
  0
LINE
  5
348
  8
0
  6
CONTINUOUS
 62
     7
 10
-1909.8
 20
-43.09792548171482
 30
0.0
 11
-1909.8
 21
-67.09792548171484
 31
0.0
  0
LINE
  5
349
  8
0
  6
CONTINUOUS
 62
     7
 10
-1919.323784443415
 20
-86.17292548171484
 30
0.0
 11
-1918.742810529742
 21
-87.17920181806932
 31
0.0
  0
ARC
  5
34A
  8
0
  6
CONTINUOUS
 62
     7
 10
-1832.25833617401
 20
-256.097925481707
 30
0.0
 40
5.033617073575192
 50
359.9999999999911
 51
6.603301231808814
  0
ARC
  5
34B
  8
0
  6
CONTINUOUS
 62
     7
 10
-1833.836957533055
 20
1120.527162395087
 30
0.0
 40
6.707172483970277
 50
340.1414046141325
 51
344.6708064055389
  0
LINE
  5
34C
  8
0
  6
CONTINUOUS
 62
     7
 10
-1918.319221200455
 20
-68.41512026211399
 30
0.0
 11
-1911.323784443415
 21
-68.41512026211399
 31
0.0
  0
LINE
  5
34D
  8
0
  6
CONTINUOUS
 62
     7
 10
-1854.399999999411
 20
-218.7979254817121
 30
0.0
 11
-1851.899999999408
 21
-218.7979254815521
 31
0.0
  0
ARC
  5
34E
  8
0
  6
CONTINUOUS
 62
     7
 10
-1833.836957532695
 20
-256.7230133584832
 30
0.0
 40
6.707172483836994
 50
15.32919359459805
 51
19.85859538610435
  0
LINE
  5
34F
  8
0
  6
CONTINUOUS
 62
     7
 10
-1918.742810529742
 20
-69.01664914536038
 30
0.0
 11
-1919.323784443415
 21
-70.02292548171485
 31
0.0
  0
LINE
  5
350
  8
0
  6
CONTINUOUS
 62
     7
 10
-1919.323804443415
 20
-223.0979254817149
 30
0.0
 11
-1920.176215556585
 21
-223.0979254817149
 31
0.0
  0
LINE
  5
351
  8
0
  6
CONTINUOUS
 62
     7
 10
-1923.17177826609
 20
-218.7979254815521
 30
0.0
 11
-1921.921778266089
 21
-218.7979254817121
 31
0.0
  0
ARC
  5
352
  8
0
  6
CONTINUOUS
 62
     7
 10
-1811.679819618879
 20
-79.67729857090828
 30
0.0
 40
12.00509572263446
 50
0.9032215380182145
 51
24.77415154556653
  0
LINE
  5
353
  8
0
  6
CONTINUOUS
 62
     7
 10
-1800.779593456509
 20
-237.7807307013157
 30
0.0
 11
-1800.163134573827
 21
-237.1782128993044
 31
0.0
  0
LINE
  5
354
  8
0
  6
CONTINUOUS
 62
     7
 10
-1909.723784443415
 20
-239.0979254817149
 30
0.0
 11
-1909.723784443415
 21
-217.0979254817149
 31
0.0
  0
LINE
  5
355
  8
0
  6
CONTINUOUS
 62
     7
 10
-1806.676215556585
 20
-84.32945841254735
 30
0.0
 11
-1800.779593456509
 21
-84.32945841254735
 31
0.0
  0
ARC
  5
356
  8
0
  6
CONTINUOUS
 62
     7
 10
-1912.298376253572
 20
-84.66496423589948
 30
0.0
 40
6.779275369935962
 50
152.6385912655296
 51
207.3614087344703
  0
LINE
  5
357
  8
0
  6
CONTINUOUS
 62
     7
 10
-1921.676215556585
 20
-78.67033208449276
 30
0.0
 11
-1921.676215556585
 21
-74.5979254817149
 31
0.0
  0
LINE
  5
358
  8
0
  6
CONTINUOUS
 62
     7
 10
-1753.254976230464
 20
2106.399794788605
 30
0.0
 11
-1754.779743065867
 21
2105.519470245733
 31
0.0
  0
ARC
  5
359
  8
0
  6
CONTINUOUS
 62
     7
 10
-1886.999999999722
 20
2054.467993282028
 30
0.0
 40
0.0548404926203894
 50
198.0840276072777
 51
269.999999999536
  0
ARC
  5
35A
  8
0
  6
CONTINUOUS
 62
     7
 10
-1887.297942868604
 20
2054.370702464205
 30
0.0
 40
0.2585848674733655
 50
18.08402760624233
 51
32.39139868990332
  0
ARC
  5
35B
  8
0
  6
CONTINUOUS
 62
     7
 10
-1886.788528100179
 20
2054.69387964373
 30
0.0
 40
0.3446952462837261
 50
187.619301001839
 51
212.3913986899121
  0
ARC
  5
35C
  8
0
  6
CONTINUOUS
 62
     7
 10
-1888.819908274133
 20
2054.422139142654
 30
0.0
 40
1.704779884343112
 50
7.619301001672811
 51
12.59069406068532
  0
ARC
  5
35D
  8
0
  6
CONTINUOUS
 62
     7
 10
-1884.653467787539
 20
2055.352738435131
 30
0.0
 40
2.564323226555402
 50
187.3658579459799
 51
192.5906940606772
  0
ARC
  5
35E
  8
0
  6
CONTINUOUS
 62
     7
 10
-2342.434006610834
 20
1996.174794600481
 30
0.0
 40
459.0253763572235
 50
7.365857946003242
 51
7.395036130063325
  0
ARC
  5
35F
  8
0
  6
CONTINUOUS
 62
     7
 10
-1879.231121823687
 20
2056.293539169466
 30
0.0
 40
8.062598144032252
 50
185.1744596661972
 51
187.3950361300645
  0
ARC
  5
360
  8
0
  6
CONTINUOUS
 62
     7
 10
-1801.082774236236
 20
2063.370473208302
 30
0.0
 40
86.53072687181051
 50
184.9675677844616
 51
185.174459666234
  0
ARC
  5
361
  8
0
  6
CONTINUOUS
 62
     7
 10
-1866.83738364704
 20
2057.655193678584
 30
0.0
 40
20.52820359527058
 50
182.7001566396128
 51
184.967567784461
  0
ARC
  5
362
  8
0
  6
CONTINUOUS
 62
     7
 10
-1807.921337170018
 20
2060.433765328175
 30
0.0
 40
79.50973454263155
 50
182.1147812376503
 51
182.7001566396173
  0
ARC
  5
363
  8
0
  6
CONTINUOUS
 62
     7
 10
-1845.632855383048
 20
2059.041204691683
 30
0.0
 40
41.77251377774185
 50
180.8022886207558
 51
182.1147812376504
  0
ARC
  5
364
  8
0
  6
CONTINUOUS
 62
     7
 10
-1819.071761562223
 20
2059.413152789099
 30
0.0
 40
68.33621175723702
 50
180.4324319157042
 51
180.8022886207444
  0
LINE
  5
365
  8
0
  6
CONTINUOUS
 62
     9
 10
-1318.175426162119
 20
2395.120857636791
 30
0.0
 11
-1774.160427818909
 21
2131.857794183811
 31
0.0
  0
ARC
  5
366
  8
0
  6
CONTINUOUS
 62
     7
 10
-1289.567268115062
 20
2288.183147571798
 30
0.0
 40
114.4148525623471
 50
117.2455807363967
 51
120.0000000000007
  0
ARC
  5
367
  8
0
  6
CONTINUOUS
 62
     7
 10
-1302.327638702364
 20
2312.963633349396
 30
0.0
 40
86.54193500965815
 50
113.6037719474514
 51
117.2455807364072
  0
ARC
  5
368
  8
0
  6
CONTINUOUS
 62
     7
 10
-1290.474658118315
 20
2285.838100470743
 30
0.0
 40
116.1440917330575
 50
112.3680951370628
 51
113.6037719474515
  0
ARC
  5
369
  8
0
  6
CONTINUOUS
 62
     7
 10
-1313.015541105133
 20
2340.612934800053
 30
0.0
 40
56.91256396592367
 50
109.8462378412395
 51
112.3680951370886
  0
ARC
  5
36A
  8
0
  6
CONTINUOUS
 62
     7
 10
-1301.893136659384
 20
2309.79731811545
 30
0.0
 40
89.67397590599792
 50
108.4251892590786
 51
109.8462378412394
  0
ARC
  5
36B
  8
0
  6
CONTINUOUS
 62
     7
 10
-1318.890283128491
 20
2360.817724673802
 30
0.0
 40
35.8967979075957
 50
104.8747834460747
 51
108.4251892590872
  0
ARC
  5
36C
  8
0
  6
CONTINUOUS
 62
     7
 10
-1312.25353547832
 20
2335.830742417795
 30
0.0
 40
61.75014781885536
 50
103.1365411580282
 51
104.8747834460748
  0
ARC
  5
36D
  8
0
  6
CONTINUOUS
 62
     7
 10
-1321.358528964238
 20
2374.844392247119
 30
0.0
 40
21.68812366400667
 50
98.1860900777092
 51
103.1365411580223
  0
ARC
  5
36E
  8
0
  6
CONTINUOUS
 62
     7
 10
-1319.021131530787
 20
2358.596036140217
 30
0.0
 40
38.10374131728377
 50
96.99844985874786
 51
98.18609007770942
  0
ARC
  5
36F
  8
0
  6
CONTINUOUS
 62
     7
 10
-1322.055110098607
 20
2383.311336650044
 30
0.0
 40
13.20291592451784
 50
93.57045895615806
 51
96.99844985874415
  0
ARC
  5
370
  8
0
  6
CONTINUOUS
 62
     7
 10
-1321.512440918587
 20
2374.614304670964
 30
0.0
 40
21.91686193560122
 50
91.77168361006784
 51
93.57045895615806
  0
ARC
  5
371
  8
0
  6
CONTINUOUS
 62
     7
 10
-1321.924683610006
 20
2387.941874959322
 30
0.0
 40
8.582917514397739
 50
87.17738858632983
 51
91.77168361002947
  0
ARC
  5
372
  8
0
  6
CONTINUOUS
 62
     7
 10
-1322.237661633444
 20
2381.593919809864
 30
0.0
 40
14.9385834765682
 50
84.92267390225987
 51
87.1773885863301
  0
ARC
  5
373
  8
0
  6
CONTINUOUS
 62
     7
 10
-1321.371561436131
 20
2391.341948862383
 30
0.0
 40
5.152154099080611
 50
78.38203786544841
 51
84.92267390229631
  0
ARC
  5
374
  8
0
  6
CONTINUOUS
 62
     7
 10
-1322.678090257923
 20
2384.98715167326
 30
0.0
 40
11.63987055998329
 50
75.94382194425384
 51
78.38203786544797
  0
ARC
  5
375
  8
0
  6
CONTINUOUS
 62
     7
 10
-1320.473453123804
 20
2393.792678539327
 30
0.0
 40
2.562551116327446
 50
64.85224361469426
 51
75.94382194421541
  0
ARC
  5
376
  8
0
  6
CONTINUOUS
 62
     7
 10
-1321.140298330031
 20
2392.372199801659
 30
0.0
 40
4.131768237452942
 50
53.8674922048499
 51
64.85224361469409
  0
ARC
  5
377
  8
0
  6
CONTINUOUS
 62
     7
 10
-1319.831689275314
 20
2394.164613682539
 30
0.0
 40
1.912487908504608
 50
30.00000000000028
 51
53.8674922049242
  0
ARC
  5
378
  8
0
  6
CONTINUOUS
 62
   253
 10
-1858.999999999538
 20
2095.000000000319
 30
0.0
 40
50.49999999999999
 50
308.9921185580714
 51
90.0
  0
LINE
  5
379
  8
0
  6
CONTINUOUS
 62
   251
 10
-1890.775280898594
 20
2055.749757659844
 30
0.0
 11
-1888.04412962028
 21
2059.123397373145
 31
0.0
  0
LINE
  5
37A
  8
0
  6
CONTINUOUS
 62
     7
 10
-1777.434792200552
 20
2138.627593064489
 30
0.0
 11
-1346.774694396236
 21
2387.269316461041
 31
0.0
  0
ARC
  5
37B
  8
0
  6
CONTINUOUS
 62
     7
 10
-1288.737669879303
 20
2388.691656894195
 30
0.0
 40
12.21327068947332
 50
299.9999999999991
 51
322.8423528538906
  0
ARC
  5
37C
  8
0
  6
CONTINUOUS
 62
     7
 10
-1288.982494014369
 20
2388.877203447264
 30
0.0
 40
12.52046180338596
 50
322.8423528538912
 51
345.1170044610899
  0
ARC
  5
37D
  8
0
  6
CONTINUOUS
 62
     7
 10
-1288.827593474069
 20
2388.836036823134
 30
0.0
 40
12.36018433046056
 50
345.1170044610893
 51
7.839567870794895
  0
ARC
  5
37E
  8
0
  6
CONTINUOUS
 62
     7
 10
-1289.134166772137
 20
2388.793825795618
 30
0.0
 40
12.6696499310241
 50
7.839567870793409
 51
30.00000000000072
  0
ARC
  5
37F
  8
0
  6
CONTINUOUS
 62
     7
 10
-1898.928238432666
 20
2059.413152789459
 30
0.0
 40
68.33621175274484
 50
359.1977113786837
 51
359.5675680837482
  0
ARC
  5
380
  8
0
  6
CONTINUOUS
 62
     7
 10
-1872.367144613848
 20
2059.041204691787
 30
0.0
 40
41.77251377525294
 50
357.8852187617256
 51
359.1977113786986
  0
ARC
  5
381
  8
0
  6
CONTINUOUS
 62
     7
 10
-1910.078662824204
 20
2060.433765328591
 30
0.0
 40
79.50973453748216
 50
357.2998433597209
 51
357.8852187617256
  0
ARC
  5
382
  8
0
  6
CONTINUOUS
 62
     7
 10
-1851.162616351332
 20
2057.655193678509
 30
0.0
 40
20.52820359424235
 50
355.0324322147757
 51
357.2998433597381
  0
ARC
  5
383
  8
0
  6
CONTINUOUS
 62
     7
 10
-1916.917225778437
 20
2063.370473210526
 30
0.0
 40
86.53072688722176
 50
354.8255403330404
 51
355.0324322147753
  0
ARC
  5
384
  8
0
  6
CONTINUOUS
 62
     7
 10
-1838.768878175881
 20
2056.293539169345
 30
0.0
 40
8.062598144188687
 50
352.604963869106
 51
354.8255403329338
  0
ARC
  5
385
  8
0
  6
CONTINUOUS
 62
     7
 10
-1375.56599403214
 20
1996.174794677042
 30
0.0
 40
459.025375709143
 50
172.6049638691064
 51
172.6341420532077
  0
ARC
  5
386
  8
0
  6
CONTINUOUS
 62
     7
 10
-1833.346532211713
 20
2055.352738434883
 30
0.0
 40
2.564323226379184
 50
347.4093059382196
 51
352.634142053291
  0
ARC
  5
387
  8
0
  6
CONTINUOUS
 62
     7
 10
-1829.180091725255
 20
2054.422139142353
 30
0.0
 40
1.704779884398638
 50
167.4093059382175
 51
172.3806989971011
  0
ARC
  5
388
  8
0
  6
CONTINUOUS
 62
     7
 10
-1831.211471899253
 20
2054.693879643478
 30
0.0
 40
0.344695246278331
 50
327.6086013084698
 51
352.3806989969214
  0
ARC
  5
389
  8
0
  6
CONTINUOUS
 62
     7
 10
-1830.702057130816
 20
2054.370702463927
 30
0.0
 40
0.2585848675030725
 50
147.608601308446
 51
161.9159723906213
  0
ARC
  5
38A
  8
0
  6
CONTINUOUS
 62
     7
 10
-1830.999999999723
 20
2054.467993281773
 30
0.0
 40
0.0548404926217216
 50
269.9999999997681
 51
341.9159723913183
  0
LINE
  5
38B
  8
0
  6
CONTINUOUS
 62
     7
 10
-1301.925426162118
 20
2366.975032013797
 30
0.0
 11
-1753.254976230464
 21
2106.399794788605
 31
0.0
  0
ARC
  5
38C
  8
0
  6
CONTINUOUS
 62
   253
 10
-1886.999999655527
 20
2060.413153761522
 30
0.0
 40
6.000000972116847
 50
231.0078847279754
 51
269.9999967131687
  0
ARC
  5
38D
  8
0
  6
CONTINUOUS
 62
   251
 10
-1859.000000000152
 20
2094.99999999999
 30
0.0
 40
46.15942028984612
 50
308.9921185589343
 51
231.0078814417462
  0
ARC
  5
38E
  8
0
  6
CONTINUOUS
 62
     7
 10
-1296.634166772135
 20
2401.784206852386
 30
0.0
 40
12.66964993102132
 50
30.00000000000101
 51
52.16043212921345
  0
ARC
  5
38F
  8
0
  6
CONTINUOUS
 62
     7
 10
-1296.444324300955
 20
2402.028601602875
 30
0.0
 40
12.36018433046024
 50
52.16043212920638
 51
74.88299553890994
  0
ARC
  5
390
  8
0
  6
CONTINUOUS
 62
     7
 10
-1296.486123228821
 20
2401.873870487845
 30
0.0
 40
12.52046180339182
 50
74.88299553891059
 51
97.15764714609911
  0
ARC
  5
391
  8
0
  6
CONTINUOUS
 62
     7
 10
-1296.524399189829
 20
2402.178667684811
 30
0.0
 40
12.21327068947453
 50
97.15764714610908
 51
119.9999999999997
  0
ARC
  5
392
  8
0
  6
CONTINUOUS
 62
     7
 10
-1297.166340882685
 20
2392.81670194856
 30
0.0
 40
6.841610962751883
 50
29.99999999999647
 51
52.16043212920778
  0
ARC
  5
393
  8
0
  6
CONTINUOUS
 62
     7
 10
-1297.063825948246
 20
2392.948675113827
 30
0.0
 40
6.674499538446202
 50
52.16043212919781
 51
74.8829955389114
  0
ARC
  5
394
  8
0
  6
CONTINUOUS
 62
     7
 10
-1297.086397369293
 20
2392.865120311715
 30
0.0
 40
6.761049373824489
 50
74.88299553891181
 51
97.15764714612395
  0
ARC
  5
395
  8
0
  6
CONTINUOUS
 62
     7
 10
-1297.10706638824
 20
2393.029710798072
 30
0.0
 40
6.595166172313712
 50
97.15764714610307
 51
120.0000000000016
  0
LINE
  5
396
  8
0
  6
CONTINUOUS
 62
     7
 10
-1278.161928074814
 20
2395.12865076113
 30
0.0
 11
-1285.661928074814
 21
2408.119031817896
 31
0.0
  0
LINE
  5
397
  8
0
  6
CONTINUOUS
 62
   253
 10
-1830.999999999723
 20
2054.413152789162
 30
0.0
 11
-1886.999999999723
 21
2054.413152789418
 31
0.0
  0
ARC
  5
398
  8
0
  6
CONTINUOUS
 62
     7
 10
-1760.012814230521
 20
2114.583415382538
 30
0.0
 40
10.46614232930834
 50
287.5801315382139
 51
300.0000000000002
  0
ARC
  5
399
  8
0
  6
CONTINUOUS
 62
     7
 10
-1760.25698797107
 20
2115.354075665725
 30
0.0
 40
11.27455935514065
 50
276.0539353398823
 51
287.5801315382448
  0
ARC
  5
39A
  8
0
  6
CONTINUOUS
 62
     7
 10
-1760.187331754156
 20
2114.69728900868
 30
0.0
 40
10.61408929417904
 50
263.5177266617698
 51
276.0539353398818
  0
ARC
  5
39B
  8
0
  6
CONTINUOUS
 62
     7
 10
-1759.960474160606
 20
2116.693884433613
 30
0.0
 40
12.62353142039497
 50
252.9832406779153
 51
263.5177266617519
  0
ARC
  5
39C
  8
0
  6
CONTINUOUS
 62
     7
 10
-1760.264169868959
 20
2115.701578743797
 30
0.0
 40
11.58579269349313
 50
241.1367491139382
 51
252.9832406779153
  0
ARC
  5
39D
  8
0
  6
CONTINUOUS
 62
     7
 10
-1759.262444105847
 20
2117.518955910439
 30
0.0
 40
13.66095877607824
 50
234.4548901617654
 51
241.1367491139374
  0
ARC
  5
39E
  8
0
  6
CONTINUOUS
 62
     7
 10
-1758.240436098061
 20
2117.77631950423
 30
0.0
 40
12.86042971175561
 50
223.5926910169334
 51
231.0948360109467
  0
ARC
  5
39F
  8
0
  6
CONTINUOUS
 62
     7
 10
-1757.737677270449
 20
2118.399280453304
 30
0.0
 40
13.66095877607033
 50
231.0948360109461
 51
241.1367491139435
  0
ARC
  5
3A0
  8
0
  6
CONTINUOUS
 62
     7
 10
-1758.739403033558
 20
2116.581903286665
 30
0.0
 40
11.58579269348892
 50
241.1367491139354
 51
252.9832406779158
  0
ARC
  5
3A1
  8
0
  6
CONTINUOUS
 62
     7
 10
-1758.435707325203
 20
2117.574208976484
 30
0.0
 40
12.62353142039546
 50
252.9832406779149
 51
263.5177266617501
  0
ARC
  5
3A2
  8
0
  6
CONTINUOUS
 62
     7
 10
-1758.662564918753
 20
2115.577613551552
 30
0.0
 40
10.61408929417904
 50
263.5177266617685
 51
276.0539353398818
  0
ARC
  5
3A3
  8
0
  6
CONTINUOUS
 62
     7
 10
-1758.732221135667
 20
2116.234400208597
 30
0.0
 40
11.27455935514109
 50
276.0539353398822
 51
287.5801315382441
  0
ARC
  5
3A4
  8
0
  6
CONTINUOUS
 62
     7
 10
-1758.488047395118
 20
2115.463739925409
 30
0.0
 40
10.46614232930834
 50
287.5801315382139
 51
300.0000000000002
  0
ARC
  5
3A5
  8
0
  6
CONTINUOUS
 62
   253
 10
-1858.999999999538
 20
2095.000000000319
 30
0.0
 40
50.49999999999999
 50
90.00000000000011
 51
231.0078814414058
  0
LINE
  5
3A6
  8
0
  6
CONTINUOUS
 62
     7
 10
-1301.925426162118
 20
2366.975032013797
 30
0.0
 11
-1282.631034534566
 21
2378.114654213815
 31
0.0
  0
ARC
  5
3A7
  8
0
  6
CONTINUOUS
 62
   251
 10
-1887.405797032189
 20
2059.911894328939
 30
0.0
 40
1.01449294838066
 50
231.0078853357836
 51
269.9999961056845
  0
LINE
  5
3A8
  8
0
  6
CONTINUOUS
 62
   251
 10
-1829.955870379117
 20
2059.123397372872
 30
0.0
 11
-1827.22471910084
 21
2055.749757659556
 31
0.0
  0
ARC
  5
3A9
  8
0
  6
CONTINUOUS
 62
   251
 10
-1830.594202967338
 20
2059.911894329094
 30
0.0
 40
1.014492948796078
 50
270.0000039022682
 51
308.9921146555404
  0
ARC
  5
3AA
  8
0
  6
CONTINUOUS
 62
   253
 10
-1831.000000344729
 20
2060.413153763717
 30
0.0
 40
6.000000974565261
 50
270.0000032945609
 51
308.9921152631953
  0
LINE
  5
3AB
  8
0
  6
CONTINUOUS
 62
     7
 10
-1301.925426162118
 20
2366.975032013797
 30
0.0
 11
-1318.175426162119
 21
2395.120857636791
 31
0.0
  0
LINE
  5
3AC
  8
0
  6
CONTINUOUS
 62
     7
 10
-1921.67621555677
 20
2091.500000000001
 30
0.0
 11
-1921.67621555677
 21
2098.500000000001
 31
0.0
  0
ARC
  5
3AD
  8
0
  6
CONTINUOUS
 62
     7
 10
-1801.222963418505
 20
2087.809432827351
 30
0.0
 40
2.03289393147358
 50
285.2595344989912
 51
315.4776411843211
  0
LINE
  5
3AE
  8
0
  6
CONTINUOUS
 62
     7
 10
-1800.687922487742
 20
2085.848211539727
 30
0.0
 11
-1800.779593456694
 21
2085.811852584874
 31
0.0
  0
LINE
  5
3AF
  8
0
  6
CONTINUOUS
 62
     7
 10
-1806.67621555677
 20
2102.582963185015
 30
0.0
 11
-1800.779593456694
 21
2102.582963185015
 31
0.0
  0
LINE
  5
3B0
  8
0
  6
CONTINUOUS
 62
     7
 10
-1799.67621555677
 20
2103.500000000001
 30
0.0
 11
-1799.67621555677
 21
2103.385555300072
 31
0.0
  0
LINE
  5
3B1
  8
0
  6
CONTINUOUS
 62
     7
 10
-1909.7237844436
 20
2084.0
 30
0.0
 11
-1909.7237844436
 21
2092.218329326112
 31
0.0
  0
LINE
  5
3B2
  8
0
  6
CONTINUOUS
 62
     7
 10
-1911.3237844436
 20
2084.0
 30
0.0
 11
-1911.3237844436
 21
2106.0
 31
0.0
  0
LINE
  5
3B3
  8
0
  6
CONTINUOUS
 62
     7
 10
-1808.27621555677
 20
2106.000000000001
 30
0.0
 11
-1808.27621555677
 21
2097.781670673889
 31
0.0
  0
LINE
  5
3B4
  8
0
  6
CONTINUOUS
 62
     7
 10
-1808.27621555677
 20
2092.218329326112
 30
0.0
 11
-1808.27621555677
 21
2084.0
 31
0.0
  0
LINE
  5
3B5
  8
0
  6
CONTINUOUS
 62
     7
 10
-1806.67621555677
 20
2106.000000000001
 30
0.0
 11
-1806.67621555677
 21
2084.000000000001
 31
0.0
  0
ARC
  5
3B6
  8
0
  6
CONTINUOUS
 62
     7
 10
-1859.000000002513
 20
2095.00000000045
 30
0.0
 40
43.49999999999054
 50
248.9123277961135
 51
291.0876722033633
  0
LINE
  5
3B7
  8
0
  6
CONTINUOUS
 62
     7
 10
-1909.7237844436
 20
2097.781670673889
 30
0.0
 11
-1909.7237844436
 21
2106.000000000001
 31
0.0
  0
LINE
  5
3B8
  8
0
  6
CONTINUOUS
 62
     7
 10
-1799.67621555677
 20
2103.385555300072
 30
0.0
 11
-1799.67621555677
 21
2097.988889477451
 31
0.0
  0
LINE
  5
3B9
  8
0
  6
CONTINUOUS
 62
     7
 10
-1920.17621555677
 20
2100.0
 30
0.0
 11
-1920.17621555677
 21
2090.000000000001
 31
0.0
  0
LINE
  5
3BA
  8
0
  6
CONTINUOUS
 62
   251
 10
-1887.405797101142
 20
2058.897401380569
 30
0.0
 11
-1830.594202898244
 21
2058.89740138031
 31
0.0
  0
LINE
  5
3BB
  8
0
  6
CONTINUOUS
 62
     7
 10
-1806.67621555677
 20
2093.394815769887
 30
0.0
 11
-1800.779593456694
 21
2093.394815769887
 31
0.0
  0
ARC
  5
3BC
  8
0
  6
CONTINUOUS
 62
     7
 10
-1809.324048744568
 20
2097.941140954975
 30
0.0
 40
9.647951344247966
 50
0.2835627882574556
 51
16.53079501544508
  0
ARC
  5
3BD
  8
0
  6
CONTINUOUS
 62
     7
 10
-1813.782812006804
 20
2096.672330578661
 30
0.0
 40
14.28353144251184
 50
16.32104990374423
 51
24.44424224745142
  0
ARC
  5
3BE
  8
0
  6
CONTINUOUS
 62
     7
 10
-1801.368893128362
 20
2104.79609280891
 30
0.0
 40
2.290243837495723
 50
284.910429835009
 51
313.755515155523
  0
ARC
  5
3BF
  8
0
  6
CONTINUOUS
 62
     7
 10
-1800.053026113997
 20
2103.407629355747
 30
0.0
 40
0.377456567000888
 50
315.2417225165937
 51
356.6473698859311
  0
LINE
  5
3C0
  8
0
  6
CONTINUOUS
 62
     7
 10
-1799.67621555677
 20
2089.60333417738
 30
0.0
 11
-1799.67621555677
 21
2086.5
 31
0.0
  0
ARC
  5
3C1
  8
0
  6
CONTINUOUS
 62
     7
 10
-1801.327483826603
 20
2102.054187601133
 30
0.0
 40
2.203172336696651
 50
45.1451295662408
 51
75.60043791351559
  0
ARC
  5
3C2
  8
0
  6
CONTINUOUS
 62
     7
 10
-1809.564344329256
 20
2090.698101154739
 30
0.0
 40
10.05222726461557
 50
330.9163406831342
 51
342.5696892263513
  0
ARC
  5
3C3
  8
0
  6
CONTINUOUS
 62
     7
 10
-1806.201565028665
 20
2089.635033128306
 30
0.0
 40
6.525426465285318
 50
342.6306992196646
 51
359.7216698010616
  0
LINE
  5
3C4
  8
0
  6
CONTINUOUS
 62
     7
 10
-1806.67621555677
 20
2104.188147415128
 30
0.0
 11
-1800.779593456694
 21
2104.188147415128
 31
0.0
  0
LINE
  5
3C5
  8
0
  6
CONTINUOUS
 62
     7
 10
-1806.67621555677
 20
2085.811852584874
 30
0.0
 11
-1800.779593456694
 21
2085.811852584874
 31
0.0
  0
ARC
  5
3C6
  8
0
  6
CONTINUOUS
 62
     7
 10
-1800.039119527399
 20
2103.368050863924
 30
0.0
 40
0.3633258828973246
 50
2.761484274386094
 51
43.03629308119694
  0
LINE
  5
3C7
  8
0
  6
CONTINUOUS
 62
     7
 10
-1862.000000000185
 20
2002.548661448317
 30
0.0
 11
-1862.000000000185
 21
1505.265214655213
 31
0.0
  0
LINE
  5
3C8
  8
0
  6
CONTINUOUS
 62
     7
 10
-1921.745023769906
 20
2180.877979514066
 30
0.0
 11
-1920.220256934503
 21
2179.997654971195
 31
0.0
  0
ARC
  5
3C9
  8
0
  6
CONTINUOUS
 62
     7
 10
-2311.017879322973
 20
2491.551637772968
 30
0.0
 40
114.4148525623207
 50
237.2455807363947
 51
239.9999999999998
  0
ARC
  5
3CA
  8
0
  6
CONTINUOUS
 62
     7
 10
-2326.098224230745
 20
2468.110589794004
 30
0.0
 40
86.54193500980305
 50
233.6037719474537
 51
237.245580736403
  0
ARC
  5
3CB
  8
0
  6
CONTINUOUS
 62
     7
 10
-2308.533313958122
 20
2491.938338530421
 30
0.0
 40
116.1440917341218
 50
232.3680951370763
 51
233.6037719474537
  0
ARC
  5
3CC
  8
0
  6
CONTINUOUS
 62
     7
 10
-2344.69927048257
 20
2445.029944074637
 30
0.0
 40
56.91256396598365
 50
229.846237841241
 51
232.3680951370873
  0
ARC
  5
3CD
  8
0
  6
CONTINUOUS
 62
     7
 10
-2323.573365823523
 20
2470.070037217853
 30
0.0
 40
89.67397590570525
 50
228.4251892590759
 51
229.8462378412408
  0
ARC
  5
3CE
  8
0
  6
CONTINUOUS
 62
     7
 10
-2359.259760779792
 20
2429.839873304732
 30
0.0
 40
35.89679790749194
 50
224.8747834460701
 51
228.425189259093
  0
ARC
  5
3CF
  8
0
  6
CONTINUOUS
 62
     7
 10
-2340.938773207315
 20
2448.080956496237
 30
0.0
 40
61.75014781867953
 50
223.1365411580182
 51
224.8747834460699
  0
ARC
  5
3D0
  8
0
  6
CONTINUOUS
 62
     7
 10
-2370.173088310683
 20
2420.688975921684
 30
0.0
 40
21.68812366412928
 50
218.1860900777112
 51
223.1365411579971
  0
ARC
  5
3D1
  8
0
  6
CONTINUOUS
 62
     7
 10
-2357.270297869725
 20
2430.83739953075
 30
0.0
 40
38.10374131660701
 50
216.9984498587294
 51
218.186090077711
  0
ARC
  5
3D2
  8
0
  6
CONTINUOUS
 62
     7
 10
-2377.157386689049
 20
2415.852246761927
 30
0.0
 40
13.2029159244112
 50
213.5704589561704
 51
216.9984498587842
  0
ARC
  5
3D3
  8
0
  6
CONTINUOUS
 62
     7
 10
-2369.89687064738
 20
2420.670728047397
 30
0.0
 40
21.91686193582029
 50
211.7716836100976
 51
213.5704589561704
  0
ARC
  5
3D4
  8
0
  6
CONTINUOUS
 62
     7
 10
-2381.232763742354
 20
2413.649930259767
 30
0.0
 40
8.582917514327466
 50
207.1773885863211
 51
211.771683610062
  0
ARC
  5
3D5
  8
0
  6
CONTINUOUS
 62
     7
 10
-2375.578784309168
 20
2416.552860915346
 30
0.0
 40
14.93858347644276
 50
204.9226739022319
 51
207.1773885863209
  0
ARC
  5
3D6
  8
0
  6
CONTINUOUS
 62
     7
 10
-2384.453875203979
 20
2412.428911162257
 30
0.0
 40
5.152154099128145
 50
198.3820378654402
 51
204.9226739022277
  0
ARC
  5
3D7
  8
0
  6
CONTINUOUS
 62
     7
 10
-2378.297194991696
 20
2414.474822606271
 30
0.0
 40
11.63987055972276
 50
195.9438219441916
 51
198.3820378654395
  0
ARC
  5
3D8
  8
0
  6
CONTINUOUS
 62
     7
 10
-2387.025323518251
 20
2411.981330937594
 30
0.0
 40
2.562551116305575
 50
184.8522436146978
 51
195.9438219443198
  0
ARC
  5
3D9
  8
0
  6
CONTINUOUS
 62
     7
 10
-2385.461730242755
 20
2412.114065417445
 30
0.0
 40
4.131768237457732
 50
173.8674922048677
 51
184.8522436146959
  0
ARC
  5
3DA
  8
0
  6
CONTINUOUS
 62
     7
 10
-2387.668310725054
 20
2412.351147162011
 30
0.0
 40
1.912487908506783
 50
150.0000000000066
 51
173.8674922049027
  0
ARC
  5
3DB
  8
0
  6
CONTINUOUS
 62
     7
 10
-2397.483985584582
 20
2432.273199709995
 30
0.0
 40
6.595166172318889
 50
217.1576471461139
 51
237.1710714472495
  0
ARC
  5
3DC
  8
0
  6
CONTINUOUS
 62
     7
 10
-2397.351780551643
 20
2432.373394848651
 30
0.0
 40
6.761049373834424
 50
194.8829955389094
 51
217.1576471460862
  0
ARC
  5
3DD
  8
0
  6
CONTINUOUS
 62
     7
 10
-2397.435426843406
 20
2432.35116487162
 30
0.0
 40
6.674499538452566
 50
172.1604321292196
 51
194.8829955389086
  0
ARC
  5
3DE
  8
0
  6
CONTINUOUS
 62
     7
 10
-2397.269877262449
 20
2432.328370916758
 30
0.0
 40
6.841610962758466
 50
150.000000000001
 51
172.1604321291918
  0
ARC
  5
3DF
  8
0
  6
CONTINUOUS
 62
     7
 10
-2397.269877262449
 20
2432.328370916758
 30
0.0
 40
6.841610962757861
 50
127.8395678708077
 51
150.0000000000024
  0
ARC
  5
3E0
  8
0
  6
CONTINUOUS
 62
     7
 10
-2397.372392196891
 20
2432.460344082022
 30
0.0
 40
6.67449953845218
 50
105.1170044610886
 51
127.839567870783
  0
ARC
  5
3E1
  8
0
  6
CONTINUOUS
 62
     7
 10
-2397.349820775844
 20
2432.37678927991
 30
0.0
 40
6.761049373831324
 50
82.84235285389849
 51
105.1170044610862
  0
ARC
  5
3E2
  8
0
  6
CONTINUOUS
 62
     7
 10
-2397.329151756901
 20
2432.541379766269
 30
0.0
 40
6.595166172318282
 50
62.82892855345807
 51
82.84235285388264
  0
ARC
  5
3E3
  8
0
  6
CONTINUOUS
 62
     7
 10
-2405.865833228229
 20
2428.630994369699
 30
0.0
 40
12.6696499310289
 50
149.9999999999979
 51
172.1604321291975
  0
ARC
  5
3E4
  8
0
  6
CONTINUOUS
 62
     7
 10
-2406.172406526297
 20
2428.673205397218
 30
0.0
 40
12.36018433046401
 50
172.1604321292116
 51
194.8829955389108
  0
ARC
  5
3E5
  8
0
  6
CONTINUOUS
 62
     7
 10
-2406.017505986
 20
2428.714372021348
 30
0.0
 40
12.52046180338715
 50
194.8829955389107
 51
217.1576471461074
  0
ARC
  5
3E6
  8
0
  6
CONTINUOUS
 62
     7
 10
-2406.26233012107
 20
2428.528825468274
 30
0.0
 40
12.21327068946897
 50
217.1576471461002
 51
239.9999999999997
  0
ARC
  5
3E7
  8
0
  6
CONTINUOUS
 62
     7
 10
-1296.952232560556
 20
2392.761530741792
 30
0.0
 40
6.595166172317291
 50
300.0000000000015
 51
322.8423528538852
  0
ARC
  5
3E8
  8
0
  6
CONTINUOUS
 62
     7
 10
-1297.084437593492
 20
2392.861725880448
 30
0.0
 40
6.761049373830219
 50
322.8423528538959
 51
345.1170044610927
  0
ARC
  5
3E9
  8
0
  6
CONTINUOUS
 62
     7
 10
-1297.000791301731
 20
2392.839495903418
 30
0.0
 40
6.674499538451165
 50
345.1170044610921
 51
7.839567870789721
  0
ARC
  5
3EA
  8
0
  6
CONTINUOUS
 62
     7
 10
-1297.16634088269
 20
2392.816701948557
 30
0.0
 40
6.841610962757861
 50
7.839567870808891
 51
29.99999999999765
  0
LINE
  5
3EB
  8
0
  6
CONTINUOUS
 62
     7
 10
-1902.000000000185
 20
1476.571751246947
 30
0.0
 11
-1869.500000000185
 21
1476.571751246947
 31
0.0
  0
ARC
  5
3EC
  8
0
  6
CONTINUOUS
 62
     7
 10
-2397.892933612133
 20
2432.866879372151
 30
0.0
 40
6.595166172318282
 50
59.99999999999901
 51
82.84235285388262
  0
ARC
  5
3ED
  8
0
  6
CONTINUOUS
 62
     7
 10
-2397.913602631076
 20
2432.702288885791
 30
0.0
 40
6.761049373831324
 50
82.84235285389852
 51
105.1170044610863
  0
ARC
  5
3EE
  8
0
  6
CONTINUOUS
 62
     7
 10
-2397.936174052123
 20
2432.785843687904
 30
0.0
 40
6.67449953845218
 50
105.1170044610886
 51
127.839567870783
  0
ARC
  5
3EF
  8
0
  6
CONTINUOUS
 62
     7
 10
-2397.833659117681
 20
2432.65387052264
 30
0.0
 40
6.841610962757861
 50
127.8395678708077
 51
150.0000000000023
  0
ARC
  5
3F0
  8
0
  6
CONTINUOUS
 62
     7
 10
-1976.414852562899
 20
1505.265214655214
 30
0.0
 40
114.414852562714
 50
357.2455807364042
 51
0.0
  0
ARC
  5
3F1
  8
0
  6
CONTINUOUS
 62
     7
 10
-1948.574137067488
 20
1503.925776856736
 30
0.0
 40
86.54193500978468
 50
353.6037719474505
 51
357.2455807364006
  0
ARC
  5
3F2
  8
0
  6
CONTINUOUS
 62
     7
 10
-1977.992027924578
 20
1507.223560999821
 30
0.0
 40
116.1440917341525
 50
352.3680951370732
 51
353.6037719474503
  0
ARC
  5
3F3
  8
0
  6
CONTINUOUS
 62
     7
 10
-1919.285188413155
 20
1499.35712112542
 30
0.0
 40
56.91256396626863
 50
349.8462378412396
 51
352.3680951370729
  0
ARC
  5
3F4
  8
0
  6
CONTINUOUS
 62
     7
 10
-1951.533497518047
 20
1505.132644666513
 30
0.0
 40
89.67397590620791
 50
348.4251892590824
 51
349.8462378412396
  0
ARC
  5
3F5
  8
0
  6
CONTINUOUS
 62
     7
 10
-1898.849956092281
 20
1494.342402021377
 30
0.0
 40
35.89679790753132
 50
344.8747834460729
 51
348.425189259092
  0
ARC
  5
3F6
  8
0
  6
CONTINUOUS
 62
     7
 10
-1923.807691314639
 20
1501.088301085734
 30
0.0
 40
61.750147818439
 50
343.1365411580145
 51
344.8747834460729
  0
ARC
  5
3F7
  8
0
  6
CONTINUOUS
 62
     7
 10
-1885.468382725585
 20
1489.466631831294
 30
0.0
 40
21.68812366405673
 50
338.1860900777138
 51
343.1365411580153
  0
ARC
  5
3F8
  8
0
  6
CONTINUOUS
 62
     7
 10
-1900.708570601228
 20
1495.566564328876
 30
0.0
 40
38.10374131798503
 50
336.9984498587735
 51
338.1860900777134
  0
ARC
  5
3F9
  8
0
  6
CONTINUOUS
 62
     7
 10
-1877.787503213
 20
1485.836416587978
 30
0.0
 40
13.20291592452877
 50
333.5704589561615
 51
336.9984498587446
  0
ARC
  5
3FA
  8
0
  6
CONTINUOUS
 62
     7
 10
-1885.590688434482
 20
1489.714967281801
 30
0.0
 40
21.91686193568271
 50
331.7716836100781
 51
333.5704589561617
  0
ARC
  5
3FB
  8
0
  6
CONTINUOUS
 62
     7
 10
-1873.842552648263
 20
1483.408194780884
 30
0.0
 40
8.582917514404013
 50
327.1773885863254
 51
331.7716836100217
  0
ARC
  5
3FC
  8
0
  6
CONTINUOUS
 62
     7
 10
-1879.183554057923
 20
1486.85321927465
 30
0.0
 40
14.93858347641263
 50
324.9226739022315
 51
327.1773885863257
  0
ARC
  5
3FD
  8
0
  6
CONTINUOUS
 62
     7
 10
-1871.174563360394
 20
1481.229139975371
 30
0.0
 40
5.152154099071447
 50
318.382037865445
 51
324.9226739023034
  0
ARC
  5
3FE
  8
0
  6
CONTINUOUS
 62
     7
 10
-1876.024714751247
 20
1485.538025720446
 30
0.0
 40
11.63987056006948
 50
315.9438219442688
 51
318.3820378654443
  0
ARC
  5
3FF
  8
0
  6
CONTINUOUS
 62
     7
 10
-1869.501223358525
 20
1479.225990523084
 30
0.0
 40
2.562551116331916
 50
304.852243614702
 51
315.943821944202
  0
ARC
  5
400
  8
0
  6
CONTINUOUS
 62
     7
 10
-1870.397971427771
 20
1480.513734780907
 30
0.0
 40
4.13176823746415
 50
293.8674922048932
 51
304.8522436147039
  0
ARC
  5
401
  8
0
  6
CONTINUOUS
 62
     7
 10
-1869.500000000185
 20
1478.484239155454
 30
0.0
 40
1.912487908506844
 50
270.0
 51
293.8674922049056
  0
LINE
  5
402
  8
0
  6
CONTINUOUS
 62
     7
 10
-1902.000000000185
 20
1476.571751246947
 30
0.0
 11
-1902.000000000185
 21
1997.722225697331
 31
0.0
  0
LINE
  5
403
  8
0
  6
CONTINUOUS
 62
     7
 10
-2409.338071925556
 20
2447.95620039198
 30
0.0
 11
-2416.838071925556
 21
2434.965819335213
 31
0.0
  0
LINE
  5
404
  8
0
  6
CONTINUOUS
 62
     7
 10
-1902.000000000185
 20
1997.722225697331
 30
0.0
 11
-1902.000000000185
 21
1999.482874783073
 31
0.0
  0
LINE
  5
405
  8
0
  6
CONTINUOUS
 62
     9
 10
-2389.324573838252
 20
2413.307391116264
 30
0.0
 11
-1933.339572181461
 21
2150.044327663284
 31
0.0
  0
LINE
  5
406
  8
0
  6
CONTINUOUS
 62
     7
 10
-1937.565207799819
 20
2143.823745487196
 30
0.0
 11
-2368.225305604134
 21
2392.465468883747
 31
0.0
  0
ARC
  5
407
  8
0
  6
CONTINUOUS
 62
     7
 10
-2398.475600810538
 20
2442.0158362589
 30
0.0
 40
12.21327068946836
 50
60.00000000000043
 51
82.84235285390099
  0
ARC
  5
408
  8
0
  6
CONTINUOUS
 62
     7
 10
-2398.51387677155
 20
2441.711039061931
 30
0.0
 40
12.52046180338805
 50
82.84235285389359
 51
105.1170044610878
  0
ARC
  5
409
  8
0
  6
CONTINUOUS
 62
     7
 10
-2398.555675699415
 20
2441.865770176956
 30
0.0
 40
12.36018433046293
 50
105.1170044610889
 51
127.8395678707893
  0
ARC
  5
40A
  8
0
  6
CONTINUOUS
 62
     7
 10
-2398.365833228232
 20
2441.621375426467
 30
0.0
 40
12.66964993102471
 50
127.8395678707927
 51
149.9999999999986
  0
ARC
  5
40B
  8
0
  6
CONTINUOUS
 62
     7
 10
-1297.670848243472
 20
2392.70421119219
 30
0.0
 40
6.595166172313712
 50
97.15764714610303
 51
117.1710714478745
  0
ARC
  5
40C
  8
0
  6
CONTINUOUS
 62
     7
 10
-1297.650179224525
 20
2392.539620705831
 30
0.0
 40
6.761049373825833
 50
74.88299553891291
 51
97.15764714611879
  0
ARC
  5
40D
  8
0
  6
CONTINUOUS
 62
     7
 10
-1297.627607803478
 20
2392.623175507943
 30
0.0
 40
6.674499538447545
 50
52.16043212920187
 51
74.88299553891255
  0
ARC
  5
40E
  8
0
  6
CONTINUOUS
 62
     7
 10
-1297.730122737918
 20
2392.491202342676
 30
0.0
 40
6.841610962753703
 50
30.00000000000057
 51
52.16043212920584
  0
ARC
  5
40F
  8
0
  6
CONTINUOUS
 62
     7
 10
-1297.73012273792
 20
2392.491202342675
 30
0.0
 40
6.841610962755877
 50
7.839567870803536
 51
29.99999999999864
  0
ARC
  5
410
  8
0
  6
CONTINUOUS
 62
     7
 10
-1297.56457315696
 20
2392.513996297536
 30
0.0
 40
6.674499538448689
 50
345.1170044610905
 51
7.839567870796657
  0
ARC
  5
411
  8
0
  6
CONTINUOUS
 62
     7
 10
-1297.648219448726
 20
2392.536226274567
 30
0.0
 40
6.761049373832379
 50
322.8423528539013
 51
345.1170044610899
  0
ARC
  5
412
  8
0
  6
CONTINUOUS
 62
     7
 10
-1297.516014415788
 20
2392.43603113591
 30
0.0
 40
6.595166172317787
 50
302.8289285513715
 51
322.8423528538833
  0
ARC
  5
413
  8
0
  6
CONTINUOUS
 62
     7
 10
-1297.107066388238
 20
2393.029710798068
 30
0.0
 40
6.595166172317787
 50
120.0000000000012
 51
142.8423528538833
  0
ARC
  5
414
  8
0
  6
CONTINUOUS
 62
     7
 10
-1296.9748613553
 20
2392.929515659411
 30
0.0
 40
6.761049373832379
 50
142.8423528539013
 51
165.1170044610898
  0
ARC
  5
415
  8
0
  6
CONTINUOUS
 62
     7
 10
-1297.058507647065
 20
2392.951745636443
 30
0.0
 40
6.674499538448689
 50
165.1170044610905
 51
187.8395678707967
  0
ARC
  5
416
  8
0
  6
CONTINUOUS
 62
     7
 10
-1296.892958066106
 20
2392.974539591303
 30
0.0
 40
6.841610962756099
 50
187.8395678708072
 51
210.0000000000018
  0
ARC
  5
417
  8
0
  6
CONTINUOUS
 62
     7
 10
-1296.892958066109
 20
2392.974539591301
 30
0.0
 40
6.84161096275252
 50
210.000000000002
 51
232.1604321292124
  0
ARC
  5
418
  8
0
  6
CONTINUOUS
 62
     7
 10
-1296.995473000548
 20
2392.842566426033
 30
0.0
 40
6.674499538445229
 50
232.1604321291961
 51
254.8829955389131
  0
ARC
  5
419
  8
0
  6
CONTINUOUS
 62
     7
 10
-1296.972901579501
 20
2392.926121228147
 30
0.0
 40
6.761049373825833
 50
254.8829955389129
 51
277.1576471461188
  0
ARC
  5
41A
  8
0
  6
CONTINUOUS
 62
     7
 10
-1296.952232560554
 20
2392.761530741789
 30
0.0
 40
6.595166172313712
 50
277.157647146103
 51
300.0
  0
ARC
  5
41B
  8
0
  6
CONTINUOUS
 62
     7
 10
-1929.104653246625
 20
2170.872182261368
 30
0.0
 40
12.8604297117604
 50
343.592691016935
 51
351.0948360109438
  0
ARC
  5
41C
  8
0
  6
CONTINUOUS
 62
     7
 10
-1929.895532667896
 20
2170.99610370352
 30
0.0
 40
13.66095877607656
 50
351.0948360109433
 51
1.136749113935991
  0
ARC
  5
41D
  8
0
  6
CONTINUOUS
 62
     7
 10
-1927.820774991775
 20
2171.037272328359
 30
0.0
 40
11.58579269349572
 50
1.136749113939402
 51
12.9832406779151
  0
ARC
  5
41E
  8
0
  6
CONTINUOUS
 62
     7
 10
-1928.831984781657
 20
2170.804127681904
 30
0.0
 40
12.62353142040277
 50
12.98324067791712
 51
23.51772666174665
  0
ARC
  5
41F
  8
0
  6
CONTINUOUS
 62
     7
 10
-1926.989453625805
 20
2171.605960955316
 30
0.0
 40
10.61408929418096
 50
23.51772666177081
 51
36.05393533987993
  0
ARC
  5
420
  8
0
  6
CONTINUOUS
 62
     7
 10
-1927.523419447233
 20
2171.217243573401
 30
0.0
 40
11.27455935516564
 50
36.05393533988145
 51
47.58013153821972
  0
ARC
  5
421
  8
0
  6
CONTINUOUS
 62
     7
 10
-1926.978094934572
 20
2171.814034377242
 30
0.0
 40
10.46614232933142
 50
47.5801315382411
 51
59.99999999999969
  0
LINE
  5
422
  8
0
  6
CONTINUOUS
 62
     7
 10
-1346.774694396236
 20
2387.269316461041
 30
0.0
 11
-1302.631034534566
 21
2412.755670365192
 31
0.0
  0
ARC
  5
423
  8
0
  6
CONTINUOUS
 62
     7
 10
-2397.83365911768
 20
2432.65387052264
 30
0.0
 40
6.841610962758466
 50
150.000000000001
 51
172.1604321291919
  0
ARC
  5
424
  8
0
  6
CONTINUOUS
 62
     7
 10
-2397.999208698638
 20
2432.676664477502
 30
0.0
 40
6.674499538452566
 50
172.1604321292196
 51
194.8829955389086
  0
ARC
  5
425
  8
0
  6
CONTINUOUS
 62
     7
 10
-2397.915562406879
 20
2432.698894454531
 30
0.0
 40
6.761049373828818
 50
194.8829955389066
 51
217.1576471461038
  0
ARC
  5
426
  8
0
  6
CONTINUOUS
 62
     7
 10
-2398.047767439816
 20
2432.598699315874
 30
0.0
 40
6.595166172315309
 50
217.157647146104
 51
239.9999999999975
  0
LINE
  5
427
  8
0
  6
CONTINUOUS
 62
     7
 10
-2373.074573838252
 20
2441.453216739258
 30
0.0
 11
-2392.368965465804
 21
2452.592838939275
 31
0.0
  0
ARC
  5
428
  8
0
  6
CONTINUOUS
 62
     7
 10
-1925.453328099169
 20
2170.93370983437
 30
0.0
 40
10.46614232933142
 50
47.58013153824111
 51
59.99999999999972
  0
ARC
  5
429
  8
0
  6
CONTINUOUS
 62
     7
 10
-1925.99865261183
 20
2170.336919030529
 30
0.0
 40
11.27455935516564
 50
36.05393533988143
 51
47.58013153821968
  0
ARC
  5
42A
  8
0
  6
CONTINUOUS
 62
     7
 10
-1925.464686790402
 20
2170.725636412445
 30
0.0
 40
10.61408929418096
 50
23.51772666177078
 51
36.0539353398799
  0
ARC
  5
42B
  8
0
  6
CONTINUOUS
 62
     7
 10
-1927.307217946254
 20
2169.923803139033
 30
0.0
 40
12.62353142040267
 50
12.98324067791515
 51
23.5177266617448
  0
ARC
  5
42C
  8
0
  6
CONTINUOUS
 62
     7
 10
-1926.296008156372
 20
2170.156947785488
 30
0.0
 40
11.5857926934955
 50
1.136749113939459
 51
12.98324067791532
  0
ARC
  5
42D
  8
0
  6
CONTINUOUS
 62
     7
 10
-1928.370765832493
 20
2170.115779160648
 30
0.0
 40
13.66095877607656
 50
354.4548901617628
 51
1.136749113935991
  0
LINE
  5
42E
  8
0
  6
CONTINUOUS
 62
     7
 10
-2373.074573838252
 20
2441.453216739258
 30
0.0
 11
-1921.745023769906
 21
2180.877979514066
 31
0.0
  0
LINE
  5
42F
  8
0
  6
CONTINUOUS
 62
     7
 10
-2368.225305604134
 20
2392.465468883747
 30
0.0
 11
-2412.368965465804
 21
2417.951822787898
 31
0.0
  0
ARC
  5
430
  8
0
  6
CONTINUOUS
 62
     7
 10
-2398.047767439814
 20
2432.598699315876
 30
0.0
 40
6.595166172318282
 50
239.999999999999
 51
262.8423528538826
  0
ARC
  5
431
  8
0
  6
CONTINUOUS
 62
     7
 10
-2398.027098420871
 20
2432.763289802236
 30
0.0
 40
6.761049373831324
 50
262.8423528538985
 51
285.1170044610863
  0
ARC
  5
432
  8
0
  6
CONTINUOUS
 62
     7
 10
-2398.004526999825
 20
2432.679735000123
 30
0.0
 40
6.67449953845218
 50
285.1170044610885
 51
307.8395678707829
  0
ARC
  5
433
  8
0
  6
CONTINUOUS
 62
     7
 10
-2398.107041934266
 20
2432.811708165387
 30
0.0
 40
6.841610962757861
 50
307.8395678708077
 51
330.0000000000024
  0
ARC
  5
434
  8
0
  6
CONTINUOUS
 62
     7
 10
-2398.107041934267
 20
2432.811708165388
 30
0.0
 40
6.841610962758466
 50
330.0000000000011
 51
352.1604321291919
  0
ARC
  5
435
  8
0
  6
CONTINUOUS
 62
     7
 10
-2397.941492353309
 20
2432.788914210525
 30
0.0
 40
6.674499538452566
 50
352.1604321292195
 51
14.88299553890863
  0
ARC
  5
436
  8
0
  6
CONTINUOUS
 62
     7
 10
-2398.025138645067
 20
2432.766684233496
 30
0.0
 40
6.761049373828818
 50
14.88299553890655
 51
37.15764714610377
  0
ARC
  5
437
  8
0
  6
CONTINUOUS
 62
     7
 10
-2397.892933612131
 20
2432.866879372154
 30
0.0
 40
6.595166172315309
 50
37.15764714610401
 51
59.99999999999748
  0
LINE
  5
438
  8
0
  6
CONTINUOUS
 62
     7
 10
-2373.074573838252
 20
2441.453216739258
 30
0.0
 11
-2389.324573838252
 21
2413.307391116264
 31
0.0
  0
LINE
  5
439
  8
0
  6
CONTINUOUS
 62
     9
 10
-1869.500000000185
 20
1476.571751246947
 30
0.0
 11
-1869.500000000185
 21
2003.097878152907
 31
0.0
  0
ARC
  5
43A
  8
0
  6
CONTINUOUS
 62
     7
 10
-1300.289694274454
 20
-413.7336988283093
 30
0.0
 40
12.62328015658183
 50
256.6882977207217
 51
258.6004441429076
  0
ARC
  5
43B
  8
0
  6
CONTINUOUS
 62
     7
 10
-1281.038283624406
 20
-302.4167363580437
 30
0.0
 40
125.612705917687
 50
260.7207305560079
 51
261.220734926753
  0
ARC
  5
43C
  8
0
  6
CONTINUOUS
 62
     7
 10
-1291.302697376279
 20
-427.5530110458588
 30
0.0
 40
0.4972640376670525
 50
54.06423206149958
 51
76.99677721018064
  0
ARC
  5
43D
  8
0
  6
CONTINUOUS
 62
     7
 10
-1305.020595111368
 20
-491.3557871205736
 30
0.0
 40
65.80734684146846
 50
81.22073492675295
 51
82.34540247340819
  0
LINE
  5
43E
  8
0
  6
CONTINUOUS
 62
     7
 10
-1918.743492766807
 20
-69.01783083567814
 30
0.0
 11
-1918.319221200455
 21
-68.41512026211399
 31
0.0
  0
ARC
  5
43F
  8
0
  6
CONTINUOUS
 62
     7
 10
-1303.270088515855
 20
-438.1201888585946
 30
0.0
 40
12.62328015665908
 50
87.46386075189262
 51
89.37600717406751
  0
LINE
  5
440
  8
0
  6
CONTINUOUS
 62
     7
 10
-1920.176215556585
 20
-73.09792548171484
 30
0.0
 11
-1920.176215556585
 21
-78.91564919996901
 31
0.0
  0
ARC
  5
441
  8
0
  6
CONTINUOUS
 62
     7
 10
-1314.148579034481
 20
-550.4604475437147
 30
0.0
 40
125.612705917687
 50
80.72073055600788
 51
81.22073492675295
  0
ARC
  5
442
  8
0
  6
CONTINUOUS
 62
     7
 10
-1311.394081848047
 20
-550.7970883453454
 30
0.0
 40
125.6127059177003
 50
84.84356996803801
 51
85.343574338783
  0
ARC
  5
443
  8
0
  6
CONTINUOUS
 62
     7
 10
-1294.897168384434
 20
-439.1434850734491
 30
0.0
 40
12.62328015658183
 50
76.6882977207217
 51
78.6004441429076
  0
ARC
  5
444
  8
0
  6
CONTINUOUS
 62
     7
 10
-1399.596419646093
 20
-833.4477902852442
 30
0.0
 40
418.6791013248545
 50
76.68829772072162
 51
76.73135002007854
  0
ARC
  5
445
  8
0
  6
CONTINUOUS
 62
     7
 10
-1195.590443012794
 20
-19.42939361651425
 30
0.0
 40
418.6791013248546
 50
256.6882977207216
 51
256.7313500200785
  0
ARC
  5
446
  8
0
  6
CONTINUOUS
 62
     7
 10
-1816.204388644876
 20
-196.0087122131726
 30
0.0
 40
20.90345780466659
 50
333.462823972921
 51
345.908994939633
  0
ARC
  5
447
  8
0
  6
CONTINUOUS
 62
     7
 10
-1791.336527384213
 20
-210.9707527888001
 30
0.0
 40
7.151565891795761
 50
283.3581685791625
 51
295.0259803103603
  0
LINE
  5
448
  8
0
  6
CONTINUOUS
 62
     7
 10
-1806.676215556585
 20
-224.6466531929465
 30
0.0
 11
-1800.779593456509
 21
-224.6466531929465
 31
0.0
  0
ARC
  5
449
  8
0
  6
CONTINUOUS
 62
     7
 10
-1801.927318500035
 20
-236.3274527965213
 30
0.0
 40
2.267519233144589
 50
6.89861658638276
 51
52.44535214749609
  0
ARC
  5
44A
  8
0
  6
CONTINUOUS
 62
     7
 10
-1803.454388644878
 20
-214.6871387437175
 30
0.0
 40
20.90345780466469
 50
14.09100506036373
 51
26.53717602707684
  0
LINE
  5
44B
  8
0
  6
CONTINUOUS
 62
     7
 10
-1803.128221735368
 20
-209.5979254784455
 30
0.0
 11
-1798.878221735369
 21
-218.0979254784453
 31
0.0
  0
LINE
  5
44C
  8
0
  6
CONTINUOUS
 62
     7
 10
-1799.676215556585
 20
-71.53088672753022
 30
0.0
 11
-1799.676215556585
 21
-79.48805580274693
 31
0.0
  0
ARC
  5
44D
  8
0
  6
CONTINUOUS
 62
     7
 10
-1791.128221735371
 20
-211.847968800971
 30
0.0
 40
6.249956677474855
 50
270.0
 51
283.3581685791589
  0
ARC
  5
44E
  8
0
  6
CONTINUOUS
 62
     7
 10
-1310.609978772031
 20
-532.9439327635457
 30
0.0
 40
107.7694138511754
 50
83.03215244739613
 51
83.71890242138082
  0
ARC
  5
44F
  8
0
  6
CONTINUOUS
 62
     7
 10
-1303.884165282609
 20
-425.3241728558997
 30
0.0
 40
0.4972640376670525
 50
234.0642320614996
 51
256.9967772101807
  0
ARC
  5
450
  8
0
  6
CONTINUOUS
 62
     7
 10
-1299.098676861776
 20
-458.3472048903526
 30
0.0
 40
32.27809804083802
 50
78.77483767285813
 51
80.72073055600254
  0
LINE
  5
451
  8
0
  6
CONTINUOUS
 62
     7
 10
-1322.489208017026
 20
-424.0112760063585
 30
0.0
 11
-1303.194816389612
 21
-427.155360764025
 31
0.0
  0
ARC
  5
452
  8
0
  6
CONTINUOUS
 62
     7
 10
-1319.757340464034
 20
-562.4411326416864
 30
0.0
 40
138.4022054647932
 50
78.6004441429169
 51
78.77483767285803
  0
LINE
  5
453
  8
0
  6
CONTINUOUS
 62
     7
 10
-1800.779593456509
 20
-68.41512026211399
 30
0.0
 11
-1800.163134573827
 21
-69.01763806412536
 31
0.0
  0
ARC
  5
454
  8
0
  6
CONTINUOUS
 62
     7
 10
-1303.493400224056
 20
-429.462998484147
 30
0.0
 40
3.969154477783466
 50
89.33295487470357
 51
93.87543848500712
  0
ARC
  5
455
  8
0
  6
CONTINUOUS
 62
     7
 10
-1292.595494532153
 20
-430.79488574333
 30
0.0
 40
3.969154477781792
 50
72.18886640978921
 51
76.73135002009334
  0
LINE
  5
456
  8
0
  6
CONTINUOUS
 62
     7
 10
-1795.929910685331
 20
-201.0979254784458
 30
0.0
 11
-1791.128221735371
 21
-201.0979254784459
 31
0.0
  0
ARC
  5
457
  8
0
  6
CONTINUOUS
 62
     7
 10
-1304.229123846252
 20
-425.6276109634434
 30
0.0
 40
0.0649341559255402
 50
94.25100278790566
 51
173.032152447347
  0
ARC
  5
458
  8
0
  6
CONTINUOUS
 62
     7
 10
-1792.473514429983
 20
-209.8107359076354
 30
0.0
 40
8.747607595454037
 50
308.5462005173204
 51
318.4890057749606
  0
ARC
  5
459
  8
0
  6
CONTINUOUS
 62
     7
 10
-1303.967396408724
 20
-426.0051951847563
 30
0.0
 40
0.4972640376664784
 50
89.06752768460814
 51
112.00007283331
  0
ARC
  5
45A
  8
0
  6
CONTINUOUS
 62
     7
 10
-1310.60997877212
 20
-532.9439327642763
 30
0.0
 40
107.7694138519115
 50
82.34540247341589
 51
83.03215244739614
  0
LINE
  5
45B
  8
0
  6
CONTINUOUS
 62
     7
 10
-1799.676215556585
 20
-79.48805580274693
 30
0.0
 11
-1799.676215556585
 21
-86.05509455693155
 31
0.0
  0
ARC
  5
45C
  8
0
  6
CONTINUOUS
 62
     7
 10
-1811.834360457047
 20
-79.2635924674867
 30
0.0
 40
12.16021674188047
 50
335.3802998584915
 51
358.9423270579234
  0
ARC
  5
45D
  8
0
  6
CONTINUOUS
 62
     7
 10
-1308.83574649018
 20
-563.7759149618611
 30
0.0
 40
138.4022054630326
 50
87.28946722193575
 51
87.46386075187898
  0
ARC
  5
45E
  8
0
  6
CONTINUOUS
 62
     7
 10
-1304.33275966669
 20
-425.9430679180888
 30
0.0
 40
0.2671102289270796
 50
54.06423206149486
 51
71.81330210679363
  0
ARC
  5
45F
  8
0
  6
CONTINUOUS
 62
     7
 10
-1304.526327897928
 20
-428.1049711024941
 30
0.0
 40
2.35671769191297
 50
72.18886640979093
 51
76.99677721016752
  0
ARC
  5
460
  8
0
  6
CONTINUOUS
 62
     7
 10
-1805.088954012381
 20
-221.694433728669
 30
0.0
 40
5.415208695187058
 50
1.730677163235492
 51
37.2702093373749
  0
LINE
  5
461
  8
0
  6
CONTINUOUS
 62
     7
 10
-1806.676215556585
 20
-237.7807307013157
 30
0.0
 11
-1800.779593456509
 21
-237.7807307013157
 31
0.0
  0
LINE
  5
462
  8
0
  6
CONTINUOUS
 62
     7
 10
-1831.500000000009
 20
-206.0979254784473
 30
0.0
 11
-1831.500000000009
 21
-213.097925478444
 31
0.0
  0
ARC
  5
463
  8
0
  6
CONTINUOUS
 62
     7
 10
-1302.591368126735
 20
-422.0822981584284
 30
0.0
 40
3.969154477781792
 50
252.1888664097894
 51
256.7313500200934
  0
ARC
  5
464
  8
0
  6
CONTINUOUS
 62
     7
 10
-1298.57298387974
 20
-6.843385317570227
 30
0.0
 40
418.6791010847687
 50
269.3329548746858
 51
269.3760071740676
  0
LINE
  5
465
  8
0
  6
CONTINUOUS
 62
     7
 10
-1920.176215556585
 20
-228.915649199969
 30
0.0
 11
-1920.176215556585
 21
-233.0979254817149
 31
0.0
  0
ARC
  5
466
  8
0
  6
CONTINUOUS
 62
     7
 10
-1303.920950728151
 20
-423.1515914085658
 30
0.0
 40
2.356717691905826
 50
269.0675276846141
 51
273.8754384850055
  0
ARC
  5
467
  8
0
  6
CONTINUOUS
 62
     7
 10
-1304.229123846252
 20
-425.6276109634433
 30
0.0
 40
0.0649341559255267
 50
173.0321524474443
 51
251.8133021069391
  0
ARC
  5
468
  8
0
  6
CONTINUOUS
 62
     7
 10
-1275.429522194853
 20
-290.4360512600721
 30
0.0
 40
138.4022054647932
 50
258.6004441429169
 51
258.774837672858
  0
LINE
  5
469
  8
0
  6
CONTINUOUS
 62
     7
 10
-1919.323784443415
 20
-236.1729254817148
 30
0.0
 11
-1919.323784443415
 21
-220.0229254817148
 31
0.0
  0
LINE
  5
46A
  8
0
  6
CONTINUOUS
 62
     7
 10
-1833.000000000008
 20
-214.5979254784433
 30
0.0
 11
-1833.000000000008
 21
-204.5979254784481
 31
0.0
  0
LINE
  5
46B
  8
0
  6
CONTINUOUS
 62
     7
 10
-1918.743492766807
 20
-87.17802012775155
 30
0.0
 11
-1918.319221200455
 21
-87.7807307013157
 31
0.0
  0
ARC
  5
46C
  8
0
  6
CONTINUOUS
 62
     7
 10
-1290.957738812635
 20
-427.2495729383152
 30
0.0
 40
0.0649341559255267
 50
353.0321524474443
 51
71.81330210693925
  0
ARC
  5
46D
  8
0
  6
CONTINUOUS
 62
     7
 10
-1290.854102992197
 20
-426.9341159836697
 30
0.0
 40
0.2671102289270796
 50
234.0642320614948
 51
251.8133021067936
  0
ARC
  5
46E
  8
0
  6
CONTINUOUS
 62
     7
 10
-1903.238559938192
 20
-76.70779516068282
 30
0.0
 40
15.83873490330877
 50
162.2016119947507
 51
197.7983880052493
  0
ARC
  5
46F
  8
0
  6
CONTINUOUS
 62
     7
 10
-1290.660534760959
 20
-424.7722127992644
 30
0.0
 40
2.35671769191297
 50
252.188866409791
 51
256.9967772101675
  0
ARC
  5
470
  8
0
  6
CONTINUOUS
 62
     7
 10
-1296.088185797111
 20
-394.5299790114058
 30
0.0
 40
32.27809804083802
 50
258.7748376728581
 51
260.7207305560025
  0
ARC
  5
471
  8
0
  6
CONTINUOUS
 62
     7
 10
-1306.019060588573
 20
-491.2337596882132
 30
0.0
 40
65.80734684129865
 50
83.71890242137958
 51
84.84356996803793
  0
LINE
  5
472
  8
0
  6
CONTINUOUS
 62
     7
 10
-1798.878221735369
 20
-201.0979254784458
 30
0.0
 11
-1803.128221735368
 21
-209.5979254784455
 31
0.0
  0
ARC
  5
473
  8
0
  6
CONTINUOUS
 62
     7
 10
-1304.253736949732
 20
-425.2964800699143
 30
0.0
 40
0.2671102289273697
 50
274.2510027880344
 51
292.000072833306
  0
ARC
  5
474
  8
0
  6
CONTINUOUS
 62
     7
 10
-1303.817129226289
 20
-457.7705393578536
 30
0.0
 40
32.27809804069377
 50
85.34357433878193
 51
87.28946722193558
  0
ARC
  5
475
  8
0
  6
CONTINUOUS
 62
     7
 10
-1276.964578728046
 20
-428.072997861786
 30
0.0
 40
0.4946485720859535
 50
234.0642320615138
 51
251.8133021068908
  0
ARC
  5
476
  8
0
  6
CONTINUOUS
 62
     7
 10
-1266.287135454263
 20
-197.4852578137075
 30
0.0
 40
232.6161220704201
 50
260.870695499283
 51
261.2207349267533
  0
ARC
  5
477
  8
0
  6
CONTINUOUS
 62
     7
 10
-1277.64117735391
 20
-427.957947367954
 30
0.0
 40
0.9208593290142505
 50
269.0675276846558
 51
292.0000728332776
  0
ARC
  5
478
  8
0
  6
CONTINUOUS
 62
     7
 10
-1329.925310708177
 20
-674.3988833829684
 30
0.0
 40
256.3003804833165
 50
78.60044414291235
 51
78.77483767285821
  0
ARC
  5
479
  8
0
  6
CONTINUOUS
 62
     7
 10
-1276.125714240089
 20
-172.8269848176168
 30
0.0
 40
256.3003804872434
 50
267.2894672219348
 51
267.4638607518779
  0
ARC
  5
47A
  8
0
  6
CONTINUOUS
 62
     7
 10
-1291.916774143033
 20
-414.7569950431639
 30
0.0
 40
12.62328015665908
 50
267.4638607518926
 51
269.3760071740675
  0
ARC
  5
47B
  8
0
  6
CONTINUOUS
 62
     7
 10
-1303.967396408724
 20
-426.0051951847566
 30
0.0
 40
0.4972640376668388
 50
89.06752768460888
 51
112.0000728332932
  0
ARC
  5
47C
  8
0
  6
CONTINUOUS
 62
     7
 10
-1276.606119040564
 20
-424.069473446213
 30
0.0
 40
4.364292022068359
 50
252.1888664097791
 51
256.9967772101472
  0
ARC
  5
47D
  8
0
  6
CONTINUOUS
 62
     7
 10
-1283.792780810841
 20
-302.0800955564131
 30
0.0
 40
125.6127059177003
 50
264.843569968038
 51
265.343574338783
  0
ARC
  5
47E
  8
0
  6
CONTINUOUS
 62
     7
 10
-1289.167802070314
 20
-361.6434242135452
 30
0.0
 40
65.80734684129865
 50
263.7189024213796
 51
264.8435699680379
  0
ARC
  5
47F
  8
0
  6
CONTINUOUS
 62
     7
 10
-1283.190809386046
 20
-306.9383326719725
 30
0.0
 40
121.8654571138566
 50
261.2207349267534
 51
262.3454024734084
  0
ARC
  5
480
  8
0
  6
CONTINUOUS
 62
     7
 10
-1303.920950728151
 20
-423.1515914085809
 30
0.0
 40
2.356717691890702
 50
269.0675276845861
 51
273.8754384850088
  0
ARC
  5
481
  8
0
  6
CONTINUOUS
 62
     7
 10
-1277.156496914041
 20
-428.6571774074249
 30
0.0
 40
0.12024843689898
 50
274.2510027878853
 51
353.0321524473643
  0
ARC
  5
482
  8
0
  6
CONTINUOUS
 62
     7
 10
-1304.253736949732
 20
-425.296480069915
 30
0.0
 40
0.2671102289265661
 50
274.2510027880002
 51
292.0000728333243
  0
ARC
  5
483
  8
0
  6
CONTINUOUS
 62
     7
 10
-1284.576883886857
 20
-319.9332511382128
 30
0.0
 40
107.7694138511754
 50
263.0321524473961
 51
263.7189024213807
  0
ARC
  5
484
  8
0
  6
CONTINUOUS
 62
     7
 10
-1283.887955006583
 20
-446.0699064116536
 30
0.0
 40
23.37644473440654
 50
76.6882977207228
 51
78.60044414290996
  0
ARC
  5
485
  8
0
  6
CONTINUOUS
 62
     7
 10
-1298.572983876428
 20
-6.843385010509295
 30
0.0
 40
418.6791013918474
 50
269.332954874722
 51
269.3419120608195
  0
ARC
  5
486
  8
0
  6
CONTINUOUS
 62
     7
 10
-1304.229123846252
 20
-425.6276109634433
 30
0.0
 40
0.0649341559255402
 50
94.25100278790204
 51
173.032152447347
  0
LINE
  5
487
  8
0
  6
CONTINUOUS
 62
     7
 10
-1322.489208017026
 20
-424.0112760063585
 30
0.0
 11
-1393.335126208116
 21
-416.0872431636251
 31
0.0
  0
ARC
  5
488
  8
0
  6
CONTINUOUS
 62
     7
 10
-1287.630830187243
 20
-1204.183521373536
 30
0.0
 40
775.3316688529643
 50
89.3329548746994
 51
89.34191206080128
  0
ARC
  5
489
  8
0
  6
CONTINUOUS
 62
     7
 10
-1277.795309068937
 20
-429.2190998288031
 30
0.0
 40
0.9208593290142706
 50
54.06423206151118
 51
76.99677721013241
  0
ARC
  5
48A
  8
0
  6
CONTINUOUS
 62
     7
 10
-1272.84009890334
 20
-229.9232481479735
 30
0.0
 40
199.5729886132904
 50
262.3454024734112
 51
263.032152447396
  0
ARC
  5
48B
  8
0
  6
CONTINUOUS
 62
     7
 10
-1330.489092563409
 20
-679.0119175919467
 30
0.0
 40
256.3003804833165
 50
78.60044414291235
 51
78.77483767285818
  0
ARC
  5
48C
  8
0
  6
CONTINUOUS
 62
     7
 10
-1280.189377876104
 20
-435.2225714907595
 30
0.0
 40
7.350286069939163
 50
72.18886640977905
 51
76.73135002009988
  0
ARC
  5
48D
  8
0
  6
CONTINUOUS
 62
     7
 10
-1277.156496914041
 20
-428.6571774074249
 30
0.0
 40
0.12024843689898
 50
353.0321524474168
 51
71.81330210688695
  0
ARC
  5
48E
  8
0
  6
CONTINUOUS
 62
     7
 10
-1277.727187873486
 20
-433.2423988053592
 30
0.0
 40
4.364292022060978
 50
89.06752768462557
 51
93.87543848500565
  0
ARC
  5
48F
  8
0
  6
CONTINUOUS
 62
     7
 10
-1286.351116168707
 20
-289.1012689398974
 30
0.0
 40
138.4022054630326
 50
267.2894672219358
 51
267.463860751879
  0
ARC
  5
490
  8
0
  6
CONTINUOUS
 62
     7
 10
-1291.693462434831
 20
-423.4141854176115
 30
0.0
 40
3.969154477783466
 50
269.3329548747035
 51
273.8754384850071
  0
ARC
  5
491
  8
0
  6
CONTINUOUS
 62
     7
 10
-1290.933125709155
 20
-427.5807038318442
 30
0.0
 40
0.2671102289273697
 50
94.25100278803436
 51
112.000072833306
  0
ARC
  5
492
  8
0
  6
CONTINUOUS
 62
     7
 10
-1290.957738812635
 20
-427.2495729383151
 30
0.0
 40
0.0649341559255402
 50
274.2510027879056
 51
353.0321524473471
  0
ARC
  5
493
  8
0
  6
CONTINUOUS
 62
     7
 10
-1303.493400224056
 20
-429.4629984841482
 30
0.0
 40
3.969154477784627
 50
89.33295487470374
 51
93.87543848500603
  0
ARC
  5
494
  8
0
  6
CONTINUOUS
 62
     7
 10
-1271.388056169952
 20
-196.8618489221069
 30
0.0
 40
232.6161220701305
 50
264.8435699680387
 51
265.3435743387831
  0
ARC
  5
495
  8
0
  6
CONTINUOUS
 62
     7
 10
-1291.369733432598
 20
-395.1066445439048
 30
0.0
 40
32.27809804069377
 50
265.3435743387819
 51
267.2894672219356
  0
ARC
  5
496
  8
0
  6
CONTINUOUS
 62
     7
 10
-1295.130830187614
 20
-1204.183521406526
 30
0.0
 40
775.3316688859569
 50
89.34191206080189
 51
89.37600717407031
  0
ARC
  5
497
  8
0
  6
CONTINUOUS
 62
     7
 10
-1277.110917092783
 20
-429.2703827658104
 30
0.0
 40
0.4946485720858189
 50
94.25100278788176
 51
112.0000728332646
  0
ARC
  5
498
  8
0
  6
CONTINUOUS
 62
     7
 10
-1272.840098903398
 20
-229.9232481484466
 30
0.0
 40
199.5729886128138
 50
263.032152447396
 51
263.7189024213824
  0
ARC
  5
499
  8
0
  6
CONTINUOUS
 62
     7
 10
-1284.451736861815
 20
-450.6829406206318
 30
0.0
 40
23.37644473440654
 50
76.6882977207228
 51
78.60044414290998
  0
ARC
  5
49A
  8
0
  6
CONTINUOUS
 62
     7
 10
-1291.668526260902
 20
-481.6323505169316
 30
0.0
 40
59.77425563107666
 50
78.77483767285831
 51
80.72073055600623
  0
ARC
  5
49B
  8
0
  6
CONTINUOUS
 62
     7
 10
-1319.538715469529
 20
-652.2124295040538
 30
0.0
 40
232.6161220690944
 50
80.72073055600657
 51
80.87069549928077
  0
ARC
  5
49C
  8
0
  6
CONTINUOUS
 62
     7
 10
-1290.166267547519
 20
-361.5213967811849
 30
0.0
 40
65.80734684146846
 50
261.220734926753
 51
262.3454024734082
  0
ARC
  5
49D
  8
0
  6
CONTINUOUS
 62
     7
 10
-1296.613878779147
 20
-846.0337985841883
 30
0.0
 40
418.6791010847687
 50
89.33295487468592
 51
89.37600717406755
  0
ARC
  5
49E
  8
0
  6
CONTINUOUS
 62
     7
 10
-1291.265911930736
 20
-429.7255924931927
 30
0.0
 40
2.356717691905826
 50
89.06752768461399
 51
93.87543848500549
  0
ARC
  5
49F
  8
0
  6
CONTINUOUS
 62
     7
 10
-1278.518948066257
 20
-421.5546079246369
 30
0.0
 40
7.350286069972602
 50
269.3329548747072
 51
273.875438485007
  0
ARC
  5
4A0
  8
0
  6
CONTINUOUS
 62
     7
 10
-1285.419449913967
 20
-369.1332359361917
 30
0.0
 40
59.77425563101738
 50
265.3435743387846
 51
267.2894672219347
  0
ARC
  5
4A1
  8
0
  6
CONTINUOUS
 62
     7
 10
-1291.219466250164
 20
-426.8719887170021
 30
0.0
 40
0.4972640376664784
 50
269.0675276846081
 51
292.00007283331
  0
ARC
  5
4A2
  8
0
  6
CONTINUOUS
 62
     7
 10
-1281.341799243064
 20
-307.1643093984394
 30
0.0
 40
121.8654571136687
 50
263.7189024213818
 51
264.8435699680387
  0
ARC
  5
4A3
  8
0
  6
CONTINUOUS
 62
     7
 10
-1284.576883886768
 20
-319.9332511374822
 30
0.0
 40
107.7694138519115
 50
262.3454024734159
 51
263.0321524473962
  0
ARC
  5
4A4
  8
0
  6
CONTINUOUS
 62
     7
 10
-1100.550393622781
 20
326.5653767157115
 30
0.0
 40
775.3316689387287
 50
256.6882977207229
 51
256.73135002009
  0
ARC
  5
4A5
  8
0
  6
CONTINUOUS
 62
     7
 10
-1320.102497324764
 20
-656.8254637130555
 30
0.0
 40
232.616122069118
 50
80.72073055600663
 51
80.87069549928094
  0
ARC
  5
4A6
  8
0
  6
CONTINUOUS
 62
     7
 10
-1292.232308116134
 20
-486.2453847259106
 30
0.0
 40
59.77425563107747
 50
78.77483767285821
 51
80.72073055600613
  0
ARC
  5
4A7
  8
0
  6
CONTINUOUS
 62
     7
 10
-1286.432488266631
 20
-405.522773898003
 30
0.0
 40
23.37644473443628
 50
267.4638607518856
 51
269.3760071740701
  0
LINE
  5
4A8
  8
0
  6
CONTINUOUS
 62
     7
 10
-1806.67621555677
 20
2106.000000000001
 30
0.0
 11
-1808.27621555677
 21
2106.000000000001
 31
0.0
  0
LINE
  5
4A9
  8
0
  6
CONTINUOUS
 62
     7
 10
-1911.3237844436
 20
2084.0
 30
0.0
 11
-1909.7237844436
 21
2084.0
 31
0.0
  0
LINE
  5
4AA
  8
0
  6
CONTINUOUS
 62
     7
 10
-1909.7237844436
 20
2106.000000000001
 30
0.0
 11
-1911.3237844436
 21
2106.000000000001
 31
0.0
  0
LINE
  5
4AB
  8
0
  6
CONTINUOUS
 62
     7
 10
-1799.67621555677
 20
2103.500000000001
 30
0.0
 11
-1799.773559736461
 21
2103.616010275865
 31
0.0
  0
LINE
  5
4AC
  8
0
  6
CONTINUOUS
 62
     7
 10
-1808.27621555677
 20
2084.0
 30
0.0
 11
-1806.67621555677
 21
2084.0
 31
0.0
  0
LINE
  5
4AD
  8
0
  6
CONTINUOUS
 62
     7
 10
-1844.904563242417
 20
-218.0979254811069
 30
0.0
 11
-1851.899999999456
 21
-218.0979254815547
 31
0.0
  0
LINE
  5
4AE
  8
0
  6
CONTINUOUS
 62
     7
 10
-1930.919496643703
 20
-218.0979254811069
 30
0.0
 11
-1922.419496643703
 21
-218.0979254811069
 31
0.0
  0
LINE
  5
4AF
  8
0
  6
CONTINUOUS
 62
   251
 10
-1808.499999999352
 20
1205.888550859095
 30
0.0
 11
-1827.224719100654
 21
1205.888550859097
 31
0.0
  0
LINE
  5
4B0
  8
0
  6
CONTINUOUS
 62
   253
 10
-1851.602835252158
 20
1116.902074518295
 30
0.0
 11
-1851.602835252158
 21
1116.320138271537
 31
0.0
  0
ARC
  5
4B1
  8
0
  6
CONTINUOUS
 62
     7
 10
-1886.95641523043
 20
1119.761452056987
 30
0.0
 40
3.810753363261498
 50
186.6033012318003
 51
195.3291935945983
  0
LINE
  5
4B2
  8
0
  6
CONTINUOUS
 62
   251
 10
-1890.775280898409
 20
1205.888550859137
 30
0.0
 11
-1909.499999999353
 21
1205.888550859159
 31
0.0
  0
ARC
  5
4B3
  8
0
  6
CONTINUOUS
 62
     7
 10
-1885.741663824846
 20
1119.9020745183
 30
0.0
 40
5.033617073571639
 50
179.9999999999924
 51
186.6033012318135
  0
LINE
  5
4B4
  8
0
  6
CONTINUOUS
 62
   251
 10
-1827.224719100662
 20
1119.902074518292
 30
0.0
 11
-1808.499999999361
 21
1119.90207451829
 31
0.0
  0
ARC
  5
4B5
  8
0
  6
CONTINUOUS
 62
     7
 10
-1856.431817690078
 20
-205.3479254818447
 30
0.0
 40
12.28576798911332
 50
339.7615013840545
 51
20.23849862328041
  0
LINE
  5
4B6
  8
0
  6
CONTINUOUS
 62
   251
 10
-1888.044129620091
 20
1210.844876603258
 30
0.0
 11
-1887.405797100957
 21
1210.874282431238
 31
0.0
  0
LINE
  5
4B7
  8
0
  6
CONTINUOUS
 62
     7
 10
-1844.145373864972
 20
-201.0979254810583
 30
0.0
 11
-1844.904563243505
 21
-201.0979254811069
 31
0.0
  0
LINE
  5
4B8
  8
0
  6
CONTINUOUS
 62
   251
 10
-1829.955870379012
 20
1210.84487660316
 30
0.0
 11
-1812.840579710121
 21
1210.844876603154
 31
0.0
  0
LINE
  5
4B9
  8
0
  6
CONTINUOUS
 62
     7
 10
-1851.9
 20
-209.5979254815547
 30
0.0
 11
-1851.899999999923
 21
-210.7995652666325
 31
0.0
  0
LINE
  5
4BA
  8
0
  6
CONTINUOUS
 62
     7
 10
-1844.904563242417
 20
-218.0979254811069
 30
0.0
 11
-1844.145373863881
 21
-218.0979254810583
 31
0.0
  0
ARC
  5
4BB
  8
0
  6
CONTINUOUS
 62
     7
 10
-1766.015698734678
 20
221.8875079265631
 30
0.0
 40
46.76482711926734
 50
173.721126287177
 51
179.9821531631171
  0
LINE
  5
4BC
  8
0
  6
CONTINUOUS
 62
   253
 10
-1870.492924968093
 20
1116.902074518298
 30
0.0
 11
-1870.492924968093
 21
1116.320138271538
 31
0.0
  0
LINE
  5
4BD
  8
0
  6
CONTINUOUS
 62
     7
 10
-1884.999999999519
 20
1116.9020745183
 30
0.0
 11
-1884.999999999519
 21
1116.320138271539
 31
0.0
  0
LINE
  5
4BE
  8
0
  6
CONTINUOUS
 62
     7
 10
-1914.671778264911
 20
-209.5979254815547
 30
0.0
 11
-1918.921778264639
 21
-201.0979254815546
 31
0.0
  0
LINE
  5
4BF
  8
0
  6
CONTINUOUS
 62
     7
 10
-1922.419496643159
 20
-201.0979254811069
 30
0.0
 11
-1918.921778264639
 21
-201.0979254815546
 31
0.0
  0
ARC
  5
4C0
  8
0
  6
CONTINUOUS
 62
     7
 10
-1896.74971877468
 20
-195.0423146612333
 30
0.0
 40
41.22056416275525
 50
208.2821956355886
 51
214.0089936329187
  0
LINE
  5
4C1
  8
0
  6
CONTINUOUS
 62
   253
 10
-1829.741573033362
 20
-243.0979254817141
 30
0.0
 11
-1829.741573033363
 21
-253.0979254817068
 31
0.0
  0
ARC
  5
4C2
  8
0
  6
CONTINUOUS
 62
     7
 10
-1927.369668631142
 20
-208.2937395361794
 30
0.0
 40
6.793987597204447
 50
64.97401968230929
 51
76.64183141351336
  0
LINE
  5
4C3
  8
0
  6
CONTINUOUS
 62
     7
 10
-1835.296107071357
 20
-243.0979254817141
 30
0.0
 11
-1835.296107071357
 21
-253.0979254817067
 31
0.0
  0
LINE
  5
4C4
  8
0
  6
CONTINUOUS
 62
   253
 10
-1888.887640448969
 20
1116.9020745183
 30
0.0
 11
-1906.499999999361
 21
1116.902074518303
 31
0.0
  0
ARC
  5
4C5
  8
0
  6
CONTINUOUS
 62
     7
 10
-1766.015698734659
 20
371.8875079265629
 30
0.0
 40
46.76482711927197
 50
173.7211262871774
 51
179.9821531631169
  0
LINE
  5
4C6
  8
0
  6
CONTINUOUS
 62
     7
 10
-1918.921778265183
 20
-218.0979254815547
 30
0.0
 11
-1914.671778264911
 21
-209.5979254815547
 31
0.0
  0
LINE
  5
4C7
  8
0
  6
CONTINUOUS
 62
   253
 10
-1866.397164746638
 20
1116.902074518297
 30
0.0
 11
-1866.397164746638
 21
1116.320138271538
 31
0.0
  0
ARC
  5
4C8
  8
0
  6
CONTINUOUS
 62
     7
 10
-1766.028406245011
 20
1111.915942138171
 30
0.0
 40
46.7521193969114
 50
180.0169950819954
 51
186.2797254676889
  0
ARC
  5
4C9
  8
0
  6
CONTINUOUS
 62
     7
 10
-1951.984301276893
 20
521.9166411103017
 30
0.0
 40
46.76482713192755
 50
353.7211262885487
 51
359.9821531627887
  0
ARC
  5
4CA
  8
0
  6
CONTINUOUS
 62
     7
 10
-1766.028406245089
 20
221.9159421381715
 30
0.0
 40
46.75211939691879
 50
180.0169950819959
 51
186.2797254676883
  0
ARC
  5
4CB
  8
0
  6
CONTINUOUS
 62
     7
 10
-1856.431817689534
 20
-213.8479254818447
 30
0.0
 40
12.28576798911365
 50
339.7615013840545
 51
20.23849862327984
  0
LINE
  5
4CC
  8
0
  6
CONTINUOUS
 62
     7
 10
-1851.899999999533
 20
-216.8962856964815
 30
0.0
 11
-1851.899999999456
 21
-218.0979254815547
 31
0.0
  0
ARC
  5
4CD
  8
0
  6
CONTINUOUS
 62
     7
 10
-1766.015698734649
 20
521.8875079265632
 30
0.0
 40
46.76482711926732
 50
173.721126287177
 51
179.9821531631171
  0
LINE
  5
4CE
  8
0
  6
CONTINUOUS
 62
   251
 10
-1905.159420289813
 20
1210.844876603175
 30
0.0
 11
-1888.044129620496
 21
1210.844876603173
 31
0.0
  0
ARC
  5
4CF
  8
0
  6
CONTINUOUS
 62
     7
 10
-1888.713794897403
 20
1118.883531564576
 30
0.0
 40
1.868694417599194
 50
199.8585953861027
 51
216.1664144592297
  0
ARC
  5
4D0
  8
0
  6
CONTINUOUS
 62
     7
 10
-1951.971593766179
 20
371.888206898167
 30
0.0
 40
46.75211940926206
 50
0.0169950823030831
 51
6.279725466337595
  0
ARC
  5
4D1
  8
0
  6
CONTINUOUS
 62
     7
 10
-1927.171778264637
 20
-207.460384324647
 30
0.0
 40
5.937458843604499
 50
76.64183141351131
 51
89.99999999266335
  0
LINE
  5
4D2
  8
0
  6
CONTINUOUS
 62
   253
 10
-1811.499999999361
 20
1116.90207451829
 30
0.0
 11
-1829.11235955009
 21
1116.902074518292
 31
0.0
  0
LINE
  5
4D3
  8
0
  6
CONTINUOUS
 62
     7
 10
-1918.169496643431
 20
-209.597925481107
 30
0.0
 11
-1914.671778264911
 21
-209.5979254815547
 31
0.0
  0
ARC
  5
4D4
  8
0
  6
CONTINUOUS
 62
     7
 10
-1926.031686293265
 20
-209.5979254811885
 30
0.0
 40
10.82734174317035
 50
350.5001303160977
 51
353.6272718858711
  0
ARC
  5
4D5
  8
0
  6
CONTINUOUS
 62
     7
 10
-1925.227316234122
 20
-209.8179492701697
 30
0.0
 40
12.89156153944185
 50
20.09636269645512
 51
29.30879283659418
  0
LINE
  5
4D6
  8
0
  6
CONTINUOUS
 62
     7
 10
-1851.900000000544
 20
-201.0979254815472
 30
0.0
 11
-1851.900000000589
 21
-200.3979254815517
 31
0.0
  0
ARC
  5
4D7
  8
0
  6
CONTINUOUS
 62
     7
 10
-1924.02306610881
 20
-209.3773429905177
 30
0.0
 40
11.60923854659515
 50
9.499869669220345
 51
20.09636269645489
  0
ARC
  5
4D8
  8
0
  6
CONTINUOUS
 62
     7
 10
-1924.023066108879
 20
-209.8185079723692
 30
0.0
 40
11.6092385466089
 50
339.9036372888766
 51
350.5001303160984
  0
ARC
  5
4D9
  8
0
  6
CONTINUOUS
 62
     7
 10
-1925.227316234077
 20
-209.3779016924095
 30
0.0
 40
12.89156153945371
 50
330.6912071487462
 51
339.9036372888763
  0
ARC
  5
4DA
  8
0
  6
CONTINUOUS
 62
     7
 10
-1922.479871527041
 20
-210.9202502170484
 30
0.0
 40
9.740801093199819
 50
318.4890057676128
 51
330.691207148744
  0
ARC
  5
4DB
  8
0
  6
CONTINUOUS
 62
     7
 10
-1923.171778265223
 20
-212.0332664894581
 30
0.0
 40
6.764658992094052
 50
256.6418314135127
 51
269.9999999926654
  0
LINE
  5
4DC
  8
0
  6
CONTINUOUS
 62
     7
 10
-1922.419496643159
 20
-201.0979254811069
 30
0.0
 11
-1930.919496643159
 21
-201.0979254811069
 31
0.0
  0
ARC
  5
4DD
  8
0
  6
CONTINUOUS
 62
     7
 10
-1766.028406245079
 20
371.9159421381713
 30
0.0
 40
46.75211939691406
 50
180.0169950819957
 51
186.2797254676886
  0
ARC
  5
4DE
  8
0
  6
CONTINUOUS
 62
     7
 10
-1921.821379052056
 20
-211.7817905113068
 30
0.0
 40
6.970218210699424
 50
295.0259803030166
 51
308.5462005099716
  0
ARC
  5
4DF
  8
0
  6
CONTINUOUS
 62
     7
 10
-1922.946318033415
 20
-211.0838091586685
 30
0.0
 40
7.740518377004038
 50
244.9836579133533
 51
256.6418314135138
  0
ARC
  5
4E0
  8
0
  6
CONTINUOUS
 62
     7
 10
-1923.679219007094
 20
-209.4134383072637
 30
0.0
 40
9.709544966257397
 50
9.499869669234442
 51
20.0963626964537
  0
ARC
  5
4E1
  8
0
  6
CONTINUOUS
 62
     7
 10
-1923.638547174768
 20
-208.4919811573341
 30
0.0
 40
8.146851823397657
 50
29.30879283657908
 51
41.51099421771857
  0
ARC
  5
4E2
  8
0
  6
CONTINUOUS
 62
     7
 10
-1923.377859769631
 20
-209.3675894875819
 30
0.0
 40
9.467998809192126
 50
41.51099421771789
 51
51.45379947536486
  0
ARC
  5
4E3
  8
0
  6
CONTINUOUS
 62
     7
 10
-1951.984301276824
 20
1111.916641110301
 30
0.0
 40
46.76482713191425
 50
353.7211262885475
 51
359.9821531627888
  0
ARC
  5
4E4
  8
0
  6
CONTINUOUS
 62
     7
 10
-1884.16304246619
 20
1120.527162395067
 30
0.0
 40
6.707172483802679
 50
195.3291935945981
 51
199.8585953861245
  0
ARC
  5
4E5
  8
0
  6
CONTINUOUS
 62
     7
 10
-1923.662745281429
 20
-209.3225237496039
 30
0.0
 40
11.32043335882308
 50
41.51099421771931
 51
51.45379947535968
  0
LINE
  5
4E6
  8
0
  6
CONTINUOUS
 62
     7
 10
-1844.904563243505
 20
-201.0979254811069
 30
0.0
 11
-1851.900000000544
 21
-201.0979254815546
 31
0.0
  0
LINE
  5
4E7
  8
0
  6
CONTINUOUS
 62
     7
 10
-1832.999999999649
 20
-243.0979254817141
 30
0.0
 11
-1832.99999999965
 21
-253.0979254817071
 31
0.0
  0
ARC
  5
4E8
  8
0
  6
CONTINUOUS
 62
     7
 10
-1925.341233516206
 20
-209.5979254812769
 30
0.0
 40
12.94573469292382
 50
350.5001303160999
 51
359.9999999926649
  0
ARC
  5
4E9
  8
0
  6
CONTINUOUS
 62
     7
 10
-1887.508206238642
 20
1119.764804306736
 30
0.0
 40
3.362041550789595
 50
216.1664144592273
 51
230.20267722032
  0
ARC
  5
4EA
  8
0
  6
CONTINUOUS
 62
     7
 10
-1951.971593766171
 20
521.8882068981669
 30
0.0
 40
46.75211940926804
 50
0.01699508230314
 51
6.279725466336971
  0
ARC
  5
4EB
  8
0
  6
CONTINUOUS
 62
     7
 10
-1922.147238496407
 20
-208.1120418046009
 30
0.0
 40
7.740518377004038
 50
64.97401968231588
 51
76.64183141351384
  0
LINE
  5
4EC
  8
0
  6
CONTINUOUS
 62
   253
 10
-1847.507075030722
 20
1116.902074518295
 30
0.0
 11
-1847.507075030722
 21
1116.320138271537
 31
0.0
  0
LINE
  5
4ED
  8
0
  6
CONTINUOUS
 62
     7
 10
-1844.904563242961
 20
-209.5979254811068
 30
0.0
 11
-1851.9
 21
-209.5979254815547
 31
0.0
  0
ARC
  5
4EE
  8
0
  6
CONTINUOUS
 62
     7
 10
-1924.627859769639
 20
-209.3675894874288
 30
0.0
 40
9.46799880920251
 50
41.51099421771795
 51
48.25700073214427
  0
ARC
  5
4EF
  8
0
  6
CONTINUOUS
 62
     7
 10
-1921.821379051495
 20
-207.4140604521442
 30
0.0
 40
6.970218210694891
 50
51.45379947535247
 51
64.97401968231567
  0
ARC
  5
4F0
  8
0
  6
CONTINUOUS
 62
     7
 10
-1951.957775931032
 20
1111.888639556505
 30
0.0
 40
46.73830144842247
 50
0.0164697174593584
 51
6.158881549181842
  0
ARC
  5
4F1
  8
0
  6
CONTINUOUS
 62
     7
 10
-1890.861522754328
 20
-228.5644124266686
 30
0.0
 40
33.24835431993746
 50
145.2184655761667
 51
161.651432066743
  0
LINE
  5
4F2
  8
0
  6
CONTINUOUS
 62
     7
 10
-1843.900000000517
 20
-201.5229254810426
 30
0.0
 11
-1843.899999999483
 21
-217.6729254810426
 31
0.0
  0
LINE
  5
4F3
  8
0
  6
CONTINUOUS
 62
     7
 10
-1922.419496643703
 20
-218.0979254811069
 30
0.0
 11
-1918.921778265183
 21
-218.0979254815547
 31
0.0
  0
LINE
  5
4F4
  8
0
  6
CONTINUOUS
 62
     7
 10
-1851.900000000544
 20
-201.0979254815546
 30
0.0
 11
-1851.900000000467
 21
-202.2995652666278
 31
0.0
  0
ARC
  5
4F5
  8
0
  6
CONTINUOUS
 62
     7
 10
-1923.377859769702
 20
-209.8282614754645
 30
0.0
 40
9.46799880920739
 50
308.5462005099837
 51
318.4890057676126
  0
ARC
  5
4F6
  8
0
  6
CONTINUOUS
 62
     7
 10
-1925.936410020982
 20
-209.7819453773543
 30
0.0
 40
10.78203328753652
 50
20.09636269645336
 51
29.30879283658925
  0
ARC
  5
4F7
  8
0
  6
CONTINUOUS
 62
     7
 10
-1922.388547174775
 20
-208.4919811575002
 30
0.0
 40
8.146851823406859
 50
29.30879283659203
 51
41.51099421771868
  0
ARC
  5
4F8
  8
0
  6
CONTINUOUS
 62
     7
 10
-1922.147238496787
 20
-211.0838091587721
 30
0.0
 40
7.740518377002813
 50
283.3581685718167
 51
295.0259803030177
  0
LINE
  5
4F9
  8
0
  6
CONTINUOUS
 62
     7
 10
-1854.399999999984
 20
-209.8479254817146
 30
0.0
 11
-1851.899999999984
 21
-209.8479254815546
 31
0.0
  0
ARC
  5
4FA
  8
0
  6
CONTINUOUS
 62
     7
 10
-1922.191350280832
 20
-207.8213254329944
 30
0.0
 40
9.25496762468181
 50
64.97401968231475
 51
76.64183141350748
  0
ARC
  5
4FB
  8
0
  6
CONTINUOUS
 62
     7
 10
-1922.4798715267
 20
-208.2756007462361
 30
0.0
 40
9.740801093196541
 50
29.30879283658441
 51
41.51099421771954
  0
ARC
  5
4FC
  8
0
  6
CONTINUOUS
 62
     7
 10
-1925.936410020953
 20
-209.4139055850405
 30
0.0
 40
10.78203328755572
 50
330.6912071487567
 51
339.9036372888755
  0
ARC
  5
4FD
  8
0
  6
CONTINUOUS
 62
     7
 10
-1924.627859769694
 20
-209.8282614753113
 30
0.0
 40
9.467998809197304
 50
311.7429992645023
 51
318.4890057676128
  0
ARC
  5
4FE
  8
0
  6
CONTINUOUS
 62
     7
 10
-1921.652206248537
 20
-207.821325433059
 30
0.0
 40
9.254967624676985
 50
103.3581685718144
 51
115.0259803030156
  0
ARC
  5
4FF
  8
0
  6
CONTINUOUS
 62
     7
 10
-1922.388547175056
 20
-210.7038698058123
 30
0.0
 40
8.146851823403136
 50
318.489005767613
 51
330.6912071487447
  0
ARC
  5
500
  8
0
  6
CONTINUOUS
 62
     7
 10
-1924.68641002094
 20
-209.4139055852052
 30
0.0
 40
10.78203328754179
 50
330.6912071487441
 51
339.9036372888755
  0
ARC
  5
501
  8
0
  6
CONTINUOUS
 62
     7
 10
-1951.971593766184
 20
221.8882068981675
 30
0.0
 40
46.75211940925267
 50
0.0169950823025715
 51
6.279725466338277
  0
ARC
  5
502
  8
0
  6
CONTINUOUS
 62
     7
 10
-1923.397238496786
 20
-211.083809158614
 30
0.0
 40
7.740518377000677
 50
283.3581685718137
 51
295.0206910813353
  0
ARC
  5
503
  8
0
  6
CONTINUOUS
 62
     7
 10
-1922.946318033035
 20
-208.1120418044954
 30
0.0
 40
7.740518377000677
 50
103.3581685718137
 51
115.0174960248517
  0
LINE
  5
504
  8
0
  6
CONTINUOUS
 62
   253
 10
-1888.25842696582
 20
1116.9020745183
 30
0.0
 11
-1888.25842696593
 21
-43.09792548171409
 31
0.0
  0
LINE
  5
505
  8
0
  6
CONTINUOUS
 62
     7
 10
-1851.900000000077
 20
-208.3962856964768
 30
0.0
 11
-1851.9
 21
-209.5979254815547
 31
0.0
  0
ARC
  5
506
  8
0
  6
CONTINUOUS
 62
     7
 10
-1951.984301276913
 20
221.9166411103015
 30
0.0
 40
46.76482713191918
 50
353.7211262885478
 51
359.982153162789
  0
ARC
  5
507
  8
0
  6
CONTINUOUS
 62
     7
 10
-1921.921778264538
 20
-206.6861047113987
 30
0.0
 40
8.088179229680886
 50
76.64183141351617
 51
89.99999999266538
  0
ARC
  5
508
  8
0
  6
CONTINUOUS
 62
     7
 10
-1888.887640448969
 20
1118.108998626534
 30
0.0
 40
1.206924108233753
 50
230.2026772203212
 51
269.9999999999894
  0
LINE
  5
509
  8
0
  6
CONTINUOUS
 62
   253
 10
-1886.999999999533
 20
1116.9020745183
 30
0.0
 11
-1888.887640448969
 21
1116.9020745183
 31
0.0
  0
ARC
  5
50A
  8
0
  6
CONTINUOUS
 62
     7
 10
-1922.041820802022
 20
-206.986782511547
 30
0.0
 40
8.33395655626748
 50
115.0259803030157
 51
128.5462005099762
  0
LINE
  5
50B
  8
0
  6
CONTINUOUS
 62
     7
 10
-1835.296107071227
 20
1116.902074518293
 30
0.0
 11
-1835.296107071227
 21
1116.320138271537
 31
0.0
  0
LINE
  5
50C
  8
0
  6
CONTINUOUS
 62
     7
 10
-1851.899999999411
 20
-218.7979254815572
 30
0.0
 11
-1851.899999999456
 21
-218.0979254815621
 31
0.0
  0
ARC
  5
50D
  8
0
  6
CONTINUOUS
 62
     7
 10
-1924.781686293265
 20
-209.5979254813485
 30
0.0
 40
10.82734174317079
 50
350.500130316098
 51
359.9999999926646
  0
ARC
  5
50E
  8
0
  6
CONTINUOUS
 62
     7
 10
-1921.801735727131
 20
-206.9867825115768
 30
0.0
 40
8.333956556266351
 50
51.45379947535321
 51
64.97401968231513
  0
ARC
  5
50F
  8
0
  6
CONTINUOUS
 62
     7
 10
-1921.921778265223
 20
-212.0332664896186
 30
0.0
 40
6.764658992093497
 50
269.9999999926654
 51
283.3581685718189
  0
ARC
  5
510
  8
0
  6
CONTINUOUS
 62
     7
 10
-1925.341233516194
 20
-209.5979254812769
 30
0.0
 40
12.9457346929116
 50
359.999999992665
 51
9.499869669239104
  0
ARC
  5
511
  8
0
  6
CONTINUOUS
 62
     7
 10
-1920.180811248325
 20
-209.3225237500469
 30
0.0
 40
11.32043335881911
 50
128.546200509968
 51
133.4273348615368
  0
LINE
  5
512
  8
0
  6
CONTINUOUS
 62
     7
 10
-1854.399999999296
 20
-220.5979254817177
 30
0.0
 11
-1854.4
 21
-209.5979254817147
 31
0.0
  0
ARC
  5
513
  8
0
  6
CONTINUOUS
 62
     7
 10
-1924.781686293269
 20
-209.5979254813485
 30
0.0
 40
10.82734174317501
 50
359.9999999926644
 51
9.499869669227449
  0
ARC
  5
514
  8
0
  6
CONTINUOUS
 62
     7
 10
-1399.596419646093
 20
-833.4477902852442
 30
0.0
 40
418.6791013248545
 50
76.68829772072162
 51
76.73135002007854
  0
ARC
  5
515
  8
0
  6
CONTINUOUS
 62
     7
 10
-1289.167802070314
 20
-361.6434242135452
 30
0.0
 40
65.80734684129865
 50
263.7189024213796
 51
264.8435699680379
  0
ARC
  5
516
  8
0
  6
CONTINUOUS
 62
     7
 10
-1922.041820802691
 20
-212.2090684518526
 30
0.0
 40
8.333956556266351
 50
231.4537994753532
 51
244.9740196823152
  0
ARC
  5
517
  8
0
  6
CONTINUOUS
 62
     7
 10
-2332.504968789129
 20
-319.9694884365127
 30
0.0
 40
96.72313445117021
 50
276.5481516193016
 51
282.8567423921747
  0
ARC
  5
518
  8
0
  6
CONTINUOUS
 62
     7
 10
-1923.679219007139
 20
-209.7824126557165
 30
0.0
 40
9.70954496625461
 50
339.9036372888753
 51
350.5001303160977
  0
ARC
  5
519
  8
0
  6
CONTINUOUS
 62
     7
 10
-1284.576883886768
 20
-319.9332511374822
 30
0.0
 40
107.7694138519115
 50
262.3454024734159
 51
263.0321524473962
  0
ARC
  5
51A
  8
0
  6
CONTINUOUS
 62
     7
 10
-1291.219466250164
 20
-426.8719887170021
 30
0.0
 40
0.4972640376664784
 50
269.0675276846081
 51
292.00007283331
  0
ARC
  5
51B
  8
0
  6
CONTINUOUS
 62
     7
 10
-1924.427316234135
 20
-209.817949270277
 30
0.0
 40
12.89156153945626
 50
20.09636269645489
 51
29.30879283658329
  0
ARC
  5
51C
  8
0
  6
CONTINUOUS
 62
     7
 10
-1921.121778265284
 20
-212.5097462521352
 30
0.0
 40
8.088179229678694
 50
269.9999999926654
 51
282.8367398821931
  0
ARC
  5
51D
  8
0
  6
CONTINUOUS
 62
     7
 10
-1926.031686293269
 20
-209.5979254811885
 30
0.0
 40
10.82734174317501
 50
6.372728110221146
 51
9.499869669227449
  0
ARC
  5
51E
  8
0
  6
CONTINUOUS
 62
     7
 10
-2414.810622123897
 20
-435.2225714907602
 30
0.0
 40
7.350286069939632
 50
103.2686499798904
 51
107.8111335902126
  0
LINE
  5
51F
  8
0
  6
CONTINUOUS
 62
     7
 10
-1854.4
 20
-209.5979254817147
 30
0.0
 11
-1854.400000000704
 21
-198.5979254817086
 31
0.0
  0
ARC
  5
520
  8
0
  6
CONTINUOUS
 62
     7
 10
-2331.537978991875
 20
-324.2062840569138
 30
0.0
 40
92.37738866971412
 50
282.8567423921749
 51
289.5432444222445
  0
ARC
  5
521
  8
0
  6
CONTINUOUS
 62
     7
 10
-1304.526327897928
 20
-428.1049711024941
 30
0.0
 40
2.35671769191297
 50
72.18886640979093
 51
76.99677721016752
  0
ARC
  5
522
  8
0
  6
CONTINUOUS
 62
     7
 10
-1922.862745281429
 20
-209.3225237497063
 30
0.0
 40
11.32043335882308
 50
41.51099421771931
 51
51.45379947535968
  0
ARC
  5
523
  8
0
  6
CONTINUOUS
 62
     7
 10
-1924.929219007139
 20
-209.7824126555567
 30
0.0
 40
9.709544966254343
 50
339.9036372888757
 51
350.5001303160984
  0
ARC
  5
524
  8
0
  6
CONTINUOUS
 62
     7
 10
-1923.397238496407
 20
-208.1120418044409
 30
0.0
 40
7.740518377004038
 50
64.97930892265992
 51
76.64183141351384
  0
ARC
  5
525
  8
0
  6
CONTINUOUS
 62
     7
 10
-1283.792780810841
 20
-302.0800955564131
 30
0.0
 40
125.6127059177003
 50
264.843569968038
 51
265.343574338783
  0
LINE
  5
526
  8
0
  6
CONTINUOUS
 62
   253
 10
-1940.565207799644
 20
-205.4030757857858
 30
0.0
 11
-2368.225305603949
 21
-415.3489715740407
 31
0.0
  0
ARC
  5
527
  8
0
  6
CONTINUOUS
 62
     7
 10
-1290.957738812635
 20
-427.2495729383151
 30
0.0
 40
0.0649341559255402
 50
274.2510027879056
 51
353.0321524473471
  0
ARC
  5
528
  8
0
  6
CONTINUOUS
 62
     7
 10
-1923.638547175062
 20
-210.7038698056469
 30
0.0
 40
8.146851823411174
 50
318.4890057676125
 51
330.6912071487333
  0
ARC
  5
529
  8
0
  6
CONTINUOUS
 62
     7
 10
-1290.933125709155
 20
-427.5807038318442
 30
0.0
 40
0.2671102289273697
 50
94.25100278803436
 51
112.000072833306
  0
ARC
  5
52A
  8
0
  6
CONTINUOUS
 62
     7
 10
-2364.510907432923
 20
-679.0119176103569
 30
0.0
 40
256.3003805020888
 50
101.225162327145
 51
101.3995558570781
  0
ARC
  5
52B
  8
0
  6
CONTINUOUS
 62
     7
 10
-1284.576883886857
 20
-319.9332511382128
 30
0.0
 40
107.7694138511754
 50
263.0321524473961
 51
263.7189024213807
  0
ARC
  5
52C
  8
0
  6
CONTINUOUS
 62
     7
 10
-1923.171778265223
 20
-212.0332664894568
 30
0.0
 40
6.764658992095357
 50
269.9999999926654
 51
283.3581685718152
  0
LINE
  5
52D
  8
0
  6
CONTINUOUS
 62
     7
 10
-2289.747218212021
 20
-406.7048320219409
 30
0.0
 11
-1939.262264050272
 21
-234.6455773952328
 31
0.0
  0
ARC
  5
52E
  8
0
  6
CONTINUOUS
 62
     7
 10
-2332.720562027282
 20
-318.0982053377209
 30
0.0
 40
98.48269138548629
 50
295.2730101699271
 51
295.8729297199004
  0
ARC
  5
52F
  8
0
  6
CONTINUOUS
 62
     7
 10
-1291.369733432598
 20
-395.1066445439048
 30
0.0
 40
32.27809804069377
 50
265.3435743387819
 51
267.2894672219356
  0
ARC
  5
530
  8
0
  6
CONTINUOUS
 62
     7
 10
-2594.449606446852
 20
326.5653770098978
 30
0.0
 40
775.3316692410436
 50
283.2686499799289
 51
283.311702279279
  0
ARC
  5
531
  8
0
  6
CONTINUOUS
 62
     7
 10
-1921.921778264538
 20
-206.6861047113966
 30
0.0
 40
8.088179229678778
 50
89.99999999266544
 51
103.358168571816
  0
LINE
  5
532
  8
0
  6
CONTINUOUS
 62
     7
 10
-2368.225305603949
 20
-415.3489715740407
 30
0.0
 11
-2412.368965465619
 21
-422.5423265550467
 31
0.0
  0
ARC
  5
533
  8
0
  6
CONTINUOUS
 62
     7
 10
-2418.393880959433
 20
-424.0694734462217
 30
0.0
 40
4.364292022058922
 50
283.0032227898305
 51
287.8111335902117
  0
ARC
  5
534
  8
0
  6
CONTINUOUS
 62
     7
 10
-1921.921778265284
 20
-212.5097462520307
 30
0.0
 40
8.088179229680886
 50
256.6418314135162
 51
269.9999999926654
  0
ARC
  5
535
  8
0
  6
CONTINUOUS
 62
     7
 10
-2402.767691883927
 20
-486.245384725596
 30
0.0
 40
59.77425563075741
 50
99.27926944398622
 51
101.225162327145
  0
ARC
  5
536
  8
0
  6
CONTINUOUS
 62
     7
 10
-1291.693462434831
 20
-423.4141854176115
 30
0.0
 40
3.969154477783466
 50
269.3329548747035
 51
273.8754384850071
  0
ARC
  5
537
  8
0
  6
CONTINUOUS
 62
     7
 10
-1920.180811248393
 20
-209.8733272138255
 30
0.0
 40
11.32043335882308
 50
226.572665125771
 51
231.4537994753597
  0
ARC
  5
538
  8
0
  6
CONTINUOUS
 62
     7
 10
-1281.038283624406
 20
-302.4167363580437
 30
0.0
 40
125.612705917687
 50
260.7207305560079
 51
261.220734926753
  0
ARC
  5
539
  8
0
  6
CONTINUOUS
 62
     7
 10
-1923.171778264599
 20
-207.1625844736526
 30
0.0
 40
6.764658992095357
 50
89.99999999266532
 51
103.3581685718152
  0
ARC
  5
53A
  8
0
  6
CONTINUOUS
 62
     7
 10
-2410.548263138123
 20
-450.6829406208922
 30
0.0
 40
23.37644473467442
 50
101.3995558571159
 51
103.311702279279
  0
ARC
  5
53B
  8
0
  6
CONTINUOUS
 62
     7
 10
-1921.65220624899
 20
-211.3745255304349
 30
0.0
 40
9.25496762468181
 50
244.9740196823147
 51
256.6418314135075
  0
ARC
  5
53C
  8
0
  6
CONTINUOUS
 62
     7
 10
-1922.191350281284
 20
-211.3745255303703
 30
0.0
 40
9.254967624676985
 50
283.3581685718143
 51
288.0363760037994
  0
ARC
  5
53D
  8
0
  6
CONTINUOUS
 62
     7
 10
-1303.884165282609
 20
-425.3241728558997
 30
0.0
 40
0.4972640376670525
 50
234.0642320614996
 51
256.9967772101807
  0
ARC
  5
53E
  8
0
  6
CONTINUOUS
 62
     7
 10
-1923.171778264599
 20
-207.1625844736513
 30
0.0
 40
6.764658992094052
 50
76.6418314135127
 51
89.99999999266532
  0
LINE
  5
53F
  8
0
  6
CONTINUOUS
 62
     7
 10
-1851.899999999533
 20
-216.8962856964838
 30
0.0
 11
-1851.899999999923
 21
-210.7995652666317
 31
0.0
  0
LINE
  5
540
  8
0
  6
CONTINUOUS
 62
     7
 10
-2392.510791982974
 20
-424.0112760063584
 30
0.0
 11
-2321.664873791884
 21
-416.0872431636251
 31
0.0
  0
ARC
  5
541
  8
0
  6
CONTINUOUS
 62
     7
 10
-1302.591368126735
 20
-422.0822981584284
 30
0.0
 40
3.969154477781792
 50
252.1888664097894
 51
256.7313500200934
  0
ARC
  5
542
  8
0
  6
CONTINUOUS
 62
     7
 10
-1921.001735727131
 20
-206.9867825116791
 30
0.0
 40
8.333956556266351
 50
51.45379947535321
 51
64.97401968231513
  0
ARC
  5
543
  8
0
  6
CONTINUOUS
 62
     7
 10
-1286.351116168707
 20
-289.1012689398974
 30
0.0
 40
138.4022054630326
 50
267.2894672219358
 51
267.463860751879
  0
LINE
  5
544
  8
0
  6
CONTINUOUS
 62
     7
 10
-1851.900000000016
 20
-209.3479254815547
 30
0.0
 11
-1854.400000000016
 21
-209.3479254817148
 31
0.0
  0
ARC
  5
545
  8
0
  6
CONTINUOUS
 62
     7
 10
-1300.289694274454
 20
-413.7336988283093
 30
0.0
 40
12.62328015658183
 50
256.6882977207217
 51
258.6004441429076
  0
ARC
  5
546
  8
0
  6
CONTINUOUS
 62
     7
 10
-1921.921778265284
 20
-212.5097462520328
 30
0.0
 40
8.088179229678778
 50
269.9999999926654
 51
283.358168571816
  0
ARC
  5
547
  8
0
  6
CONTINUOUS
 62
     7
 10
-1924.541233516189
 20
-209.5979254813793
 30
0.0
 40
12.94573469290716
 50
350.5001303160876
 51
359.9999999926652
  0
ARC
  5
548
  8
0
  6
CONTINUOUS
 62
     7
 10
-1924.427316234062
 20
-209.3779016925172
 30
0.0
 40
12.89156153943811
 50
330.6912071487347
 51
339.9036372888763
  0
ARC
  5
549
  8
0
  6
CONTINUOUS
 62
     7
 10
-1921.679871527034
 20
-210.9202502171569
 30
0.0
 40
9.740801093190637
 50
318.4890057676126
 51
330.6912071487546
  0
ARC
  5
54A
  8
0
  6
CONTINUOUS
 62
     7
 10
-1922.862745281496
 20
-209.8733272134849
 30
0.0
 40
11.32043335881911
 50
311.044130526157
 51
318.4890057676121
  0
ARC
  5
54B
  8
0
  6
CONTINUOUS
 62
     7
 10
-1921.679871526705
 20
-208.2756007463439
 30
0.0
 40
9.740801093204766
 50
29.3087928365934
 51
41.51099421771903
  0
ARC
  5
54C
  8
0
  6
CONTINUOUS
 62
     7
 10
-2374.897502674879
 20
-656.8254637153967
 30
0.0
 40
232.6161220714864
 50
99.12930450071471
 51
99.27926944398742
  0
ARC
  5
54D
  8
0
  6
CONTINUOUS
 62
     7
 10
-1921.921778264599
 20
-207.1625844738113
 30
0.0
 40
6.764658992094052
 50
76.6418314135127
 51
89.99999999266532
  0
ARC
  5
54E
  8
0
  6
CONTINUOUS
 62
     7
 10
-1924.929219007094
 20
-209.4134383071037
 30
0.0
 40
9.709544966257397
 50
9.499869669234442
 51
20.0963626964537
  0
ARC
  5
54F
  8
0
  6
CONTINUOUS
 62
     7
 10
-1924.686410020995
 20
-209.7819453775193
 30
0.0
 40
10.78203328755119
 50
20.09636269645336
 51
29.30879283657629
  0
LINE
  5
550
  8
0
  6
CONTINUOUS
 62
     7
 10
-1851.900000000077
 20
-208.3962856964764
 30
0.0
 11
-1851.900000000468
 21
-202.2995652666237
 31
0.0
  0
ARC
  5
551
  8
0
  6
CONTINUOUS
 62
     7
 10
-1291.265911930736
 20
-429.7255924931927
 30
0.0
 40
2.356717691905826
 50
89.06752768461399
 51
93.87543848500549
  0
ARC
  5
552
  8
0
  6
CONTINUOUS
 62
     7
 10
-1924.541233516209
 20
-209.5979254813793
 30
0.0
 40
12.94573469292715
 50
359.999999992665
 51
9.499869669227508
  0
ARC
  5
553
  8
0
  6
CONTINUOUS
 62
     7
 10
-1296.088185797111
 20
-394.5299790114058
 30
0.0
 40
32.27809804083802
 50
258.7748376728581
 51
260.7207305560025
  0
ARC
  5
554
  8
0
  6
CONTINUOUS
 62
     7
 10
-1291.916774143033
 20
-414.7569950431639
 30
0.0
 40
12.62328015665908
 50
267.4638607518926
 51
269.3760071740675
  0
ARC
  5
555
  8
0
  6
CONTINUOUS
 62
     7
 10
-1923.223066108866
 20
-209.8185079724763
 30
0.0
 40
11.60923854659497
 50
339.9036372888763
 51
350.5001303161109
  0
ARC
  5
556
  8
0
  6
CONTINUOUS
 62
     7
 10
-2417.889082907218
 20
-429.2703827658097
 30
0.0
 40
0.4946485720854388
 50
67.99992716668987
 51
85.74899721203745
  0
ARC
  5
557
  8
0
  6
CONTINUOUS
 62
     7
 10
-2417.644331941265
 20
-364.5202017271948
 30
0.0
 40
59.77425563103593
 50
272.710532778065
 51
274.6564256612147
  0
ARC
  5
558
  8
0
  6
CONTINUOUS
 62
     7
 10
-2394.469458144943
 20
-420.4785874902698
 30
0.0
 40
0.9208593290129762
 50
283.0032227898712
 51
305.9357679385131
  0
ARC
  5
559
  8
0
  6
CONTINUOUS
 62
     7
 10
-2336.692435958095
 20
-309.6853863831537
 30
0.0
 40
107.7859867846765
 50
289.5432444222429
 51
295.2730101699271
  0
ARC
  5
55A
  8
0
  6
CONTINUOUS
 62
     7
 10
-2365.074689293259
 20
-674.3988833756282
 30
0.0
 40
256.3003804758375
 50
101.2251623271465
 51
101.3995558570974
  0
ARC
  5
55B
  8
0
  6
CONTINUOUS
 62
     7
 10
-2421.721982612172
 20
-302.5512751894171
 30
0.0
 40
121.8654571137128
 50
275.1564300319615
 51
276.2810975786178
  0
ARC
  5
55C
  8
0
  6
CONTINUOUS
 62
     7
 10
-2407.369169812925
 20
-1204.18352135815
 30
0.0
 40
775.3316688375776
 50
90.65808793919939
 51
90.66704512530151
  0
ARC
  5
55D
  8
0
  6
CONTINUOUS
 62
     7
 10
-2395.193097142264
 20
-428.143079394446
 30
0.0
 40
7.35028606998386
 50
86.12456151499703
 51
90.66704512528656
  0
ARC
  5
55E
  8
0
  6
CONTINUOUS
 62
     7
 10
-2595.013388212994
 20
331.1784108423004
 30
0.0
 40
775.3316688540729
 50
283.268649979908
 51
283.3117022792799
  0
ARC
  5
55F
  8
0
  6
CONTINUOUS
 62
     7
 10
-2404.30497926329
 20
354.4858340581296
 30
0.0
 40
775.3316688566302
 50
270.6239928259289
 51
270.6670451253005
  0
ARC
  5
560
  8
0
  6
CONTINUOUS
 62
     7
 10
-2417.843503085959
 20
-428.6571774074247
 30
0.0
 40
0.1202484368992071
 50
186.9678475526492
 51
265.7489972120072
  0
ARC
  5
561
  8
0
  6
CONTINUOUS
 62
     7
 10
-2375.461284529936
 20
-652.2124295075533
 30
0.0
 40
232.6161220726345
 50
98.77926507324541
 51
99.27926944398456
  0
ARC
  5
562
  8
0
  6
CONTINUOUS
 62
     7
 10
-2393.830645990048
 20
-421.0405099116467
 30
0.0
 40
0.1202484368992071
 50
6.96784755262297
 51
85.74899721200723
  0
ARC
  5
563
  8
0
  6
CONTINUOUS
 62
     7
 10
-2407.932951667948
 20
-1199.570487168223
 30
0.0
 40
775.3316688566301
 50
90.6239928259289
 51
90.66704512530053
  0
ARC
  5
564
  8
0
  6
CONTINUOUS
 62
     7
 10
-2411.112044993397
 20
-446.0699064117301
 30
0.0
 40
23.37644473448564
 50
101.3995558571004
 51
103.31170227928
  0
ARC
  5
565
  8
0
  6
CONTINUOUS
 62
     7
 10
-2395.606637342638
 20
-444.1749134210241
 30
0.0
 40
23.37644473439187
 50
90.6239928259289
 51
92.53613924811657
  0
ARC
  5
566
  8
0
  6
CONTINUOUS
 62
     7
 10
-2417.768472786296
 20
-424.6060656198234
 30
0.0
 40
0.9208593290129762
 50
103.0032227898712
 51
125.9357679385131
  0
ARC
  5
567
  8
0
  6
CONTINUOUS
 62
     7
 10
-1275.429522194853
 20
-290.4360512600721
 30
0.0
 40
138.4022054647932
 50
258.6004441429169
 51
258.774837672858
  0
ARC
  5
568
  8
0
  6
CONTINUOUS
 62
     7
 10
-1923.662745281496
 20
-209.8733272133825
 30
0.0
 40
11.32043335881911
 50
311.0441305253628
 51
318.4890057676121
  0
ARC
  5
569
  8
0
  6
CONTINUOUS
 62
     7
 10
-2447.163241637979
 20
-170.6857697344649
 30
0.0
 40
256.3003804758375
 50
281.2251623271463
 51
281.3995558570973
  0
ARC
  5
56A
  8
0
  6
CONTINUOUS
 62
     7
 10
-2380.56220524598
 20
-652.8358383967136
 30
0.0
 40
232.6161220698785
 50
94.65642566121664
 51
95.15643003196159
  0
ARC
  5
56B
  8
0
  6
CONTINUOUS
 62
     7
 10
-2416.6312935886
 20
-400.909739689069
 30
0.0
 40
23.37644473439187
 50
270.623992825929
 51
272.5361392481166
  0
ARC
  5
56C
  8
0
  6
CONTINUOUS
 62
     7
 10
-2418.957662814657
 20
-419.4564392372655
 30
0.0
 40
4.364292022035661
 50
283.0032227897994
 51
287.8111335902121
  0
LINE
  5
56D
  8
0
  6
CONTINUOUS
 62
     7
 10
-2392.510791982974
 20
-424.0112760063584
 30
0.0
 11
-2411.805183610387
 21
-427.155360764025
 31
0.0
  0
ARC
  5
56E
  8
0
  6
CONTINUOUS
 62
     7
 10
-2401.125885937841
 20
-399.014746698363
 30
0.0
 40
23.37644473448564
 50
281.3995558571004
 51
283.31170227928
  0
ARC
  5
56F
  8
0
  6
CONTINUOUS
 62
     7
 10
-2393.830645990048
 20
-421.0405099116467
 30
0.0
 40
0.1202484368987663
 50
288.1866978930207
 51
6.967847552648549
  0
ARC
  5
570
  8
0
  6
CONTINUOUS
 62
     7
 10
-2417.836593981745
 20
-428.629364596376
 30
0.0
 40
4.364292022056183
 50
86.12456151499593
 51
90.93247231537842
  0
ARC
  5
571
  8
0
  6
CONTINUOUS
 62
     7
 10
-1304.229123846252
 20
-425.6276109634433
 30
0.0
 40
0.0649341559255267
 50
173.0321524474443
 51
251.8133021069391
  0
ARC
  5
572
  8
0
  6
CONTINUOUS
 62
     7
 10
-2415.374403979117
 20
-430.6095372818179
 30
0.0
 40
7.350286069977516
 50
103.2686499799165
 51
107.8111335902121
  0
ARC
  5
573
  8
0
  6
CONTINUOUS
 62
     7
 10
-2418.407284941191
 20
-424.0441431984465
 30
0.0
 40
0.1202484368987663
 50
108.1866978930207
 51
186.9678475526485
  0
ARC
  5
574
  8
0
  6
CONTINUOUS
 62
     7
 10
-2430.2236829519
 20
-225.3102139389399
 30
0.0
 40
199.5729886133462
 50
276.2810975786199
 51
276.9678475526044
  0
ARC
  5
575
  8
0
  6
CONTINUOUS
 62
     7
 10
-2436.776646401302
 20
-192.8722236025398
 30
0.0
 40
232.6161220726346
 50
278.7792650732454
 51
279.2792694439845
  0
LINE
  5
576
  8
0
  6
CONTINUOUS
 62
   253
 10
-2412.368965465619
 20
-422.5423265550467
 30
0.0
 11
-2411.805183610387
 21
-427.155360764025
 31
0.0
  0
ARC
  5
577
  8
0
  6
CONTINUOUS
 62
     7
 10
-2417.922604501322
 20
-423.3449131589779
 30
0.0
 40
0.9208593290119739
 50
247.999927166695
 51
270.9324723154155
  0
ARC
  5
578
  8
0
  6
CONTINUOUS
 62
     7
 10
-2394.593598989973
 20
-480.5644513828984
 30
0.0
 40
59.77425563103593
 50
92.71053277806509
 51
94.65642566121454
  0
ARC
  5
579
  8
0
  6
CONTINUOUS
 62
     7
 10
-2417.358822646092
 20
-427.9579473679573
 30
0.0
 40
0.9208593290107782
 50
247.9999271666947
 51
270.9324723154165
  0
ARC
  5
57A
  8
0
  6
CONTINUOUS
 62
     7
 10
-2418.452864762449
 20
-424.6573485568314
 30
0.0
 40
0.4946485720854388
 50
67.99992716668987
 51
85.7489972120375
  0
ARC
  5
57B
  8
0
  6
CONTINUOUS
 62
     7
 10
-2392.364958462078
 20
-542.7593546469487
 30
0.0
 40
121.8654571137042
 50
97.65459752658921
 51
98.7792650732456
  0
ARC
  5
57C
  8
0
  6
CONTINUOUS
 62
     7
 10
-2394.315326429916
 20
-421.7397399511153
 30
0.0
 40
0.9208593290119739
 50
67.99992716669493
 51
90.9324723154154
  0
ARC
  5
57D
  8
0
  6
CONTINUOUS
 62
     7
 10
-2418.035421271954
 20
-428.0729978617866
 30
0.0
 40
0.4946485720851084
 50
288.1866978931108
 51
305.9357679384935
  0
ARC
  5
57E
  8
0
  6
CONTINUOUS
 62
     7
 10
-1290.166267547519
 20
-361.5213967811849
 30
0.0
 40
65.80734684146846
 50
261.220734926753
 51
262.3454024734082
  0
ARC
  5
57F
  8
0
  6
CONTINUOUS
 62
     7
 10
-2417.044833788974
 20
-416.9415737156472
 30
0.0
 40
7.35028606998386
 50
266.124561514997
 51
270.6670451252866
  0
ARC
  5
580
  8
0
  6
CONTINUOUS
 62
     7
 10
-2426.938067614931
 20
-168.2139506131246
 30
0.0
 40
256.3003804827521
 50
272.5361392481191
 51
272.7105327780653
  0
ARC
  5
581
  8
0
  6
CONTINUOUS
 62
     7
 10
-2417.204690931066
 20
-429.2190998287998
 30
0.0
 40
0.9208593290106212
 50
103.0032227897908
 51
125.9357679385169
  0
ARC
  5
582
  8
0
  6
CONTINUOUS
 62
     7
 10
-2217.224542718244
 20
-1176.263063952394
 30
0.0
 40
775.3316688540731
 50
103.268649979908
 51
103.3117022792797
  0
ARC
  5
583
  8
0
  6
CONTINUOUS
 62
     7
 10
-2382.014247979338
 20
-619.7744391711533
 30
0.0
 40
199.5729886133462
 50
96.28109757861982
 51
96.96784755260444
  0
ARC
  5
584
  8
0
  6
CONTINUOUS
 62
     7
 10
-1921.39135028083
 20
-207.8213254330941
 30
0.0
 40
9.254967624678832
 50
64.97401968231509
 51
76.64183141351306
  0
ARC
  5
585
  8
0
  6
CONTINUOUS
 62
     7
 10
-1304.33275966669
 20
-425.9430679180888
 30
0.0
 40
0.2671102289270796
 50
54.06423206149486
 51
71.81330210679363
  0
ARC
  5
586
  8
0
  6
CONTINUOUS
 62
     7
 10
-2385.299863316307
 20
-676.8707024969686
 30
0.0
 40
256.3003804827522
 50
92.536139248119
 51
92.71053277806533
  0
ARC
  5
587
  8
0
  6
CONTINUOUS
 62
     7
 10
-2430.223682951782
 20
-225.3102139399042
 30
0.0
 40
199.5729886123747
 50
276.9678475526046
 51
277.6545975265924
  0
ARC
  5
588
  8
0
  6
CONTINUOUS
 62
     7
 10
-2393.638727804053
 20
-421.6246894572848
 30
0.0
 40
0.4946485720851084
 50
108.1866978931109
 51
125.9357679384936
  0
ARC
  5
589
  8
0
  6
CONTINUOUS
 62
     7
 10
-1296.613878779147
 20
-846.0337985841883
 30
0.0
 40
418.6791010847687
 50
89.33295487468592
 51
89.37600717406755
  0
ARC
  5
58A
  8
0
  6
CONTINUOUS
 62
     7
 10
-2417.84350308596
 20
-428.6571774074247
 30
0.0
 40
0.1202484368987663
 50
108.1866978930208
 51
186.9678475526486
  0
ARC
  5
58B
  8
0
  6
CONTINUOUS
 62
     7
 10
-2403.331473739155
 20
-481.6323505166225
 30
0.0
 40
59.77425563076266
 50
99.27926944398799
 51
101.2251623271466
  0
ARC
  5
58C
  8
0
  6
CONTINUOUS
 62
     7
 10
-2390.515948319066
 20
-542.533377920676
 30
0.0
 40
121.8654571137128
 50
95.15643003196146
 51
96.2810975786179
  0
ARC
  5
58D
  8
0
  6
CONTINUOUS
 62
     7
 10
-2393.280268116581
 20
-425.6282138728276
 30
0.0
 40
4.364292022035661
 50
103.0032227897994
 51
107.811133590212
  0
ARC
  5
58E
  8
0
  6
CONTINUOUS
 62
     7
 10
-2416.481051933743
 20
-421.5546079246296
 30
0.0
 40
7.350286069979816
 50
266.1245615149951
 51
270.6670451252904
  0
ARC
  5
58F
  8
0
  6
CONTINUOUS
 62
     7
 10
-2419.872972469161
 20
-302.3252984631443
 30
0.0
 40
121.8654571137042
 50
277.6545975265892
 51
278.7792650732457
  0
ARC
  5
590
  8
0
  6
CONTINUOUS
 62
     7
 10
-2396.863526952121
 20
-414.4751158282752
 30
0.0
 40
7.350286069977516
 50
283.2686499799166
 51
287.8111335902121
  0
ARC
  5
591
  8
0
  6
CONTINUOUS
 62
     7
 10
-1923.223066108822
 20
-209.3773429906247
 30
0.0
 40
11.60923854660862
 50
9.49986966923251
 51
20.09636269645495
  0
ARC
  5
592
  8
0
  6
CONTINUOUS
 62
     7
 10
-2332.101852528769
 20
-323.4813516852206
 30
0.0
 40
93.18821066175236
 50
276.430282503974
 51
276.5481516193018
  0
ARC
  5
593
  8
0
  6
CONTINUOUS
 62
     7
 10
-1921.121778264538
 20
-206.6861047114972
 30
0.0
 40
8.088179229677056
 50
76.6418314135114
 51
89.99999999266538
  0
ARC
  5
594
  8
0
  6
CONTINUOUS
 62
     7
 10
-2418.40728494119
 20
-424.0441431984465
 30
0.0
 40
0.1202484368992071
 50
186.967847552623
 51
265.7489972120072
  0
ARC
  5
595
  8
0
  6
CONTINUOUS
 62
     7
 10
-2403.6302665674
 20
-395.1066445439498
 30
0.0
 40
32.27809804064864
 50
272.7105327780642
 51
274.6564256612202
  0
ARC
  5
596
  8
0
  6
CONTINUOUS
 62
     7
 10
-2419.570477801412
 20
-290.4360512788918
 30
0.0
 40
138.4022054456063
 50
281.225162327142
 51
281.3995558571071
  0
LINE
  5
597
  8
0
  6
CONTINUOUS
 62
     7
 10
-2392.510791982974
 20
-424.0112760063584
 30
0.0
 11
-2388.760791982835
 21
-424.0112760063393
 31
0.0
  0
ARC
  5
598
  8
0
  6
CONTINUOUS
 62
     7
 10
-2392.408631873278
 20
-422.0822981583923
 30
0.0
 40
3.969154477819894
 50
283.268649979968
 51
287.8111335902225
  0
ARC
  5
599
  8
0
  6
CONTINUOUS
 62
     7
 10
-1869.63321145654
 20
-201.2527136572463
 30
0.0
 40
8.344626419912203
 50
59.04038454380272
 51
68.90516398905592
  0
ARC
  5
59A
  8
0
  6
CONTINUOUS
 62
     7
 10
-1905.91061105399
 20
-427.1117688466211
 30
0.0
 40
5.925436244957194
 50
45.53250187153202
 51
47.58868395133317
  0
ARC
  5
59B
  8
0
  6
CONTINUOUS
 62
     7
 10
-1901.181857742683
 20
-422.2942911601009
 30
0.0
 40
0.8250599693457973
 50
225.5325018715304
 51
253.1383173192967
  0
ARC
  5
59C
  8
0
  6
CONTINUOUS
 62
     7
 10
-2388.869121779066
 20
-423.9334403234604
 30
0.0
 40
0.047195969303708
 50
264.2591370546017
 51
293.4816043130525
  0
LINE
  5
59D
  8
0
  6
CONTINUOUS
 62
     7
 10
-1927.574826742876
 20
-243.0979254817149
 30
0.0
 11
-1909.8
 21
-243.0979254817149
 31
0.0
  0
ARC
  5
59E
  8
0
  6
CONTINUOUS
 62
     7
 10
-1901.736481610582
 20
-422.5423265550468
 30
0.0
 40
0.2635183894177384
 50
179.9999999999879
 51
227.5886839513768
  0
LINE
  5
59F
  8
0
  6
CONTINUOUS
 62
     7
 10
-2416.274290070139
 20
-428.9020745182946
 30
0.0
 11
-2408.774290070139
 21
-428.9020745182946
 31
0.0
  0
ARC
  5
5A0
  8
0
  6
CONTINUOUS
 62
     7
 10
-2403.306537565169
 20
-423.414185417612
 30
0.0
 40
3.969154477782761
 50
266.1245615149889
 51
270.66704512529
  0
ARC
  5
5A1
  8
0
  6
CONTINUOUS
 62
     7
 10
-2410.423116113056
 20
-319.9332511389252
 30
0.0
 40
107.7694138504576
 50
276.2810975786144
 51
276.9678475526039
  0
ARC
  5
5A2
  8
0
  6
CONTINUOUS
 62
     7
 10
-1866.459347357828
 20
-414.2964027613359
 30
0.0
 40
4.678805288943228
 50
326.2094518859469
 51
336.4453967891119
  0
ARC
  5
5A3
  8
0
  6
CONTINUOUS
 62
     7
 10
-1871.537509690216
 20
-405.7057355814576
 30
0.0
 40
14.50172756806198
 50
300.4112086545421
 51
304.5675817952174
  0
ARC
  5
5A4
  8
0
  6
CONTINUOUS
 62
     7
 10
-2388.751444639108
 20
-424.2043170140826
 30
0.0
 40
0.2481378939615115
 50
98.71102990704493
 51
113.4816043130025
  0
ARC
  5
5A5
  8
0
  6
CONTINUOUS
 62
     7
 10
-2394.710305725503
 20
-413.7336988284991
 30
0.0
 40
12.62328015638691
 50
281.3995558570641
 51
283.3117022792815
  0
ARC
  5
5A6
  8
0
  6
CONTINUOUS
 62
     7
 10
-1867.182550119925
 20
-413.1252585439553
 30
0.0
 40
5.898530845337179
 50
287.7879849712513
 51
300.411208654542
  0
ARC
  5
5A7
  8
0
  6
CONTINUOUS
 62
     7
 10
-2408.906457192083
 20
-363.4523025934707
 30
0.0
 40
59.77425563076266
 50
279.2792694439879
 51
281.2251623271466
  0
ARC
  5
5A8
  8
0
  6
CONTINUOUS
 62
     7
 10
-1868.279454589175
 20
-199.8440180939356
 30
0.0
 40
6.279454589174449
 50
0.0
 51
25.1332107976271
  0
ARC
  5
5A9
  8
0
  6
CONTINUOUS
 62
     7
 10
-2413.961716375571
 20
-302.4167363581888
 30
0.0
 40
125.61270591754
 50
278.7792650732466
 51
279.2792694439923
  0
ARC
  5
5AA
  8
0
  6
CONTINUOUS
 62
     7
 10
-2387.974276543742
 20
-427.299468454414
 30
0.0
 40
3.435572039653706
 50
98.46878248213238
 51
102.6446887069087
  0
LINE
  5
5AB
  8
0
  6
CONTINUOUS
 62
     7
 10
-1862.0
 20
-415.3489715740408
 30
0.0
 11
-1862.0
 21
-422.5423265550467
 31
0.0
  0
ARC
  5
5AC
  8
0
  6
CONTINUOUS
 62
     7
 10
-2398.386121221266
 20
-846.0337985475686
 30
0.0
 40
418.679101048147
 50
90.6239928259306
 51
90.66704512531602
  0
ARC
  5
5AD
  8
0
  6
CONTINUOUS
 62
     7
 10
-1868.764072291279
 20
-199.8039110430865
 30
0.0
 40
6.655120011700961
 50
46.66249200661482
 51
59.04038454379867
  0
ARC
  5
5AE
  8
0
  6
CONTINUOUS
 62
     7
 10
-2405.832197929674
 20
-361.643424213683
 30
0.0
 40
65.80734684116017
 50
275.1564300319617
 51
276.2810975786222
  0
LINE
  5
5AF
  8
0
  6
CONTINUOUS
 62
     7
 10
-1902.0
 20
-243.0979254817149
 30
0.0
 11
-1909.8
 21
-243.0979254817149
 31
0.0
  0
ARC
  5
5B0
  8
0
  6
CONTINUOUS
 62
     7
 10
-2417.272812126513
 20
-433.2423988053511
 30
0.0
 40
4.364292022052942
 50
86.124561514999
 51
90.93247231539067
  0
LINE
  5
5B1
  8
0
  6
CONTINUOUS
 62
     7
 10
-1862.0
 20
-203.9303227966692
 30
0.0
 11
-1862.0
 21
-415.3489715740408
 31
0.0
  0
ARC
  5
5B2
  8
0
  6
CONTINUOUS
 62
     7
 10
-2404.833732452486
 20
-361.5213967811524
 30
0.0
 40
65.80734684150124
 50
277.6545975265923
 51
278.779265073247
  0
ARC
  5
5B3
  8
0
  6
CONTINUOUS
 62
     7
 10
-2418.599203127186
 20
-423.4599636528084
 30
0.0
 40
0.4946485720851084
 50
288.1866978931109
 51
305.9357679384935
  0
ARC
  5
5B4
  8
0
  6
CONTINUOUS
 62
     7
 10
-2404.042261187366
 20
-427.2495729383152
 30
0.0
 40
0.0649341559250725
 50
186.9678475525545
 51
265.7489972122788
  0
ARC
  5
5B5
  8
0
  6
CONTINUOUS
 62
     7
 10
-1869.091625076491
 20
-408.7251711249129
 30
0.0
 40
10.65317279988796
 50
275.5790066217368
 51
283.3607506961081
  0
ARC
  5
5B6
  8
0
  6
CONTINUOUS
 62
     7
 10
-2390.770876153749
 20
-425.6276109634431
 30
0.0
 40
0.0649341559259608
 50
288.1866978935885
 51
6.967847552410887
  0
ARC
  5
5B7
  8
0
  6
CONTINUOUS
 62
     7
 10
-1757.861175350258
 20
-228.097924665757
 30
0.0
 40
50.72475857754577
 50
173.6643030436262
 51
186.3353942550208
  0
ARC
  5
5B8
  8
0
  6
CONTINUOUS
 62
     7
 10
-2394.401336949493
 20
-416.4552885137171
 30
0.0
 40
4.364292022056183
 50
266.1245615149959
 51
270.9324723153784
  0
ARC
  5
5B9
  8
0
  6
CONTINUOUS
 62
     7
 10
-2391.115834717393
 20
-425.3241728558978
 30
0.0
 40
0.4972640376689265
 50
283.0032227898994
 51
305.9357679384386
  0
LINE
  5
5BA
  8
0
  6
CONTINUOUS
 62
     7
 10
-1856.0
 20
-228.0979254817149
 30
0.0
 11
-1856.0
 21
-243.0979254817149
 31
0.0
  0
LINE
  5
5BB
  8
0
  6
CONTINUOUS
 62
     7
 10
-1874.5
 20
-428.9020745182946
 30
0.0
 11
-1889.5
 21
-428.9020745182946
 31
0.0
  0
ARC
  5
5BC
  8
0
  6
CONTINUOUS
 62
     7
 10
-1869.21690353459
 20
-200.2838140637454
 30
0.0
 40
7.314940475278925
 50
25.13321079762769
 51
46.66249200661509
  0
LINE
  5
5BD
  8
0
  6
CONTINUOUS
 62
     7
 10
-1856.0
 20
-243.0979254817149
 30
0.0
 11
-1862.0
 21
-243.0979254817149
 31
0.0
  0
ARC
  5
5BE
  8
0
  6
CONTINUOUS
 62
     7
 10
-2431.675725685258
 20
-192.2488147133795
 30
0.0
 40
232.6161220698785
 50
274.6564256612166
 51
275.1564300319616
  0
ARC
  5
5BF
  8
0
  6
CONTINUOUS
 62
     7
 10
-2382.014247979456
 20
-619.7744391701889
 30
0.0
 40
199.5729886123747
 50
96.96784755260444
 51
97.65459752659238
  0
ARC
  5
5C0
  8
0
  6
CONTINUOUS
 62
     7
 10
-2403.083225856968
 20
-414.7569950431531
 30
0.0
 40
12.62328015666973
 50
270.62399282593
 51
272.5361392481053
  0
ARC
  5
5C1
  8
0
  6
CONTINUOUS
 62
     7
 10
-2403.734088069266
 20
-429.7255924932084
 30
0.0
 40
2.356717691921701
 50
86.12456151498829
 51
90.93247231534207
  0
ARC
  5
5C2
  8
0
  6
CONTINUOUS
 62
     7
 10
-2408.648883831317
 20
-289.1012689393886
 30
0.0
 40
138.4022054635419
 50
272.5361392481215
 51
272.7105327780641
  0
LINE
  5
5C3
  8
0
  6
CONTINUOUS
 62
   253
 10
-1889.5
 20
-424.2890403093165
 30
0.0
 11
-1889.5
 21
-428.9020745182946
 31
0.0
  0
ARC
  5
5C4
  8
0
  6
CONTINUOUS
 62
     7
 10
-2411.207219189163
 20
-302.0800955563743
 30
0.0
 40
125.6127059177391
 50
274.6564256612171
 51
275.1564300319619
  0
LINE
  5
5C5
  8
0
  6
CONTINUOUS
 62
     7
 10
-1808.2
 20
-43.09792548171482
 30
0.0
 11
-1859.0
 21
-43.09792548171482
 31
0.0
  0
ARC
  5
5C6
  8
0
  6
CONTINUOUS
 62
     7
 10
-2390.667240333313
 20
-425.9430679180855
 30
0.0
 40
0.2671102289229539
 50
108.1866978927884
 51
125.9357679384407
  0
ARC
  5
5C7
  8
0
  6
CONTINUOUS
 62
     7
 10
-2388.875375850938
 20
-423.99564908433
 30
0.0
 40
0.0153263734540634
 50
84.25913705436881
 51
119.7151136295813
  0
ARC
  5
5C8
  8
0
  6
CONTINUOUS
 62
     7
 10
-2390.47367210207
 20
-428.1049711024981
 30
0.0
 40
2.356717691917492
 50
103.0032227898516
 51
107.8111335902246
  0
ARC
  5
5C9
  8
0
  6
CONTINUOUS
 62
     7
 10
-1864.044899822113
 20
-415.3489715740407
 30
0.0
 40
2.044899822113422
 50
336.4453967891361
 51
359.9999999999985
  0
ARC
  5
5CA
  8
0
  6
CONTINUOUS
 62
     7
 10
-2404.066874290846
 20
-427.5807038318449
 30
0.0
 40
0.2671102289281735
 50
67.99992716671227
 51
85.7489972120245
  0
ARC
  5
5CB
  8
0
  6
CONTINUOUS
 62
     7
 10
-2398.911814202878
 20
-394.5299790114585
 30
0.0
 40
32.27809804078422
 50
279.2792694439935
 51
281.2251623271415
  0
ARC
  5
5CC
  8
0
  6
CONTINUOUS
 62
     7
 10
-1869.40705360659
 20
-200.6664545717
 30
0.0
 40
7.71625782706287
 50
68.90516398905558
 51
78.84290369551191
  0
ARC
  5
5CD
  8
0
  6
CONTINUOUS
 62
     7
 10
-1870.509377226746
 20
-402.7559350370391
 30
0.0
 40
16.78846420554487
 50
283.3607506961076
 51
287.7879849712606
  0
ARC
  5
5CE
  8
0
  6
CONTINUOUS
 62
     7
 10
-2410.423116113186
 20
-319.9332511378673
 30
0.0
 40
107.7694138515233
 50
276.9678475526039
 51
277.6545975265865
  0
ARC
  5
5CF
  8
0
  6
CONTINUOUS
 62
     7
 10
-1864.898833742183
 20
-415.3407028131325
 30
0.0
 40
2.801103144620558
 50
304.5675817952199
 51
326.2094518859469
  0
ARC
  5
5D0
  8
0
  6
CONTINUOUS
 62
     7
 10
-2393.785066168789
 20
-420.4273045532618
 30
0.0
 40
0.4946485720854388
 50
247.9999271666898
 51
265.7489972120375
  0
ARC
  5
5D1
  8
0
  6
CONTINUOUS
 62
     7
 10
-2403.780533749837
 20
-426.871988717001
 30
0.0
 40
0.4972640376674566
 50
247.9999271667355
 51
270.9324723153899
  0
ARC
  5
5D2
  8
0
  6
CONTINUOUS
 62
     7
 10
-2295.403580452091
 20
-833.447789870185
 30
0.0
 40
418.6791008983407
 50
103.2686499798804
 51
103.3117022792812
  0
LINE
  5
5D3
  8
0
  6
CONTINUOUS
 62
     7
 10
-2372.510791982836
 20
-424.0112760063395
 30
0.0
 11
-2391.805183610388
 21
-427.155360764025
 31
0.0
  0
LINE
  5
5D4
  8
0
  6
CONTINUOUS
 62
     7
 10
-1859.0
 20
-187.0979254817148
 30
0.0
 11
-1951.5
 21
-187.0979254817148
 31
0.0
  0
ARC
  5
5D5
  8
0
  6
CONTINUOUS
 62
     7
 10
-1893.847333109832
 20
-393.5626287655122
 30
0.0
 40
30.54682285689835
 50
261.5447666810103
 51
265.3660651824073
  0
ARC
  5
5D6
  8
0
  6
CONTINUOUS
 62
     7
 10
-2399.869169812367
 20
-1204.183521407635
 30
0.0
 40
775.3316688870663
 50
90.62399282593026
 51
90.6580879391986
  0
ARC
  5
5D7
  8
0
  6
CONTINUOUS
 62
     7
 10
-1864.456253825518
 20
-423.8504229311837
 30
0.0
 40
4.248762795770459
 50
282.6798569208993
 51
290.7420601934253
  0
ARC
  5
5D8
  8
0
  6
CONTINUOUS
 62
     7
 10
-2389.979404888616
 20
-491.3557871206914
 30
0.0
 40
65.80734684158755
 50
97.65459752659268
 51
98.77926507324587
  0
ARC
  5
5D9
  8
0
  6
CONTINUOUS
 62
     7
 10
-1923.0672749667
 20
-227.7978930423324
 30
0.0
 40
17.57940209925676
 50
200.0963627037852
 51
209.3087928439166
  0
ARC
  5
5DA
  8
0
  6
CONTINUOUS
 62
     7
 10
-2391.032603591277
 20
-426.0051951847563
 30
0.0
 40
0.497264037666415
 50
67.99992716674224
 51
90.932472315443
  0
ARC
  5
5DB
  8
0
  6
CONTINUOUS
 62
     7
 10
-2396.427016121575
 20
-6.843385194349794
 30
0.0
 40
418.679101207996
 50
270.6239928259286
 51
270.6670451252976
  0
ARC
  5
5DC
  8
0
  6
CONTINUOUS
 62
     7
 10
-2391.729911484145
 20
-438.1201888586926
 30
0.0
 40
12.62328015675722
 50
90.62399282592963
 51
92.53613924809169
  0
ARC
  5
5DD
  8
0
  6
CONTINUOUS
 62
     7
 10
-2404.339465239047
 20
-424.7722127992499
 30
0.0
 40
2.356717691928168
 50
283.0032227898689
 51
287.8111335902206
  0
ARC
  5
5DE
  8
0
  6
CONTINUOUS
 62
     7
 10
-2404.145897007801
 20
-426.9341159836726
 30
0.0
 40
0.2671102289231337
 50
288.1866978927735
 51
305.9357679384127
  0
ARC
  5
5DF
  8
0
  6
CONTINUOUS
 62
     7
 10
-2499.409556883107
 20
-19.4293940566182
 30
0.0
 40
418.6791008726065
 50
283.2686499798791
 51
283.3117022792827
  0
ARC
  5
5E0
  8
0
  6
CONTINUOUS
 62
     7
 10
-2400.102831615615
 20
-439.1434850732421
 30
0.0
 40
12.6232801563694
 50
101.3995558570616
 51
103.3117022792817
  0
ARC
  5
5E1
  8
0
  6
CONTINUOUS
 62
     7
 10
-2388.875375850938
 20
-423.9956490843301
 30
0.0
 40
0.0153263734536039
 50
186.1971744683278
 51
288.1352118855609
  0
ARC
  5
5E2
  8
0
  6
CONTINUOUS
 62
     7
 10
-1927.574826742876
 20
-232.0685901685195
 30
0.0
 40
11.02933531319533
 50
256.6418314208442
 51
270.0
  0
ARC
  5
5E3
  8
0
  6
CONTINUOUS
 62
     7
 10
-1873.581111928547
 20
-367.5759251323458
 30
0.0
 40
61.31510338004318
 50
271.377445318456
 51
273.613714621765
  0
ARC
  5
5E4
  8
0
  6
CONTINUOUS
 62
     7
 10
-1869.5
 20
-404.544469084641
 30
0.0
 40
14.85377271272009
 50
270.0
 51
275.5790066217398
  0
LINE
  5
5E5
  8
0
  6
CONTINUOUS
 62
     7
 10
-1855.999999999997
 20
-193.0979254817148
 30
0.0
 11
-1862.000000000003
 21
-193.0979254817148
 31
0.0
  0
ARC
  5
5E6
  8
0
  6
CONTINUOUS
 62
     7
 10
-2408.567511733371
 20
-405.5227738978656
 30
0.0
 40
23.37644473457357
 50
270.6239928259306
 51
272.5361392481046
  0
ARC
  5
5E7
  8
0
  6
CONTINUOUS
 62
     7
 10
-2390.943725900319
 20
-407.3560940737597
 30
0.0
 40
16.72765714538044
 50
278.4687824821748
 51
279.3262597270376
  0
ARC
  5
5E8
  8
0
  6
CONTINUOUS
 62
     7
 10
-1897.216431005114
 20
-411.4397563293186
 30
0.0
 40
12.36620995018619
 50
257.4980948550839
 51
261.1523926234956
  0
LINE
  5
5E9
  8
0
  6
CONTINUOUS
 62
     7
 10
-1902.0
 20
-419.3982417973612
 30
0.0
 11
-1902.0
 21
-197.832593818278
 31
0.0
  0
LINE
  5
5EA
  8
0
  6
CONTINUOUS
 62
     7
 10
-1862.0
 20
-422.5423265550467
 30
0.0
 11
-1862.0
 21
-427.155360764025
 31
0.0
  0
ARC
  5
5EB
  8
0
  6
CONTINUOUS
 62
     7
 10
-1862.263518389418
 20
-427.1553607640248
 30
0.0
 40
0.2635183894181825
 50
312.4113160486783
 51
359.999999999976
  0
ARC
  5
5EC
  8
0
  6
CONTINUOUS
 62
     7
 10
-2388.875375850938
 20
-423.99564908433
 30
0.0
 40
0.0153263734540634
 50
119.7151136295813
 51
186.1971744687676
  0
ARC
  5
5ED
  8
0
  6
CONTINUOUS
 62
     7
 10
-2422.159901096551
 20
-229.9232481488825
 30
0.0
 40
199.5729886123747
 50
276.9678475526045
 51
277.6545975265924
  0
ARC
  5
5EE
  8
0
  6
CONTINUOUS
 62
     7
 10
-1881.407429042639
 20
-309.8780666194033
 30
0.0
 40
115.1509430567261
 50
261.1523926234913
 51
261.5447666810102
  0
ARC
  5
5EF
  8
0
  6
CONTINUOUS
 62
     7
 10
-1960.138824649744
 20
-78.09792629767276
 30
0.0
 40
50.72475857754672
 50
353.6643030436263
 51
6.335394255020731
  0
ARC
  5
5F0
  8
0
  6
CONTINUOUS
 62
     7
 10
-1866.78356899489
 20
-416.052790538277
 30
0.0
 40
12.36620995020645
 50
278.8476073765119
 51
282.5019051449165
  0
ARC
  5
5F1
  8
0
  6
CONTINUOUS
 62
     7
 10
-1889.5
 20
-324.7484774588182
 30
0.0
 40
99.54056285049816
 50
268.6225546815455
 51
270.0
  0
ARC
  5
5F2
  8
0
  6
CONTINUOUS
 62
     7
 10
-1870.152666890168
 20
-398.1756629744904
 30
0.0
 40
30.54682285689835
 50
274.6339348175927
 51
278.4552333189897
  0
LINE
  5
5F3
  8
0
  6
CONTINUOUS
 62
     7
 10
-1889.5
 20
-424.2890403093165
 30
0.0
 11
-1874.5
 21
-424.2890403093165
 31
0.0
  0
ARC
  5
5F4
  8
0
  6
CONTINUOUS
 62
     7
 10
-2388.799121322949
 20
-423.7652440124835
 30
0.0
 40
0.2481378939583395
 50
258.9127446250201
 51
273.6833190310728
  0
ARC
  5
5F5
  8
0
  6
CONTINUOUS
 62
     7
 10
-1858.089388946016
 20
-431.7248030555928
 30
0.0
 40
5.925436244948009
 50
132.4113160486636
 51
134.4674981284679
  0
ARC
  5
5F6
  8
0
  6
CONTINUOUS
 62
     7
 10
-2402.404505467838
 20
-430.7948857433578
 30
0.0
 40
3.969154477811498
 50
103.2686499799636
 51
107.8111335902278
  0
ARC
  5
5F7
  8
0
  6
CONTINUOUS
 62
     7
 10
-2375.242659541441
 20
-562.4411326140784
 30
0.0
 40
138.4022054366476
 50
101.2251623271436
 51
101.3995558571201
  0
ARC
  5
5F8
  8
0
  6
CONTINUOUS
 62
     7
 10
-2384.390021228057
 20
-532.943932762833
 30
0.0
 40
107.7694138504576
 50
96.28109757861439
 51
96.9678475526039
  0
ARC
  5
5F9
  8
0
  6
CONTINUOUS
 62
     7
 10
-2365.342031189017
 20
-582.5242431784812
 30
0.0
 40
160.3021283575837
 50
96.41940303360445
 51
97.52908911382794
  0
LINE
  5
5FA
  8
0
  6
CONTINUOUS
 62
     7
 10
-1808.2
 20
-243.0979254817149
 30
0.0
 11
-1856.0
 21
-243.0979254817149
 31
0.0
  0
ARC
  5
5FB
  8
0
  6
CONTINUOUS
 62
     7
 10
-1903.107641751721
 20
-428.648066261617
 30
0.0
 40
5.814149478330384
 50
69.25793980657551
 51
73.13831731927002
  0
ARC
  5
5FC
  8
0
  6
CONTINUOUS
 62
     7
 10
-2395.901323138246
 20
-458.347204890242
 30
0.0
 40
32.27809804072561
 50
99.27926944399213
 51
101.2251623271437
  0
ARC
  5
5FD
  8
0
  6
CONTINUOUS
 62
     7
 10
-2388.929775358463
 20
-423.0404191124613
 30
0.0
 40
0.9293425393639411
 50
278.7110299070071
 51
282.6446887068993
  0
ARC
  5
5FE
  8
0
  6
CONTINUOUS
 62
     7
 10
-1890.418888071453
 20
-362.9628909233676
 30
0.0
 40
61.31510338004318
 50
266.386285378235
 51
268.622554681544
  0
ARC
  5
5FF
  8
0
  6
CONTINUOUS
 62
     7
 10
-1905.741538014343
 20
-240.3523963546015
 30
0.0
 40
192.3338511149993
 50
282.5019051449164
 51
282.6798569209016
  0
ARC
  5
600
  8
0
  6
CONTINUOUS
 62
     7
 10
-2418.874285760079
 20
-172.826984813952
 30
0.0
 40
256.3003804909119
 50
272.5361392481233
 51
272.7105327780639
  0
ARC
  5
601
  8
0
  6
CONTINUOUS
 62
     7
 10
-1862.818142257317
 20
-426.9073253690791
 30
0.0
 40
0.8250599693457973
 50
286.8616826807033
 51
314.4674981284695
  0
ARC
  5
602
  8
0
  6
CONTINUOUS
 62
     7
 10
-2423.611943830127
 20
-196.8618489212666
 30
0.0
 40
232.6161220709743
 50
274.6564256612194
 51
275.1564300319619
  0
ARC
  5
603
  8
0
  6
CONTINUOUS
 62
     7
 10
-1887.073271977726
 20
-309.988194386764
 30
0.0
 40
114.3953409472569
 50
265.3660651824103
 51
266.3862853782351
  0
LINE
  5
604
  8
0
  6
CONTINUOUS
 62
     7
 10
-1855.999999999997
 20
-193.0979254817148
 30
0.0
 11
-1856.0
 21
-228.0979254817149
 31
0.0
  0
ARC
  5
605
  8
0
  6
CONTINUOUS
 62
     7
 10
-1899.543746174481
 20
-419.2373887222055
 30
0.0
 40
4.248762795770459
 50
249.2579398065746
 51
257.3201430791007
  0
LINE
  5
606
  8
0
  6
CONTINUOUS
 62
   253
 10
-2388.570543837179
 20
-423.9178798312767
 30
0.0
 11
-2388.760791982835
 21
-424.0112760063393
 31
0.0
  0
ARC
  5
607
  8
0
  6
CONTINUOUS
 62
     7
 10
-2388.855915113831
 20
-424.0550656060659
 30
0.0
 40
0.0471959693040355
 50
78.91274462495625
 51
108.1352118833008
  0
ARC
  5
608
  8
0
  6
CONTINUOUS
 62
     7
 10
-1876.926728022274
 20
-314.6012285957422
 30
0.0
 40
114.3953409472569
 50
273.613714621765
 51
274.6339348175898
  0
ARC
  5
609
  8
0
  6
CONTINUOUS
 62
     7
 10
-1874.5
 20
-329.3615116677964
 30
0.0
 40
99.54056285049816
 50
270.0
 51
271.3774453184545
  0
ARC
  5
60A
  8
0
  6
CONTINUOUS
 62
     7
 10
-2293.770245441857
 20
-1218.656301564152
 30
0.0
 40
800.4478275706834
 50
96.30391671040184
 51
96.41940303360832
  0
ARC
  5
60B
  8
0
  6
CONTINUOUS
 62
     7
 10
-2384.123121455057
 20
-448.8876789050306
 30
0.0
 40
25.36026491779314
 50
97.17502763935403
 51
99.32625972703768
  0
ARC
  5
60C
  8
0
  6
CONTINUOUS
 62
     7
 10
-1860.892358248279
 20
-433.2611004705952
 30
0.0
 40
5.814149478330384
 50
106.86168268073
 51
110.7420601934245
  0
LINE
  5
60D
  8
0
  6
CONTINUOUS
 62
     7
 10
-1862.000000000003
 20
-193.0979254817148
 30
0.0
 11
-1951.5
 21
-193.0979254817148
 31
0.0
  0
ARC
  5
60E
  8
0
  6
CONTINUOUS
 62
     7
 10
-1858.258461985657
 20
-235.7393621456233
 30
0.0
 40
192.3338511149993
 50
257.3201430790985
 51
257.4980948550836
  0
LINE
  5
60F
  8
0
  6
CONTINUOUS
 62
     7
 10
-2372.510791982836
 20
-424.0112760063395
 30
0.0
 11
-2367.273440639246
 21
-421.440167724241
 31
0.0
  0
ARC
  5
610
  8
0
  6
CONTINUOUS
 62
     7
 10
-2388.723477890433
 20
-424.9402921995544
 30
0.0
 40
0.9293425393489163
 50
92.300058349318
 51
93.68331903110028
  0
ARC
  5
611
  8
0
  6
CONTINUOUS
 62
     7
 10
-1882.592570957571
 20
-314.4911008269708
 30
0.0
 40
115.1509430581524
 50
278.4552333189897
 51
278.847607376504
  0
ARC
  5
612
  8
0
  6
CONTINUOUS
 62
     7
 10
-2406.534969713049
 20
-270.8556344028787
 30
0.0
 40
154.0769101935962
 50
277.1750276393376
 51
277.5290891138279
  0
ARC
  5
613
  8
0
  6
CONTINUOUS
 62
     7
 10
-2409.580550086027
 20
-369.1332359362845
 30
0.0
 40
59.77425563092439
 50
272.7105327780638
 51
274.6564256612169
  0
ARC
  5
614
  8
0
  6
CONTINUOUS
 62
     7
 10
-1924.709434228398
 20
-228.3987197875172
 30
0.0
 40
15.83077983629948
 50
189.4998696765697
 51
200.096362703785
  0
ARC
  5
615
  8
0
  6
CONTINUOUS
 62
     7
 10
-1874.651873454068
 20
-425.1226571834564
 30
0.0
 40
3.139640718306417
 50
106.8616826807401
 51
110.742060193425
  0
ARC
  5
616
  8
0
  6
CONTINUOUS
 62
     7
 10
-2403.697302623721
 20
-427.5530110458614
 30
0.0
 40
0.4972640376699063
 50
103.0032227899248
 51
125.9357679384201
  0
ARC
  5
617
  8
0
  6
CONTINUOUS
 62
     7
 10
-2404.833732452486
 20
-361.5213967811524
 30
0.0
 40
65.80734684150124
 50
277.6545975265923
 51
278.779265073247
  0
LINE
  5
618
  8
0
  6
CONTINUOUS
 62
   253
 10
-1869.5
 20
-419.398241797361
 30
0.0
 11
-1869.5
 21
-193.0979254817103
 31
0.0
  0
ARC
  5
619
  8
0
  6
CONTINUOUS
 62
     7
 10
-1880.689566867997
 20
-361.0463263714224
 30
0.0
 40
61.77348411112393
 50
265.3660651824032
 51
266.3862853782344
  0
LINE
  5
61A
  8
0
  6
CONTINUOUS
 62
     7
 10
-1940.565207799644
 20
-193.0979254817148
 30
0.0
 11
-1940.565207799643
 21
-228.0979254817149
 31
0.0
  0
ARC
  5
61B
  8
0
  6
CONTINUOUS
 62
     7
 10
-2408.648883831317
 20
-289.1012689393886
 30
0.0
 40
138.4022054635419
 50
272.5361392481215
 51
272.7105327780641
  0
ARC
  5
61C
  8
0
  6
CONTINUOUS
 62
     7
 10
-2405.832197929674
 20
-361.643424213683
 30
0.0
 40
65.80734684116017
 50
275.1564300319617
 51
276.2810975786222
  0
ARC
  5
61D
  8
0
  6
CONTINUOUS
 62
     7
 10
-2413.658200756951
 20
-307.1643093982884
 30
0.0
 40
121.8654571138204
 50
275.1564300319619
 51
276.2810975786174
  0
ARC
  5
61E
  8
0
  6
CONTINUOUS
 62
     7
 10
-2403.697302623721
 20
-427.5530110458609
 30
0.0
 40
0.4972640376691963
 50
103.0032227898908
 51
125.9357679384162
  0
ARC
  5
61F
  8
0
  6
CONTINUOUS
 62
     7
 10
-2403.734088069266
 20
-429.7255924932079
 30
0.0
 40
2.356717691921258
 50
86.12456151498735
 51
90.93247231534222
  0
ARC
  5
620
  8
0
  6
CONTINUOUS
 62
     7
 10
-2403.083225856968
 20
-414.7569950431783
 30
0.0
 40
12.62328015664453
 50
270.6239928259292
 51
272.5361392481083
  0
ARC
  5
621
  8
0
  6
CONTINUOUS
 62
     7
 10
-1889.348126545925
 20
-425.1226571834384
 30
0.0
 40
3.139640718287133
 50
69.2579398065804
 51
73.13831731928894
  0
ARC
  5
622
  8
0
  6
CONTINUOUS
 62
     7
 10
-2295.403580437928
 20
-833.4477899301487
 30
0.0
 40
418.6791009599544
 50
103.2686499798836
 51
103.3117022792781
  0
ARC
  5
623
  8
0
  6
CONTINUOUS
 62
     7
 10
-1877.833127257239
 20
-415.8301698200062
 30
0.0
 40
6.67775337310217
 50
278.8476073765052
 51
282.5019051449175
  0
ARC
  5
624
  8
0
  6
CONTINUOUS
 62
     7
 10
-2383.605918151859
 20
-550.7970883463832
 30
0.0
 40
125.6127059187426
 50
94.6564256612219
 51
95.1564300319627
  0
ARC
  5
625
  8
0
  6
CONTINUOUS
 62
     7
 10
-2391.079049271848
 20
-423.1515914085504
 30
0.0
 40
2.356717691921258
 50
266.1245615149875
 51
270.9324723153422
  0
ARC
  5
626
  8
0
  6
CONTINUOUS
 62
     7
 10
-2390.473672102071
 20
-428.1049711024968
 30
0.0
 40
2.356717691916088
 50
103.0032227898483
 51
107.8111335902242
  0
ARC
  5
627
  8
0
  6
CONTINUOUS
 62
     7
 10
-1876.576377065782
 20
-420.0408913121627
 30
0.0
 40
2.294331909720376
 50
282.6798569209188
 51
290.7420601934226
  0
ARC
  5
628
  8
0
  6
CONTINUOUS
 62
     7
 10
-1882.0
 20
-369.0168792300918
 30
0.0
 40
53.75190393911472
 50
268.6225546815417
 51
270.0
  0
ARC
  5
629
  8
0
  6
CONTINUOUS
 62
     7
 10
-2390.746263050269
 20
-425.2964800699143
 30
0.0
 40
0.2671102289271837
 50
247.9999271667293
 51
265.7489972120104
  0
ARC
  5
62A
  8
0
  6
CONTINUOUS
 62
     7
 10
-2402.404505467841
 20
-430.7948857433469
 30
0.0
 40
3.969154477799969
 50
103.2686499799435
 51
107.8111335902207
  0
ARC
  5
62B
  8
0
  6
CONTINUOUS
 62
     7
 10
-2391.729911484147
 20
-438.1201888585799
 30
0.0
 40
12.62328015664453
 50
90.62399282592918
 51
92.53613924810827
  0
ARC
  5
62C
  8
0
  6
CONTINUOUS
 62
     7
 10
-2375.242659539701
 20
-562.4411326228665
 30
0.0
 40
138.4022054456063
 50
101.225162327142
 51
101.3995558571071
  0
ARC
  5
62D
  8
0
  6
CONTINUOUS
 62
     7
 10
-2384.390021227928
 20
-532.943932763891
 30
0.0
 40
107.7694138515234
 50
96.96784755260386
 51
97.65459752658647
  0
ARC
  5
62E
  8
0
  6
CONTINUOUS
 62
     7
 10
-1927.207228539039
 20
-230.5205619117495
 30
0.0
 40
12.62041039728877
 50
244.9740196896443
 51
256.6418314208427
  0
ARC
  5
62F
  8
0
  6
CONTINUOUS
 62
     7
 10
-2395.901323138236
 20
-458.3472048902998
 30
0.0
 40
32.27809804078422
 50
99.27926944399351
 51
101.2251623271415
  0
ARC
  5
630
  8
0
  6
CONTINUOUS
 62
     7
 10
-2391.182870773714
 20
-457.7705393578084
 30
0.0
 40
32.27809804064864
 50
92.71053277806428
 51
94.65642566122024
  0
ARC
  5
631
  8
0
  6
CONTINUOUS
 62
     7
 10
-2384.390021227928
 20
-532.943932763891
 30
0.0
 40
107.7694138515234
 50
96.96784755260386
 51
97.65459752658647
  0
ARC
  5
632
  8
0
  6
CONTINUOUS
 62
     7
 10
-2380.85142096538
 20
-550.460447544629
 30
0.0
 40
125.6127059186119
 50
98.77926507324595
 51
99.27926944398735
  0
ARC
  5
633
  8
0
  6
CONTINUOUS
 62
     7
 10
-2386.164253509612
 20
-563.7759149664057
 30
0.0
 40
138.4022054675822
 50
92.53613924812412
 51
92.71053277806162
  0
ARC
  5
634
  8
0
  6
CONTINUOUS
 62
     7
 10
-2411.809190613917
 20
-306.9383326722073
 30
0.0
 40
121.8654571136187
 50
277.6545975265887
 51
278.7792650732459
  0
ARC
  5
635
  8
0
  6
CONTINUOUS
 62
     7
 10
-2391.18287077372
 20
-457.7705393577241
 30
0.0
 40
32.27809804056422
 50
92.71053277806188
 51
94.65642566122294
  0
LINE
  5
636
  8
0
  6
CONTINUOUS
 62
     7
 10
-1902.0
 20
-427.155360764025
 30
0.0
 11
-1902.0
 21
-422.5423265550467
 31
0.0
  0
ARC
  5
637
  8
0
  6
CONTINUOUS
 62
     7
 10
-2392.408631873272
 20
-422.0822981584113
 30
0.0
 40
3.969154477799969
 50
283.2686499799435
 51
287.8111335902207
  0
ARC
  5
638
  8
0
  6
CONTINUOUS
 62
     7
 10
-2390.770876153748
 20
-425.6276109634431
 30
0.0
 40
0.0649341559255267
 50
6.967847552555736
 51
85.7489972122861
  0
LINE
  5
639
  8
0
  6
CONTINUOUS
 62
   253
 10
-1862.0
 20
-228.0979254817149
 30
0.0
 11
-1856.0
 21
-228.0979254817149
 31
0.0
  0
ARC
  5
63A
  8
0
  6
CONTINUOUS
 62
     7
 10
-2404.042261187365
 20
-427.2495729383152
 30
0.0
 40
0.0649341559259608
 50
108.1866978935886
 51
186.9678475524596
  0
ARC
  5
63B
  8
0
  6
CONTINUOUS
 62
     7
 10
-2499.409556903186
 20
-19.42939397160964
 30
0.0
 40
418.6791009599543
 50
283.2686499798836
 51
283.3117022792781
  0
ARC
  5
63C
  8
0
  6
CONTINUOUS
 62
     7
 10
-1890.86172996915
 20
-424.2930565793461
 30
0.0
 40
3.199735572269736
 50
45.5325018715323
 51
47.58868395133715
  0
ARC
  5
63D
  8
0
  6
CONTINUOUS
 62
     7
 10
-1875.691796818951
 20
-421.6916186286307
 30
0.0
 40
0.4455323834461536
 50
286.8616826806706
 51
314.4674981284784
  0
ARC
  5
63E
  8
0
  6
CONTINUOUS
 62
     7
 10
-2383.60591815195
 20
-550.7970883453839
 30
0.0
 40
125.6127059177391
 50
94.65642566121709
 51
95.15643003196189
  0
ARC
  5
63F
  8
0
  6
CONTINUOUS
 62
     7
 10
-1927.738521112119
 20
-231.6585749864733
 30
0.0
 40
11.36448621309101
 50
231.453799482681
 51
244.9740196896442
  0
LINE
  5
640
  8
0
  6
CONTINUOUS
 62
     7
 10
-1902.0
 20
-419.3982417973612
 30
0.0
 11
-1869.5
 21
-419.398241797361
 31
0.0
  0
ARC
  5
641
  8
0
  6
CONTINUOUS
 62
     7
 10
-2388.98093941143
 20
-491.2337596881804
 30
0.0
 40
65.80734684126585
 50
95.1564300319627
 51
96.2810975786214
  0
ARC
  5
642
  8
0
  6
CONTINUOUS
 62
     7
 10
-1875.392299930286
 20
-421.8255577419009
 30
0.0
 40
0.1422999302858052
 50
312.4113160486614
 51
0.0
  0
ARC
  5
643
  8
0
  6
CONTINUOUS
 62
     7
 10
-2380.851420965543
 20
-550.4604475435694
 30
0.0
 40
125.6127059175401
 50
98.77926507324663
 51
99.27926944399232
  0
ARC
  5
644
  8
0
  6
CONTINUOUS
 62
     7
 10
-2386.164253509797
 20
-563.7759149623697
 30
0.0
 40
138.4022054635419
 50
92.53613924812146
 51
92.71053277806405
  0
ARC
  5
645
  8
0
  6
CONTINUOUS
 62
     7
 10
-2388.98093941144
 20
-491.2337596880752
 30
0.0
 40
65.80734684116017
 50
95.1564300319617
 51
96.28109757862221
  0
ARC
  5
646
  8
0
  6
CONTINUOUS
 62
     7
 10
-1925.200780811204
 20
-228.4734732979237
 30
0.0
 40
15.43695458022318
 50
221.5109942250462
 51
231.453799482681
  0
ARC
  5
647
  8
0
  6
CONTINUOUS
 62
     7
 10
-2391.506599775945
 20
-429.4629984841455
 30
0.0
 40
3.969154477781986
 50
86.12456151498816
 51
90.6670451252902
  0
ARC
  5
648
  8
0
  6
CONTINUOUS
 62
     7
 10
-2428.71286454591
 20
-197.4852578125692
 30
0.0
 40
232.6161220715713
 50
278.7792650732459
 51
279.1293045007146
  0
ARC
  5
649
  8
0
  6
CONTINUOUS
 62
     7
 10
-1922.911933218366
 20
-228.0979254817149
 30
0.0
 40
17.65327458127719
 50
180.0
 51
189.4998696765583
  0
ARC
  5
64A
  8
0
  6
CONTINUOUS
 62
     7
 10
-1865.1295694719
 20
-320.9519569592261
 30
0.0
 40
103.860279603725
 50
257.3201430790994
 51
257.4980948550819
  0
ARC
  5
64B
  8
0
  6
CONTINUOUS
 62
     7
 10
-1873.138270030866
 20
-424.2930565793294
 30
0.0
 40
3.199735572246808
 50
132.4113160486555
 51
134.4674981284751
  0
ARC
  5
64C
  8
0
  6
CONTINUOUS
 62
     7
 10
-2419.570477801412
 20
-290.4360512788918
 30
0.0
 40
138.4022054456063
 50
281.225162327142
 51
281.3995558571071
  0
ARC
  5
64D
  8
0
  6
CONTINUOUS
 62
     7
 10
-1882.0
 20
-369.0168792298993
 30
0.0
 40
53.75190393930734
 50
270.0
 51
271.3774453184534
  0
ARC
  5
64E
  8
0
  6
CONTINUOUS
 62
     7
 10
-1884.347559879307
 20
-406.1765209355282
 30
0.0
 40
16.49528434274922
 50
261.5447666810147
 51
265.3660651824061
  0
ARC
  5
64F
  8
0
  6
CONTINUOUS
 62
     7
 10
-1890.303372993176
 20
-216.1302245730473
 30
0.0
 40
23.16060178673235
 50
95.77352204980787
 51
99.89545087925265
  0
ARC
  5
650
  8
0
  6
CONTINUOUS
 62
     7
 10
-1926.813790476569
 20
-229.9010955754561
 30
0.0
 40
13.28291058163186
 50
209.3087928439085
 51
221.5109942250461
  0
ARC
  5
651
  8
0
  6
CONTINUOUS
 62
     7
 10
-2384.390021228057
 20
-532.943932762833
 30
0.0
 40
107.7694138504576
 50
96.28109757861439
 51
96.9678475526039
  0
ARC
  5
652
  8
0
  6
CONTINUOUS
 62
     7
 10
-2396.42701611965
 20
-6.843385371757049
 30
0.0
 40
418.6791010305784
 50
270.6239928259297
 51
270.6580879392118
  0
ARC
  5
653
  8
0
  6
CONTINUOUS
 62
     7
 10
-2422.159901096667
 20
-229.9232481479255
 30
0.0
 40
199.5729886133389
 50
276.2810975786198
 51
276.9678475526044
  0
ARC
  5
654
  8
0
  6
CONTINUOUS
 62
     7
 10
-2404.042261187366
 20
-427.2495729383151
 30
0.0
 40
0.0649341559255267
 50
186.9678475525557
 51
265.748997212286
  0
ARC
  5
655
  8
0
  6
CONTINUOUS
 62
     7
 10
-1886.369988317139
 20
-360.9868573755354
 30
0.0
 40
62.18150925176232
 50
278.455233318988
 51
278.8476073764998
  0
ARC
  5
656
  8
0
  6
CONTINUOUS
 62
     7
 10
-2391.115834717393
 20
-425.3241728558968
 30
0.0
 40
0.4972640376699063
 50
283.0032227899247
 51
305.9357679384201
  0
ARC
  5
657
  8
0
  6
CONTINUOUS
 62
     7
 10
-2403.306537565169
 20
-423.4141854176128
 30
0.0
 40
3.969154477781986
 50
266.1245615149882
 51
270.6670451252902
  0
ARC
  5
658
  8
0
  6
CONTINUOUS
 62
     7
 10
-2404.339465239043
 20
-424.7722127992614
 30
0.0
 40
2.356717691916088
 50
283.0032227898482
 51
287.8111335902242
  0
ARC
  5
659
  8
0
  6
CONTINUOUS
 62
     7
 10
-2403.780533749837
 20
-426.871988717002
 30
0.0
 40
0.497264037666415
 50
247.9999271667422
 51
270.932472315443
  0
ENDSEC
  0
EOF
