  0
SECTION
  2
HEADER
  9
$ACADVER
  1
AC1006
  9
$DWGCODEPAGE
  3
ansi_932
  9
$INSBASE
 10
0.0
 20
0.0
 30
0.0
  9
$EXTMIN
 10
-4993.532590856762
 20
-531.4048939946119
  9
$EXTMAX
 10
-3721.092375265725
 20
3701.731500865318
  9
$LIMMIN
 10
0.0
 20
0.0
  9
$LIMMAX
 10
12.0
 20
9.0
  9
$ORTHOMODE
 70
     0
  9
$REGENMODE
 70
     1
  9
$FILLMODE
 70
     1
  9
$QTEXTMODE
 70
     0
  9
$MIRRTEXT
 70
     1
  9
$DRAGMODE
 70
     2
  9
$LTSCALE
 40
1.0
  9
$OSMODE
 70
    37
  9
$ATTMODE
 70
     1
  9
$TEXTSIZE
 40
0.2
  9
$TRACEWID
 40
0.05
  9
$TEXTSTYLE
  7
STANDARD
  9
$CLAYER
  8
0
  9
$CELTYPE
  6
BYLAYER
  9
$CECOLOR
 62
   256
  9
$DIMSCALE
 40
1.0
  9
$DIMASZ
 40
3.0
  9
$DIMEXO
 40
0.0625
  9
$DIMDLI
 40
0.38
  9
$DIMRND
 40
0.0
  9
$DIMDLE
 40
0.0
  9
$DIMEXE
 40
1.5
  9
$DIMTP
 40
0.0
  9
$DIMTM
 40
0.0
  9
$DIMTXT
 40
3.0
  9
$DIMCEN
 40
0.09
  9
$DIMTSZ
 40
0.0
  9
$DIMTOL
 70
     0
  9
$DIMLIM
 70
     0
  9
$DIMTIH
 70
     1
  9
$DIMTOH
 70
     1
  9
$DIMSE1
 70
     0
  9
$DIMSE2
 70
     0
  9
$DIMTAD
 70
     1
  9
$DIMZIN
 70
     0
  9
$DIMBLK
  1

  9
$DIMASO
 70
     1
  9
$DIMSHO
 70
     1
  9
$DIMPOST
  1

  9
$DIMAPOST
  1

  9
$DIMALT
 70
     0
  9
$DIMALTD
 70
     2
  9
$DIMALTF
 40
25.4
  9
$DIMLFAC
 40
1.0
  9
$DIMTOFL
 70
     0
  9
$DIMTVP
 40
0.0
  9
$DIMTIX
 70
     0
  9
$DIMSOXD
 70
     0
  9
$DIMSAH
 70
     0
  9
$DIMBLK1
  1

  9
$DIMBLK2
  1

  9
$LUNITS
 70
     2
  9
$LUPREC
 70
     4
  9
$SKETCHINC
 40
0.1
  9
$FILLETRAD
 40
0.5
  9
$AUNITS
 70
     0
  9
$AUPREC
 70
     0
  9
$MENU
  1
.
  9
$ELEVATION
 40
0.0
  9
$THICKNESS
 40
0.0
  9
$LIMCHECK
 70
     0
  9
$CHAMFERA
 40
0.0
  9
$CHAMFERB
 40
0.0
  9
$SKPOLY
 70
     0
  9
$TDCREATE
 40
2459695.604049317
  9
$TDUPDATE
 40
2459695.604050058
  9
$TDINDWG
 40
0.0000000116
  9
$TDUSRTIMER
 40
0.0000000116
  9
$USRTIMER
 70
     1
  9
$ANGBASE
 50
0.0
  9
$ANGDIR
 70
     0
  9
$PDMODE
 70
     0
  9
$PDSIZE
 40
0.0
  9
$PLINEWID
 40
0.0
  9
$COORDS
 70
     1
  9
$SPLFRAME
 70
     0
  9
$SPLINETYPE
 70
     6
  9
$SPLINESEGS
 70
     8
  9
$ATTDIA
 70
     0
  9
$ATTREQ
 70
     1
  9
$HANDLING
 70
     1
  9
$HANDSEED
  5
655
  9
$SURFTAB1
 70
     6
  9
$SURFTAB2
 70
     6
  9
$SURFTYPE
 70
     6
  9
$SURFU
 70
     6
  9
$SURFV
 70
     6
  9
$UCSNAME
  2

  9
$UCSORG
 10
0.0
 20
0.0
 30
0.0
  9
$UCSXDIR
 10
1.0
 20
0.0
 30
0.0
  9
$UCSYDIR
 10
0.0
 20
1.0
 30
0.0
  9
$USERI1
 70
     0
  9
$USERI2
 70
     0
  9
$USERI3
 70
     0
  9
$USERI4
 70
     0
  9
$USERI5
 70
     0
  9
$USERR1
 40
0.0
  9
$USERR2
 40
0.0
  9
$USERR3
 40
0.0
  9
$USERR4
 40
0.0
  9
$USERR5
 40
0.0
  9
$WORLDVIEW
 70
     1
  0
ENDSEC
  0
SECTION
  2
TABLES
  0
TABLE
  2
VPORT
 70
     1
  0
VPORT
  2
*ACTIVE
 70
     0
 10
0.0
 20
0.0
 11
1.0
 21
1.0
 12
-4357.312483061243
 22
1585.163303435353
 13
0.0
 23
0.0
 14
0.5
 24
0.5
 15
0.5
 25
0.5
 16
0.0
 26
0.0
 36
1.0
 17
0.0
 27
0.0
 37
0.0
 40
4233.13639485993
 41
1.6
 42
50.0
 43
0.0
 44
0.0
 50
0.0
 51
0.0
 71
     0
 72
   100
 73
     1
 74
     3
 75
     0
 76
     0
 77
     0
 78
     0
  0
ENDTAB
  0
TABLE
  2
LTYPE
 70
     1
  0
LTYPE
  2
CONTINUOUS
 70
     0
  3
Solid line
 72
    65
 73
     0
 40
0.0
  0
ENDTAB
  0
TABLE
  2
LAYER
 70
     1
  0
LAYER
  2
0
 70
     0
 62
     7
  6
CONTINUOUS
  0
ENDTAB
  0
TABLE
  2
STYLE
 70
     2
  0
STYLE
  2
STANDARD
 70
     0
 40
0.0
 41
1.0
 50
0.0
 71
     0
 42
0.2
  3
txt
  4

  0
STYLE
  2
ＭＳ_ゴシック
 70
     0
 40
0.0
 41
1.0
 50
0.0
 71
     0
 42
0.2
  3
ＭＳ ゴシック.shx
  4

  0
ENDTAB
  0
TABLE
  2
VIEW
 70
     0
  0
ENDTAB
  0
TABLE
  2
UCS
 70
     0
  0
ENDTAB
  0
ENDSEC
  0
SECTION
  2
BLOCKS
  0
ENDSEC
  0
SECTION
  2
ENTITIES
  0
ARC
  5
6F
  8
0
  6
CONTINUOUS
 62
     7
 10
-3878.493400224056
 20
-531.9629984841425
 30
0.0
 40
3.969154477776528
 50
89.33295487469596
 51
93.87543848501085
  0
ARC
  5
70
  8
0
  6
CONTINUOUS
 62
     7
 10
-3895.175977600412
 20
-543.1913421012612
 30
0.0
 40
16.72765714448422
 50
86.07443354405335
 51
86.93191078896352
  0
ARC
  5
71
  8
0
  6
CONTINUOUS
 62
     7
 10
-4344.984701043719
 20
-308.2467629003183
 30
0.0
 40
16.84570491023356
 50
153.8527629962025
 51
156.1016659075565
  0
ARC
  5
72
  8
0
  6
CONTINUOUS
 62
     7
 10
-4496.121778265284
 20
-315.0097462521267
 30
0.0
 40
8.08817922968963
 50
269.99999999267
 51
282.8367398821745
  0
ARC
  5
73
  8
0
  6
CONTINUOUS
 62
     7
 10
-3871.61387878381
 20
-948.5337990171901
 30
0.0
 40
418.6791015177932
 50
89.3329548747376
 51
89.37600717407469
  0
ARC
  5
74
  8
0
  6
CONTINUOUS
 62
     7
 10
-4370.665140423582
 20
-308.8942662268312
 30
0.0
 40
10.51700866440548
 50
103.3581685791576
 51
115.0259803103579
  0
ARC
  5
75
  8
0
  6
CONTINUOUS
 62
     7
 10
-3871.088185797159
 20
-497.0299790116484
 30
0.0
 40
32.27809804059323
 50
258.7748376728578
 51
260.7207305560174
  0
ARC
  5
76
  8
0
  6
CONTINUOUS
 62
     7
 10
-4354.658807208775
 20
-297.6104258190225
 30
0.0
 40
2.123772546936236
 50
108.1259379471017
 51
115.4998154275401
  0
ARC
  5
77
  8
0
  6
CONTINUOUS
 62
     7
 10
-4350.3690519109
 20
-304.6431124338164
 30
0.0
 40
10.40858359321771
 50
125.648913427344
 51
128.5952913892585
  0
ARC
  5
78
  8
0
  6
CONTINUOUS
 62
     7
 10
-3875.289694274474
 20
-516.2336988284012
 30
0.0
 40
12.62328015649031
 50
256.6882977207156
 51
258.6004441429154
  0
ARC
  5
79
  8
0
  6
CONTINUOUS
 62
     7
 10
-3866.693462434829
 20
-525.9141854176447
 30
0.0
 40
3.969154477752453
 50
269.3329548746599
 51
273.8754384850022
  0
ARC
  5
7A
  8
0
  6
CONTINUOUS
 62
     7
 10
-3865.933125709156
 20
-530.0807038318457
 30
0.0
 40
0.2671102289262453
 50
94.25100278790867
 51
112.0000728332493
  0
ARC
  5
7B
  8
0
  6
CONTINUOUS
 62
     7
 10
-3850.429522194869
 20
-392.9360512601538
 30
0.0
 40
138.4022054647124
 50
258.6004441429167
 51
258.774837672858
  0
LINE
  5
7C
  8
0
  6
CONTINUOUS
 62
   253
 10
-4000.252781787979
 20
-509.2048320219437
 30
0.0
 11
-3998.002781787979
 21
-509.2048320219437
 31
0.0
  0
ARC
  5
7D
  8
0
  6
CONTINUOUS
 62
     7
 10
-4907.101852528769
 20
-425.9813516852292
 30
0.0
 40
93.18821066174625
 50
276.4302825039744
 51
276.5481516193022
  0
LINE
  5
7E
  8
0
  6
CONTINUOUS
 62
     7
 10
-3998.002781787979
 20
-509.2048320219437
 30
0.0
 11
-4373.804028378124
 21
-324.7173622795269
 31
0.0
  0
ARC
  5
7F
  8
0
  6
CONTINUOUS
 62
     7
 10
-4368.585060285739
 20
-307.9459219978878
 30
0.0
 40
9.470405177566274
 50
64.35016669943666
 51
64.97401968964411
  0
ARC
  5
80
  8
0
  6
CONTINUOUS
 62
     7
 10
-3877.591368126738
 20
-524.5822981584456
 30
0.0
 40
3.969154477766696
 50
252.1888664097731
 51
256.7313500200946
  0
ARC
  5
81
  8
0
  6
CONTINUOUS
 62
     7
 10
-4368.721472260113
 20
-307.6042426795258
 30
0.0
 40
9.191112760997322
 50
76.64183142084637
 51
90.00000000000001
  0
LINE
  5
82
  8
0
  6
CONTINUOUS
 62
     7
 10
-4353.273603985039
 20
-335.9006749855705
 30
0.0
 11
-4374.676215556595
 21
-325.393754929974
 31
0.0
  0
LINE
  5
83
  8
0
  6
CONTINUOUS
 62
   253
 10
-4345.992089652654
 20
-299.5831716217389
 30
0.0
 11
-4344.524768861384
 21
-295.597925481704
 31
0.0
  0
LINE
  5
84
  8
0
  6
CONTINUOUS
 62
   253
 10
-3903.838885637866
 20
-525.5494121524565
 30
0.0
 11
-4358.508600876255
 21
-302.344018093936
 31
0.0
  0
ARC
  5
85
  8
0
  6
CONTINUOUS
 62
     7
 10
-3893.776522109567
 20
-527.4402921995465
 30
0.0
 40
0.9293425393385358
 50
87.69994165065623
 51
90.25033976885325
  0
ARC
  5
86
  8
0
  6
CONTINUOUS
 62
     7
 10
-3892.923319582563
 20
-501.1637474119819
 30
0.0
 40
25.36026491769076
 50
264.7806787012694
 51
266.9319107889626
  0
ARC
  5
87
  8
0
  6
CONTINUOUS
 62
     7
 10
-3859.576883886998
 20
-422.4332511393557
 30
0.0
 40
107.7694138500263
 50
263.0321524473971
 51
263.7189024213893
  0
LINE
  5
88
  8
0
  6
CONTINUOUS
 62
   253
 10
-4963.57054383718
 20
-526.4178798312792
 30
0.0
 11
-4963.760791982835
 21
-526.5112760063419
 31
0.0
  0
ARC
  5
89
  8
0
  6
CONTINUOUS
 62
     7
 10
-4498.223066108842
 20
-312.3185079724877
 30
0.0
 40
11.60923854656878
 50
339.9036372888755
 51
350.5001303161335
  0
LINE
  5
8A
  8
0
  6
CONTINUOUS
 62
     7
 10
-4864.747218212021
 20
-509.2048320219434
 30
0.0
 11
-4514.262264050271
 21
-337.1455773952353
 31
0.0
  0
LINE
  5
8B
  8
0
  6
CONTINUOUS
 62
   253
 10
-3966.085126208116
 20
-518.5872431636277
 30
0.0
 11
-3968.335126208116
 21
-518.5872431636277
 31
0.0
  0
ARC
  5
8C
  8
0
  6
CONTINUOUS
 62
     7
 10
-4499.427316234104
 20
-312.3179492702686
 30
0.0
 40
12.89156153942392
 50
20.09636269645569
 51
29.30879283660773
  0
ARC
  5
8D
  8
0
  6
CONTINUOUS
 62
     7
 10
-3866.369733432618
 20
-497.6066445442647
 30
0.0
 40
32.27809804033587
 50
265.3435743387654
 51
267.2894672219402
  0
ARC
  5
8E
  8
0
  6
CONTINUOUS
 62
     7
 10
-3856.038283624868
 20
-404.9167363610322
 30
0.0
 40
125.6127059146656
 50
260.720730555996
 51
261.2207349267532
  0
ARC
  5
8F
  8
0
  6
CONTINUOUS
 62
     7
 10
-3879.253736949732
 20
-527.7964800699172
 30
0.0
 40
0.267110228926657
 50
274.2510027879016
 51
292.0000728332136
  0
ARC
  5
90
  8
0
  6
CONTINUOUS
 62
     7
 10
-4353.96712310849
 20
-299.6264335094437
 30
0.0
 40
4.234995999834594
 50
118.4034085990018
 51
125.648913427382
  0
ARC
  5
91
  8
0
  6
CONTINUOUS
 62
     7
 10
-4370.337275371521
 20
-309.4104881737464
 30
0.0
 40
11.06909215136279
 50
138.4890057749512
 51
150.6912071560859
  0
ARC
  5
92
  8
0
  6
CONTINUOUS
 62
     7
 10
-3852.110917092783
 20
-531.7703827658107
 30
0.0
 40
0.4946485720837679
 50
94.25100278787325
 51
112.0000728332773
  0
ARC
  5
93
  8
0
  6
CONTINUOUS
 62
     7
 10
-4496.652206248538
 20
-310.3213254330589
 30
0.0
 40
9.254967624674219
 50
103.3581685718155
 51
115.0259803030175
  0
ARC
  5
94
  8
0
  6
CONTINUOUS
 62
     7
 10
-4496.679871526698
 20
-310.7756007463402
 30
0.0
 40
9.740801093195252
 50
29.30879283658203
 51
41.51099421771886
  0
ARC
  5
95
  8
0
  6
CONTINUOUS
 62
     7
 10
-4371.107884234486
 20
-307.9459219978878
 30
0.0
 40
9.470405177566274
 50
115.0259803103559
 51
128.5462005173305
  0
ARC
  5
96
  8
0
  6
CONTINUOUS
 62
     7
 10
-3866.916774143034
 20
-517.2569950431476
 30
0.0
 40
12.62328015667761
 50
267.4638607519024
 51
269.3760071740745
  0
LINE
  5
97
  8
0
  6
CONTINUOUS
 62
   253
 10
-4355.992089652654
 20
-299.5831716217389
 30
0.0
 11
-3893.739208017165
 21
-526.5112760063419
 31
0.0
  0
ARC
  5
98
  8
0
  6
CONTINUOUS
 62
     7
 10
-4351.679591593515
 20
-303.8565330297019
 30
0.0
 40
9.044002381956883
 50
115.4998154275115
 51
118.4034085990061
  0
ARC
  5
99
  8
0
  6
CONTINUOUS
 62
     7
 10
-4370.971472260113
 20
-307.6042426795258
 30
0.0
 40
9.191112760997322
 50
90.0
 51
103.3581685791536
  0
ARC
  5
9A
  8
0
  6
CONTINUOUS
 62
     7
 10
-4369.027804096643
 20
-308.8942662268312
 30
0.0
 40
10.51700866440548
 50
64.97401968964209
 51
76.64183142084238
  0
ARC
  5
9B
  8
0
  6
CONTINUOUS
 62
     7
 10
-4476.736481610582
 20
-529.6553607640271
 30
0.0
 40
0.2635183894179605
 50
180.0000000000482
 51
227.5886839514094
  0
ARC
  5
9C
  8
0
  6
CONTINUOUS
 62
     7
 10
-3893.795593465946
 20
-523.0754192844179
 30
0.0
 40
3.435572039648993
 50
266.0744335440724
 51
270.2503397688601
  0
ARC
  5
9D
  8
0
  6
CONTINUOUS
 62
     7
 10
-3852.64117735391
 20
-530.457947367957
 30
0.0
 40
0.9208593290136843
 50
269.067527684614
 51
292.0000728332919
  0
ARC
  5
9E
  8
0
  6
CONTINUOUS
 62
     7
 10
-3879.229123846252
 20
-528.1276109634456
 30
0.0
 40
0.0649341559255267
 50
94.25100278771392
 51
173.0321524474443
  0
ARC
  5
9F
  8
0
  6
CONTINUOUS
 62
     7
 10
-4496.001735727124
 20
-309.4867825116692
 30
0.0
 40
8.333956556252566
 50
51.45379947533274
 51
64.97401968231469
  0
LINE
  5
A0
  8
0
  6
CONTINUOUS
 62
     7
 10
-3877.489208017165
 20
-526.5112760063421
 30
0.0
 11
-3858.194816389613
 21
-529.6553607640276
 31
0.0
  0
ARC
  5
A1
  8
0
  6
CONTINUOUS
 62
     7
 10
-4465.418888071453
 20
-470.0759251323386
 30
0.0
 40
61.31510338005297
 50
266.386285378235
 51
268.6225546815436
  0
LINE
  5
A2
  8
0
  6
CONTINUOUS
 62
     7
 10
-4379.53091153342
 20
-308.3231434071895
 30
0.0
 11
-4378.683818847084
 21
-306.0224380136879
 31
0.0
  0
ARC
  5
A3
  8
0
  6
CONTINUOUS
 62
     7
 10
-3866.265911930735
 20
-532.2255924932159
 30
0.0
 40
2.356717691926741
 50
89.06752768465981
 51
93.87543848500343
  0
ARC
  5
A4
  8
0
  6
CONTINUOUS
 62
     7
 10
-4907.720562027277
 20
-420.598205337735
 30
0.0
 40
98.48269138547406
 50
295.2730101699275
 51
295.872929719901
  0
ARC
  5
A5
  8
0
  6
CONTINUOUS
 62
     7
 10
-4462.073271977772
 20
-417.1012285964817
 30
0.0
 40
114.3953409465185
 50
265.3660651824036
 51
266.386285378235
  0
LINE
  5
A6
  8
0
  6
CONTINUOUS
 62
     7
 10
-3876.925426161934
 20
-521.8982417973638
 30
0.0
 11
-3857.631034534381
 21
-525.0423265550494
 31
0.0
  0
ARC
  5
A7
  8
0
  6
CONTINUOUS
 62
     7
 10
-3958.462021008127
 20
-426.7062840569209
 30
0.0
 40
92.3773886697096
 50
250.4567555777554
 51
257.1432576078254
  0
LINE
  5
A8
  8
0
  6
CONTINUOUS
 62
     7
 10
-3966.085126208116
 20
-518.5872431636277
 30
0.0
 11
-3903.838885637866
 21
-525.5494121524565
 31
0.0
  0
LINE
  5
A9
  8
0
  6
CONTINUOUS
 62
     7
 10
-3877.489208017165
 20
-526.5112760063421
 30
0.0
 11
-4329.779743065682
 21
-304.4738635265795
 31
0.0
  0
ARC
  5
AA
  8
0
  6
CONTINUOUS
 62
     7
 10
-4480.910611054205
 20
-534.2248030558209
 30
0.0
 40
5.925436245264043
 50
45.53250187153217
 51
47.58868395122563
  0
ARC
  5
AB
  8
0
  6
CONTINUOUS
 62
     7
 10
-4907.504968789127
 20
-422.4694884365216
 30
0.0
 40
96.72313445116349
 50
276.5481516193004
 51
282.8567423921742
  0
ARC
  5
AC
  8
0
  6
CONTINUOUS
 62
     7
 10
-4497.041820802016
 20
-309.4867825115607
 30
0.0
 40
8.33395655627985
 50
115.0259803030148
 51
128.5462005099576
  0
ARC
  5
AD
  8
0
  6
CONTINUOUS
 62
     7
 10
-3864.167802070298
 20
-464.1434242133593
 30
0.0
 40
65.80734684148771
 50
263.7189024213831
 51
264.843569968038
  0
ARC
  5
AE
  8
0
  6
CONTINUOUS
 62
     7
 10
-3859.576883886951
 20
-422.4332511389675
 30
0.0
 40
107.7694138504173
 50
262.3454024734074
 51
263.032152447397
  0
ARC
  5
AF
  8
0
  6
CONTINUOUS
 62
     7
 10
-4456.407429042975
 20
-416.9911008306624
 30
0.0
 40
115.1509430544231
 50
261.1523926234826
 51
261.544766681009
  0
LINE
  5
B0
  8
0
  6
CONTINUOUS
 62
     7
 10
-4429.399999999296
 20
-323.0979254817202
 30
0.0
 11
-4429.400000000001
 21
-312.0979254817172
 31
0.0
  0
ARC
  5
B1
  8
0
  6
CONTINUOUS
 62
     7
 10
-3878.967396408723
 20
-528.5051951847605
 30
0.0
 40
0.4972640376682401
 50
89.06752768466242
 51
112.0000728332832
  0
ARC
  5
B2
  8
0
  6
CONTINUOUS
 62
     7
 10
-4476.181857742684
 20
-529.4073253690823
 30
0.0
 40
0.8250599693450108
 50
225.53250187152
 51
253.1383173193151
  0
ARC
  5
B3
  8
0
  6
CONTINUOUS
 62
     7
 10
-4461.369988317766
 20
-463.4868573713326
 30
0.0
 40
62.181509256014
 50
278.4552333189897
 51
278.8476073764749
  0
ARC
  5
B4
  8
0
  6
CONTINUOUS
 62
     7
 10
-3957.279437972712
 20
-420.5982053377101
 30
0.0
 40
98.48269138550147
 50
244.1270702800996
 51
244.7269898300729
  0
ARC
  5
B5
  8
0
  6
CONTINUOUS
 62
     7
 10
-3953.307564041909
 20
-412.1853863831629
 30
0.0
 40
107.7859867846692
 50
244.7269898300731
 51
250.4567555777577
  0
ARC
  5
B6
  8
0
  6
CONTINUOUS
 62
     7
 10
-3852.156496914042
 20
-531.1571774074273
 30
0.0
 40
0.1202484368992139
 50
274.2510027879889
 51
353.0321524472983
  0
ARC
  5
B7
  8
0
  6
CONTINUOUS
 62
     7
 10
-4496.391350280827
 20
-310.3213254330929
 30
0.0
 40
9.25496762467449
 50
64.97401968231634
 51
76.6418314135251
  0
ARC
  5
B8
  8
0
  6
CONTINUOUS
 62
     7
 10
-4452.833127257253
 20
-518.3301698199417
 30
0.0
 40
6.677753373170851
 50
278.8476073765504
 51
282.5019051449194
  0
LINE
  5
B9
  8
0
  6
CONTINUOUS
 62
     7
 10
-4947.510791982836
 20
-526.5112760063421
 30
0.0
 11
-4942.273440639246
 21
-523.9401677242436
 31
0.0
  0
ARC
  5
BA
  8
0
  6
CONTINUOUS
 62
     7
 10
-4458.310433132017
 20
-463.5463263711833
 30
0.0
 40
61.7734841113658
 50
273.6137146217643
 51
274.6339348175916
  0
ARC
  5
BB
  8
0
  6
CONTINUOUS
 62
     7
 10
-4449.65187345407
 20
-527.6226571834527
 30
0.0
 40
3.139640718300026
 50
106.8616826807458
 51
110.7420601934346
  0
ARC
  5
BC
  8
0
  6
CONTINUOUS
 62
     7
 10
-3909.246433640757
 20
-679.8569363185759
 30
0.0
 40
154.0769101998542
 50
84.78067870128007
 51
85.13474017575588
  0
ARC
  5
BD
  8
0
  6
CONTINUOUS
 62
     7
 10
-4472.216431005123
 20
-518.5527905383435
 30
0.0
 40
12.36620995014103
 50
257.4980948550804
 51
261.1523926235066
  0
ARC
  5
BE
  8
0
  6
CONTINUOUS
 62
     7
 10
-4498.223066108858
 20
-311.8773429906406
 30
0.0
 40
11.6092385466474
 50
9.499869669267582
 51
20.09636269645495
  0
LINE
  5
BF
  8
0
  6
CONTINUOUS
 62
   253
 10
-4464.5
 20
-526.789040309319
 30
0.0
 11
-4464.5
 21
-531.4020745182971
 31
0.0
  0
LINE
  5
C0
  8
0
  6
CONTINUOUS
 62
     7
 10
-4991.274290070139
 20
-531.4020745182971
 30
0.0
 11
-4983.774290070139
 21
-531.4020745182971
 31
0.0
  0
ARC
  5
C1
  8
0
  6
CONTINUOUS
 62
     7
 10
-4986.112044993411
 20
-548.569906411673
 30
0.0
 40
23.37644473442434
 50
101.3995558570951
 51
103.3117022792808
  0
ARC
  5
C2
  8
0
  6
CONTINUOUS
 62
     7
 10
-5170.013388208308
 20
228.6784108224573
 30
0.0
 40
775.3316688336864
 50
283.2686499799074
 51
283.3117022792803
  0
LINE
  5
C3
  8
0
  6
CONTINUOUS
 62
   253
 10
-4381.78091153342
 20
-308.3231434071895
 30
0.0
 11
-4379.53091153342
 21
-308.3231434071895
 31
0.0
  0
ARC
  5
C4
  8
0
  6
CONTINUOUS
 62
     7
 10
-4499.541233516265
 20
-312.0979254813812
 30
0.0
 40
12.94573469298399
 50
359.9999999926624
 51
9.499869669182772
  0
LINE
  5
C5
  8
0
  6
CONTINUOUS
 62
     7
 10
-4434.0
 20
-289.5979254817175
 30
0.0
 11
-4526.5
 21
-289.5979254817175
 31
0.0
  0
ARC
  5
C6
  8
0
  6
CONTINUOUS
 62
     7
 10
-4990.374403979112
 20
-533.1095372818382
 30
0.0
 40
7.3502860699963
 50
103.2686499799319
 51
107.8111335902123
  0
ARC
  5
C7
  8
0
  6
CONTINUOUS
 62
     7
 10
-4473.870430525619
 20
-423.4519569704002
 30
0.0
 40
103.8602795922811
 50
282.5019051449157
 51
282.6798569209175
  0
ARC
  5
C8
  8
0
  6
CONTINUOUS
 62
     7
 10
-3852.727187873487
 20
-535.7423988053514
 30
0.0
 40
4.364292022050701
 50
89.06752768462059
 51
93.87543848500894
  0
ARC
  5
C9
  8
0
  6
CONTINUOUS
 62
     7
 10
-4993.40728494119
 20
-526.544143198449
 30
0.0
 40
0.1202484368992004
 50
108.1866978932218
 51
186.9678475525967
  0
ARC
  5
CA
  8
0
  6
CONTINUOUS
 62
     7
 10
-4454.65244012069
 20
-508.676520935559
 30
0.0
 40
16.49528434272076
 50
274.6339348175894
 51
278.4552333189891
  0
ARC
  5
CB
  8
0
  6
CONTINUOUS
 62
     7
 10
-4993.599203127185
 20
-525.9599636528125
 30
0.0
 40
0.4946485720830231
 50
288.1866978930225
 51
305.9357679384781
  0
ARC
  5
CC
  8
0
  6
CONTINUOUS
 62
     7
 10
-4369.097793752058
 20
-310.3213254298213
 30
0.0
 40
9.254967624664822
 50
64.97401969699177
 51
76.6418314282102
  0
ARC
  5
CD
  8
0
  6
CONTINUOUS
 62
     7
 10
-4474.543746174467
 20
-526.3504229311455
 30
0.0
 40
4.248762795813701
 50
249.2579398065841
 51
257.3201430790167
  0
LINE
  5
CE
  8
0
  6
CONTINUOUS
 62
     7
 10
-4449.5
 20
-531.4020745182971
 30
0.0
 11
-4464.5
 21
-531.4020745182971
 31
0.0
  0
ARC
  5
CF
  8
0
  6
CONTINUOUS
 62
     7
 10
-4978.331473739071
 20
-584.132350517076
 30
0.0
 40
59.77425563122144
 50
99.27926944399896
 51
101.2251623271417
  0
ARC
  5
D0
  8
0
  6
CONTINUOUS
 62
     7
 10
-4496.121778264538
 20
-309.1861047114995
 30
0.0
 40
8.088179229676696
 50
76.64183141351407
 51
89.9999999926701
  0
ARC
  5
D1
  8
0
  6
CONTINUOUS
 62
     7
 10
-4368.708179198582
 20
-309.4867825083259
 30
0.0
 40
8.333956556273622
 50
51.45379949003967
 51
64.97401969699217
  0
ARC
  5
D2
  8
0
  6
CONTINUOUS
 62
     7
 10
-3957.898147471231
 20
-425.9813516852029
 30
0.0
 40
93.18821066177286
 50
263.4518483806996
 51
263.5697174960274
  0
ARC
  5
D3
  8
0
  6
CONTINUOUS
 62
     7
 10
-4499.427316234064
 20
-311.8779016925187
 30
0.0
 40
12.89156153944075
 50
330.6912071487361
 51
339.903637288876
  0
ARC
  5
D4
  8
0
  6
CONTINUOUS
 62
     7
 10
-4496.679871527028
 20
-313.4202502171636
 30
0.0
 40
9.740801093183647
 50
318.4890057676098
 51
330.6912071487598
  0
ARC
  5
D5
  8
0
  6
CONTINUOUS
 62
     7
 10
-3853.518948066258
 20
-524.0546079246378
 30
0.0
 40
7.350286069974111
 50
269.3329548747126
 51
273.8754384850079
  0
ARC
  5
D6
  8
0
  6
CONTINUOUS
 62
     7
 10
-3873.572983878621
 20
-109.3433852121671
 30
0.0
 40
418.6791011901801
 50
269.3329548747006
 51
269.3419120608023
  0
ARC
  5
D7
  8
0
  6
CONTINUOUS
 62
     7
 10
-4368.828221736062
 20
-309.1861047081641
 30
0.0
 40
8.088179229672587
 50
76.64183142819303
 51
90.00000000735508
  0
ARC
  5
D8
  8
0
  6
CONTINUOUS
 62
     7
 10
-4499.541233516147
 20
-312.0979254813812
 30
0.0
 40
12.94573469286586
 50
350.5001303160545
 51
359.9999999926624
  0
ARC
  5
D9
  8
0
  6
CONTINUOUS
 62
     7
 10
-4497.191350281283
 20
-313.8745255303756
 30
0.0
 40
9.254967624674219
 50
283.3581685718154
 51
288.0363760038019
  0
LINE
  5
DA
  8
0
  6
CONTINUOUS
 62
     7
 10
-3893.739208017165
 20
-526.5112760063419
 30
0.0
 11
-3877.489208017164
 21
-526.5112760063421
 31
0.0
  0
ARC
  5
DB
  8
0
  6
CONTINUOUS
 62
     7
 10
-3878.920950728153
 20
-525.6515914085536
 30
0.0
 40
2.356717691920427
 50
269.0675276846574
 51
273.8754384850139
  0
ARC
  5
DC
  8
0
  6
CONTINUOUS
 62
     7
 10
-3862.630830187284
 20
-1306.683521377204
 30
0.0
 40
775.3316688566302
 50
89.33295487469951
 51
89.34191206080142
  0
ARC
  5
DD
  8
0
  6
CONTINUOUS
 62
     7
 10
-3882.583069325758
 20
-366.6106356413964
 30
0.0
 40
160.3021283579547
 50
264.0250540955351
 51
265.134740175756
  0
ARC
  5
DE
  8
0
  6
CONTINUOUS
 62
     7
 10
-4464.5
 20
-431.8615116677989
 30
0.0
 40
99.54056285049816
 50
268.6225546815455
 51
270.0
  0
ARC
  5
DF
  8
0
  6
CONTINUOUS
 62
     7
 10
-4468.84733310984
 20
-500.6756629745533
 30
0.0
 40
30.54682285683738
 50
261.5447666810082
 51
265.3660651824141
  0
ARC
  5
E0
  8
0
  6
CONTINUOUS
 62
     7
 10
-4370.569188752302
 20
-311.822523746844
 30
0.0
 40
11.32043335885375
 50
46.57266513672056
 51
51.45379949001074
  0
ARC
  5
E1
  8
0
  6
CONTINUOUS
 62
     7
 10
-3957.495031210869
 20
-422.4694884365057
 30
0.0
 40
96.72313445118033
 50
257.143257607825
 51
263.4518483806974
  0
ARC
  5
E2
  8
0
  6
CONTINUOUS
 62
     7
 10
-3815.948016716369
 20
270.0574772705377
 30
0.0
 40
800.4478275820449
 50
263.6960832896001
 51
263.8028255309646
  0
ARC
  5
E3
  8
0
  6
CONTINUOUS
 62
     7
 10
-4478.107641751691
 20
-535.7611004705209
 30
0.0
 40
5.814149478247892
 50
69.25793980658577
 51
73.13831731933925
  0
ARC
  5
E4
  8
0
  6
CONTINUOUS
 62
     7
 10
-4433.258461977583
 20
-342.8523963182315
 30
0.0
 40
192.3338511522572
 50
257.32014307913
 51
257.4980948550809
  0
LINE
  5
E5
  8
0
  6
CONTINUOUS
 62
     7
 10
-4437.0
 20
-525.0423265550492
 30
0.0
 11
-4437.0
 21
-529.6553607640274
 31
0.0
  0
LINE
  5
E6
  8
0
  6
CONTINUOUS
 62
     7
 10
-4431.0
 20
-345.5979254817175
 30
0.0
 11
-4437.0
 21
-345.5979254817175
 31
0.0
  0
ARC
  5
E7
  8
0
  6
CONTINUOUS
 62
     7
 10
-4992.768472786296
 20
-527.1060656198259
 30
0.0
 40
0.9208593290130211
 50
103.0032227898174
 51
125.935767938511
  0
ARC
  5
E8
  8
0
  6
CONTINUOUS
 62
     7
 10
-4496.921778265284
 20
-315.0097462520246
 30
0.0
 40
8.08817922968963
 50
269.99999999267
 51
283.3581685718045
  0
ARC
  5
E9
  8
0
  6
CONTINUOUS
 62
     7
 10
-4993.957662814671
 20
-521.9564392372253
 30
0.0
 40
4.364292022080431
 50
283.0032227898489
 51
287.8111335902067
  0
ARC
  5
EA
  8
0
  6
CONTINUOUS
 62
     7
 10
-4940.074689289214
 20
-776.8988833961262
 30
0.0
 40
256.3003804967282
 50
101.2251623271414
 51
101.3995558570781
  0
ARC
  5
EB
  8
0
  6
CONTINUOUS
 62
     7
 10
-4450.691796818952
 20
-524.1916186286313
 30
0.0
 40
0.4455323834485101
 50
286.8616826807641
 51
314.467498128461
  0
ARC
  5
EC
  8
0
  6
CONTINUOUS
 62
     7
 10
-4497.862745281508
 20
-312.3733272134766
 30
0.0
 40
11.32043335883525
 50
311.044130526165
 51
318.4890057676113
  0
ARC
  5
ED
  8
0
  6
CONTINUOUS
 62
     7
 10
-4497.862745281429
 20
-311.8225237497094
 30
0.0
 40
11.32043335882371
 50
41.51099421771949
 51
51.45379947535923
  0
ARC
  5
EE
  8
0
  6
CONTINUOUS
 62
     7
 10
-3815.948016716857
 20
270.0574772660478
 30
0.0
 40
800.4478275775285
 50
263.8028255309646
 51
264.025054095535
  0
ARC
  5
EF
  8
0
  6
CONTINUOUS
 62
     7
 10
-4487.298376253571
 20
-337.1649642359019
 30
0.0
 40
6.779275369936036
 50
152.6385912655301
 51
207.3614087344699
  0
ARC
  5
F0
  8
0
  6
CONTINUOUS
 62
     7
 10
-4450.392299930282
 20
-524.3255577419035
 30
0.0
 40
0.1422999302826966
 50
312.4113160475335
 51
0.0000000000447358
  0
ARC
  5
F1
  8
0
  6
CONTINUOUS
 62
     7
 10
-4448.138270030178
 20
-526.7930565800317
 30
0.0
 40
3.199735573227569
 50
132.4113160492961
 51
134.4674981284746
  0
LINE
  5
F2
  8
0
  6
CONTINUOUS
 62
     7
 10
-4374.676215556585
 20
-324.0308867275327
 30
0.0
 11
-4374.676215556585
 21
-331.9880558027494
 31
0.0
  0
ARC
  5
F3
  8
0
  6
CONTINUOUS
 62
     7
 10
-4535.138824649744
 20
-180.5979262976752
 30
0.0
 40
50.7247585775473
 50
353.6643030436263
 51
6.33539425502056
  0
ARC
  5
F4
  8
0
  6
CONTINUOUS
 62
     7
 10
-4998.61194383028
 20
-299.3618489195653
 30
0.0
 40
232.616122072685
 50
274.6564256612231
 51
275.1564300319616
  0
LINE
  5
F5
  8
0
  6
CONTINUOUS
 62
   253
 10
-4449.5
 20
-531.4020745182971
 30
0.0
 11
-4449.5
 21
-526.789040309319
 31
0.0
  0
LINE
  5
F6
  8
0
  6
CONTINUOUS
 62
     7
 10
-4407.75000000001
 20
1013.820138271601
 30
0.0
 11
-4408.188888888847
 21
1013.820138271601
 31
0.0
  0
ARC
  5
F7
  8
0
  6
CONTINUOUS
 62
     7
 10
-4963.723477890433
 20
-527.4402921994895
 30
0.0
 40
0.9293425392814709
 50
92.3000583495123
 51
93.68331903136773
  0
ARC
  5
F8
  8
0
  6
CONTINUOUS
 62
     7
 10
-4457.0
 20
-471.5168792299104
 30
0.0
 40
53.75190393929851
 50
270.0
 51
271.3774453184534
  0
ARC
  5
F9
  8
0
  6
CONTINUOUS
 62
     7
 10
-4983.567511733369
 20
-508.0227738979883
 30
0.0
 40
23.37644473445345
 50
270.6239928259316
 51
272.5361392481131
  0
LINE
  5
FA
  8
0
  6
CONTINUOUS
 62
     7
 10
-4407.750000000003
 20
2363.820138271534
 30
0.0
 11
-4408.18888888884
 21
2363.820138271534
 31
0.0
  0
ARC
  5
FB
  8
0
  6
CONTINUOUS
 62
     7
 10
-4988.658200756924
 20
-409.6643093985956
 30
0.0
 40
121.8654571135146
 50
275.1564300319619
 51
276.2810975786202
  0
LINE
  5
FC
  8
0
  6
CONTINUOUS
 62
     7
 10
-4375.779593456509
 20
-320.9151202621164
 30
0.0
 11
-4375.163134573827
 21
-321.5176380641279
 31
0.0
  0
ARC
  5
FD
  8
0
  6
CONTINUOUS
 62
     7
 10
-4997.159901096696
 20
-332.4232481476944
 30
0.0
 40
199.5729886135741
 50
276.2810975786202
 51
276.9678475526042
  0
LINE
  5
FE
  8
0
  6
CONTINUOUS
 62
     7
 10
-4381.676215556586
 20
-332.3969176618765
 30
0.0
 11
-4381.676215556586
 21
-341.5979254817173
 31
0.0
  0
ARC
  5
FF
  8
0
  6
CONTINUOUS
 62
     7
 10
-4491.087152861571
 20
-322.3374998054583
 30
0.0
 40
3.016377768432508
 50
187.9524961020377
 51
222.2700306093324
  0
ARC
  5
100
  8
0
  6
CONTINUOUS
 62
     7
 10
-4380.316558811647
 20
-323.7867386581768
 30
0.0
 40
5.645624882570261
 50
323.4776731138122
 51
357.5214403855783
  0
LINE
  5
101
  8
0
  6
CONTINUOUS
 62
     7
 10
-4381.676215556586
 20
-319.5979254817173
 30
0.0
 11
-4381.676215556586
 21
-332.3969176618765
 31
0.0
  0
LINE
  5
102
  8
0
  6
CONTINUOUS
 62
     7
 10
-4493.743492766807
 20
-171.5178308356807
 30
0.0
 11
-4493.319221200455
 21
-170.9151202621165
 31
0.0
  0
LINE
  5
103
  8
0
  6
CONTINUOUS
 62
     7
 10
-4493.319221200455
 20
-320.9151202621164
 30
0.0
 11
-4486.323784443415
 21
-320.9151202621164
 31
0.0
  0
ARC
  5
104
  8
0
  6
CONTINUOUS
 62
     7
 10
-4332.861175350257
 20
-180.5979246657595
 30
0.0
 40
50.72475857754616
 50
173.6643030436261
 51
186.3353942550206
  0
ARC
  5
105
  8
0
  6
CONTINUOUS
 62
     7
 10
-4997.159901096625
 20
-332.4232481482757
 30
0.0
 40
199.5729886129885
 50
276.9678475526042
 51
277.65459752659
  0
ARC
  5
106
  8
0
  6
CONTINUOUS
 62
     7
 10
-4986.80919061388
 20
-409.4383326724586
 30
0.0
 40
121.8654571133673
 50
277.6545975265868
 51
278.7792650732468
  0
ARC
  5
107
  8
0
  6
CONTINUOUS
 62
     7
 10
-4963.875375850938
 20
-526.4956490843322
 30
0.0
 40
0.0153263734532104
 50
119.7151136276987
 51
186.1971744701575
  0
LINE
  5
108
  8
0
  6
CONTINUOUS
 62
     7
 10
-4431.0
 20
-330.5979254817174
 30
0.0
 11
-4431.0
 21
-345.5979254817173
 31
0.0
  0
ARC
  5
109
  8
0
  6
CONTINUOUS
 62
     7
 10
-4456.503800441412
 20
-492.1526625008455
 30
0.0
 40
33.11015582517448
 50
271.3774453184525
 51
273.6137146217653
  0
ARC
  5
10A
  8
0
  6
CONTINUOUS
 62
     7
 10
-4963.875375850937
 20
-526.4956490843322
 30
0.0
 40
0.0153263734540934
 50
186.1971744697991
 51
288.1352118789916
  0
LINE
  5
10B
  8
0
  6
CONTINUOUS
 62
     7
 10
-4381.676215556586
 20
-320.9151202621164
 30
0.0
 11
-4375.779593456509
 21
-320.9151202621164
 31
0.0
  0
LINE
  5
10C
  8
0
  6
CONTINUOUS
 62
     7
 10
-4493.319221200455
 20
-184.0491977704858
 30
0.0
 11
-4486.323784443415
 21
-184.0491977704858
 31
0.0
  0
LINE
  5
10D
  8
0
  6
CONTINUOUS
 62
     7
 10
-4494.323784443415
 20
-338.6729254817175
 30
0.0
 11
-4494.323784443415
 21
-322.5229254817173
 31
0.0
  0
LINE
  5
10E
  8
0
  6
CONTINUOUS
 62
     7
 10
-4496.676215556586
 20
-331.1703320844953
 30
0.0
 11
-4496.676215556586
 21
-327.0979254817173
 31
0.0
  0
LINE
  5
10F
  8
0
  6
CONTINUOUS
 62
     7
 10
-4493.319221200455
 20
-340.2807307013181
 30
0.0
 11
-4486.323784443415
 21
-340.2807307013181
 31
0.0
  0
ARC
  5
110
  8
0
  6
CONTINUOUS
 62
     7
 10
-4974.869169811374
 20
-1306.683521497518
 30
0.0
 40
775.3316689769522
 50
90.62399282593117
 51
90.65808793919565
  0
ARC
  5
111
  8
0
  6
CONTINUOUS
 62
     7
 10
-4380.088954012381
 20
-324.1944337286714
 30
0.0
 40
5.415208695187017
 50
1.730677163235506
 51
37.27020933737521
  0
LINE
  5
112
  8
0
  6
CONTINUOUS
 62
     7
 10
-4407.75
 20
-145.5979254818026
 30
0.0
 11
-4407.750000000002
 21
1013.820138271534
 31
0.0
  0
ARC
  5
113
  8
0
  6
CONTINUOUS
 62
     7
 10
-4963.855915113832
 20
-526.5550656060705
 30
0.0
 40
0.0471959693061909
 50
78.91274462491964
 51
108.1352118824618
  0
ARC
  5
114
  8
0
  6
CONTINUOUS
 62
     7
 10
-4491.946500414594
 20
-172.6615105820397
 30
0.0
 40
2.130066871284847
 50
147.5256497418491
 51
182.5107421685229
  0
ARC
  5
115
  8
0
  6
CONTINUOUS
 62
     7
 10
-4451.576377065779
 20
-522.5408913121715
 30
0.0
 40
2.294331909713567
 50
282.6798569208832
 51
290.7420601934276
  0
ARC
  5
116
  8
0
  6
CONTINUOUS
 62
     7
 10
-4993.874285759641
 20
-275.3269848233755
 30
0.0
 40
256.3003804814808
 50
272.5361392481186
 51
272.7105327780658
  0
LINE
  5
117
  8
0
  6
CONTINUOUS
 62
     7
 10
-4460.24999999999
 20
1013.820138271536
 30
0.0
 11
-4459.81111111105
 21
1013.820138271536
 31
0.0
  0
ARC
  5
118
  8
0
  6
CONTINUOUS
 62
     7
 10
-4491.946500414594
 20
-322.6615105820396
 30
0.0
 40
2.130066871284849
 50
147.5256497418497
 51
182.5107421685237
  0
ARC
  5
119
  8
0
  6
CONTINUOUS
 62
     7
 10
-4386.679819618879
 20
-332.1772985709109
 30
0.0
 40
12.00509572263513
 50
0.9032215380192241
 51
24.77415154556617
  0
ARC
  5
11A
  8
0
  6
CONTINUOUS
 62
     7
 10
-4376.927318500038
 20
-338.8274527965257
 30
0.0
 40
2.26751923314812
 50
6.898616586419354
 51
52.44535214745361
  0
LINE
  5
11B
  8
0
  6
CONTINUOUS
 62
     7
 10
-4493.743492766807
 20
-189.678020127754
 30
0.0
 11
-4493.319221200455
 21
-190.2807307013182
 31
0.0
  0
ARC
  5
11C
  8
0
  6
CONTINUOUS
 62
     7
 10
-4386.834360457047
 20
-331.7635924674892
 30
0.0
 40
12.16021674188079
 50
335.380299858492
 51
358.9423270579236
  0
LINE
  5
11D
  8
0
  6
CONTINUOUS
 62
     7
 10
-4486.323784443415
 20
-341.5979254817173
 30
0.0
 11
-4486.323784443415
 21
-319.5979254817173
 31
0.0
  0
LINE
  5
11E
  8
0
  6
CONTINUOUS
 62
     7
 10
-4381.676215556586
 20
-336.8294584125499
 30
0.0
 11
-4375.779593456509
 21
-336.8294584125499
 31
0.0
  0
LINE
  5
11F
  8
0
  6
CONTINUOUS
 62
     7
 10
-4493.743492766807
 20
-321.5178308356806
 30
0.0
 11
-4493.319221200455
 21
-320.9151202621164
 31
0.0
  0
ARC
  5
120
  8
0
  6
CONTINUOUS
 62
     7
 10
-4478.238559938191
 20
-329.2077951606854
 30
0.0
 40
15.8387349033087
 50
162.2016119947506
 51
197.7983880052487
  0
LINE
  5
121
  8
0
  6
CONTINUOUS
 62
     7
 10
-4408.188888888855
 20
1013.820138271535
 30
0.0
 11
-4459.811111111027
 21
1013.820138271538
 31
0.0
  0
LINE
  5
122
  8
0
  6
CONTINUOUS
 62
     7
 10
-4460.249999999988
 20
-145.5979254818026
 30
0.0
 11
-4460.24999999999
 21
1013.820138271536
 31
0.0
  0
ARC
  5
123
  8
0
  6
CONTINUOUS
 62
     7
 10
-4963.799121322949
 20
-526.2652440124888
 30
0.0
 40
0.2481378939556467
 50
258.9127446247938
 51
273.6833190312147
  0
ARC
  5
124
  8
0
  6
CONTINUOUS
 62
     7
 10
-5003.712864545253
 20
-299.9852578168462
 30
0.0
 40
232.6161220672467
 50
278.7792650732467
 51
279.1293045007217
  0
LINE
  5
125
  8
0
  6
CONTINUOUS
 62
     7
 10
-4374.676215556585
 20
-331.9880558027494
 30
0.0
 11
-4374.676215556585
 21
-338.5550945569341
 31
0.0
  0
LINE
  5
126
  8
0
  6
CONTINUOUS
 62
     7
 10
-4375.779593456509
 20
-340.2807307013184
 30
0.0
 11
-4375.163134573827
 21
-339.6782128993069
 31
0.0
  0
ARC
  5
127
  8
0
  6
CONTINUOUS
 62
     7
 10
-4984.580550086042
 20
-471.6332359360037
 30
0.0
 40
59.77425563120811
 50
272.7105327780654
 51
274.6564256612097
  0
LINE
  5
128
  8
0
  6
CONTINUOUS
 62
     7
 10
-4383.276215556585
 20
-319.5979254817173
 30
0.0
 11
-4383.276215556585
 21
-332.3969176618765
 31
0.0
  0
LINE
  5
129
  8
0
  6
CONTINUOUS
 62
     7
 10
-4381.676215556586
 20
-340.2807307013184
 30
0.0
 11
-4375.779593456509
 21
-340.2807307013184
 31
0.0
  0
ARC
  5
12A
  8
0
  6
CONTINUOUS
 62
     7
 10
-4950.461284530194
 20
-754.712429505857
 30
0.0
 40
232.6161220709165
 50
99.12930450071622
 51
99.27926944398962
  0
LINE
  5
12B
  8
0
  6
CONTINUOUS
 62
     7
 10
-4383.276215556585
 20
-332.3969176618765
 30
0.0
 11
-4383.276215556585
 21
-341.5979254817173
 31
0.0
  0
ARC
  5
12C
  8
0
  6
CONTINUOUS
 62
     7
 10
-4487.298376253571
 20
-187.164964235902
 30
0.0
 40
6.779275369935974
 50
152.6385912655299
 51
207.3614087344702
  0
LINE
  5
12D
  8
0
  6
CONTINUOUS
 62
     7
 10
-4496.676215556586
 20
-334.0979254817175
 30
0.0
 11
-4496.676215556586
 21
-331.1703320844953
 31
0.0
  0
ARC
  5
12E
  8
0
  6
CONTINUOUS
 62
     7
 10
-4491.087152861555
 20
-172.3374998054509
 30
0.0
 40
3.016377768448554
 50
187.9524961021384
 51
222.2700306092413
  0
LINE
  5
12F
  8
0
  6
CONTINUOUS
 62
     7
 10
-4381.676215556586
 20
-177.146653192949
 30
0.0
 11
-4375.779593456509
 21
-177.146653192949
 31
0.0
  0
LINE
  5
130
  8
0
  6
CONTINUOUS
 62
     7
 10
-4493.319221200455
 20
-334.0491977704857
 30
0.0
 11
-4486.323784443415
 21
-334.0491977704857
 31
0.0
  0
LINE
  5
131
  8
0
  6
CONTINUOUS
 62
     7
 10
-4493.319221200455
 20
-324.3663925508849
 30
0.0
 11
-4486.323784443415
 21
-324.3663925508849
 31
0.0
  0
LINE
  5
132
  8
0
  6
CONTINUOUS
 62
     7
 10
-4493.319221200455
 20
-190.2807307013182
 30
0.0
 11
-4486.323784443415
 21
-190.2807307013182
 31
0.0
  0
LINE
  5
133
  8
0
  6
CONTINUOUS
 62
     7
 10
-4374.676215556585
 20
-322.0979254817174
 30
0.0
 11
-4374.676215556585
 21
-324.0308867275327
 31
0.0
  0
LINE
  5
134
  8
0
  6
CONTINUOUS
 62
     7
 10
-4460.24999999999
 20
2363.820138271537
 30
0.0
 11
-4459.81111111105
 21
2363.820138271537
 31
0.0
  0
LINE
  5
135
  8
0
  6
CONTINUOUS
 62
     7
 10
-4381.676215556586
 20
-182.3969176618764
 30
0.0
 11
-4381.676215556586
 21
-191.5979254817174
 31
0.0
  0
ARC
  5
136
  8
0
  6
CONTINUOUS
 62
     7
 10
-4376.492091791761
 20
-188.43494497286
 30
0.0
 40
1.819846813341417
 50
316.908005515473
 51
356.2144753080845
  0
LINE
  5
137
  8
0
  6
CONTINUOUS
 62
     7
 10
-4381.676215556586
 20
-327.1466531929489
 30
0.0
 11
-4375.779593456509
 21
-327.1466531929489
 31
0.0
  0
ARC
  5
138
  8
0
  6
CONTINUOUS
 62
     7
 10
-4363.704499310817
 20
-312.2683755844627
 30
0.0
 40
8.970775240547619
 50
189.4998696838969
 51
200.0963627111373
  0
ARC
  5
139
  8
0
  6
CONTINUOUS
 62
     7
 10
-4362.685915405176
 20
-312.097925477703
 30
0.0
 40
10.00352226268042
 50
180.0000000073531
 51
189.4998696839527
  0
LINE
  5
13A
  8
0
  6
CONTINUOUS
 62
     7
 10
-4495.176215556586
 20
-325.5979254817173
 30
0.0
 11
-4495.176215556586
 21
-331.4156491999715
 31
0.0
  0
LINE
  5
13B
  8
0
  6
CONTINUOUS
 62
     7
 10
-4495.176215556586
 20
-331.4156491999715
 30
0.0
 11
-4495.176215556586
 21
-335.5979254817175
 31
0.0
  0
ARC
  5
13C
  8
0
  6
CONTINUOUS
 62
     7
 10
-4386.679819618879
 20
-182.1772985709108
 30
0.0
 40
12.00509572263473
 50
0.9032215380181942
 51
24.77415154556597
  0
LINE
  5
13D
  8
0
  6
CONTINUOUS
 62
   253
 10
-4459.811111111048
 20
-145.5979254818026
 30
0.0
 11
-4459.81111111105
 21
1013.820138271536
 31
0.0
  0
LINE
  5
13E
  8
0
  6
CONTINUOUS
 62
     7
 10
-4407.750000000003
 20
1013.820138271534
 30
0.0
 11
-4408.18888888884
 21
1013.820138271534
 31
0.0
  0
LINE
  5
13F
  8
0
  6
CONTINUOUS
 62
     7
 10
-4486.323784443415
 20
-191.5979254817174
 30
0.0
 11
-4486.323784443415
 21
-169.5979254817174
 31
0.0
  0
LINE
  5
140
  8
0
  6
CONTINUOUS
 62
     7
 10
-4374.676215556585
 20
-338.5550945569341
 30
0.0
 11
-4374.676215556585
 21
-339.0979254817174
 31
0.0
  0
LINE
  5
141
  8
0
  6
CONTINUOUS
 62
     7
 10
-4407.750000000009
 20
1013.820138271601
 30
0.0
 11
-4407.750000000002
 21
2363.820138271533
 31
0.0
  0
ARC
  5
142
  8
0
  6
CONTINUOUS
 62
     7
 10
-4380.316558811647
 20
-173.7867386581769
 30
0.0
 40
5.645624882570139
 50
323.4776731138112
 51
357.5214403855782
  0
LINE
  5
143
  8
0
  6
CONTINUOUS
 62
     7
 10
-4383.276215556585
 20
-169.5979254817174
 30
0.0
 11
-4383.276215556585
 21
-182.3969176618764
 31
0.0
  0
ARC
  5
144
  8
0
  6
CONTINUOUS
 62
     7
 10
-4367.88250107553
 20
-311.9279070960575
 30
0.0
 40
9.96166118956409
 50
330.6912071634167
 51
333.66446059089
  0
ARC
  5
145
  8
0
  6
CONTINUOUS
 62
     7
 10
-4365.759475619804
 20
-313.1197218645466
 30
0.0
 40
7.526982662931057
 50
318.4890057823065
 51
330.6912071634341
  0
LINE
  5
146
  8
0
  6
CONTINUOUS
 62
     7
 10
-4377.328221735689
 20
-312.0979254784913
 30
0.0
 11
-4374.37991068565
 21
-312.097925478113
 31
0.0
  0
LINE
  5
147
  8
0
  6
CONTINUOUS
 62
     7
 10
-4460.249999999997
 20
1013.820138271603
 30
0.0
 11
-4459.811111111057
 21
1013.820138271603
 31
0.0
  0
ARC
  5
148
  8
0
  6
CONTINUOUS
 62
     7
 10
-4365.536527384354
 20
-313.4707527884247
 30
0.0
 40
7.151565891794212
 50
283.3581685865122
 51
295.0259803177166
  0
ARC
  5
149
  8
0
  6
CONTINUOUS
 62
     7
 10
-4366.673514430337
 20
-311.8851150490361
 30
0.0
 40
8.747607595469207
 50
41.51099423239977
 51
51.45379949002238
  0
ARC
  5
14A
  8
0
  6
CONTINUOUS
 62
     7
 10
-4397.113829401241
 20
-294.8119935067269
 30
0.0
 40
28.55931554303165
 50
322.7521423403424
 51
332.8416583093195
  0
LINE
  5
14B
  8
0
  6
CONTINUOUS
 62
     7
 10
-4484.723784443416
 20
-191.5979254817174
 30
0.0
 11
-4484.723784443416
 21
-169.5979254817174
 31
0.0
  0
LINE
  5
14C
  8
0
  6
CONTINUOUS
 62
     7
 10
-4383.276215556585
 20
-169.5979254817174
 30
0.0
 11
-4383.276215556585
 21
-182.3969176618764
 31
0.0
  0
LINE
  5
14D
  8
0
  6
CONTINUOUS
 62
     7
 10
-4373.078221735416
 20
-320.5979254784913
 30
0.0
 11
-4370.129910685378
 21
-320.5979254781129
 31
0.0
  0
LINE
  5
14E
  8
0
  6
CONTINUOUS
 62
   253
 10
-4408.188888888837
 20
-145.5979254818026
 30
0.0
 11
-4408.188888888839
 21
1013.820138271534
 31
0.0
  0
ARC
  5
14F
  8
0
  6
CONTINUOUS
 62
     7
 10
-4362.773942395848
 20
-312.2679438600268
 30
0.0
 40
9.96166118956409
 50
153.6644605908901
 51
159.9036373035626
  0
ARC
  5
150
  8
0
  6
CONTINUOUS
 62
     7
 10
-4367.882501075531
 20
-312.2679438606977
 30
0.0
 40
9.961661189611105
 50
26.33553941326097
 51
29.30879285123726
  0
ARC
  5
151
  8
0
  6
CONTINUOUS
 62
     7
 10
-4390.557775235658
 20
-325.7439210539846
 30
0.0
 40
21.06606086935776
 50
14.13922690048452
 51
26.48895418958011
  0
ARC
  5
152
  8
0
  6
CONTINUOUS
 62
     7
 10
-3956.212021008125
 20
-426.7062840569148
 30
0.0
 40
92.37738866971596
 50
250.4567555777556
 51
257.1432576078251
  0
ARC
  5
153
  8
0
  6
CONTINUOUS
 62
     7
 10
-3852.919449913969
 20
-471.6332359362429
 30
0.0
 40
59.77425563096865
 50
265.3435743387828
 51
267.2894672219344
  0
ARC
  5
154
  8
0
  6
CONTINUOUS
 62
     7
 10
-3838.888056169742
 20
-299.3618489198126
 30
0.0
 40
232.6161220724365
 50
264.8435699680381
 51
265.3435743387775
  0
ARC
  5
155
  8
0
  6
CONTINUOUS
 62
     7
 10
-4371.184368057858
 20
-314.7164770568121
 30
0.0
 40
11.06909215136279
 50
209.3087928439141
 51
214.0838210496417
  0
ARC
  5
156
  8
0
  6
CONTINUOUS
 62
     7
 10
-4498.377859769628
 20
-311.8675894875818
 30
0.0
 40
9.46799880918903
 50
41.51099421771295
 51
51.45379947536356
  0
ARC
  5
157
  8
0
  6
CONTINUOUS
 62
     7
 10
-3848.841799243026
 20
-409.6643093980305
 30
0.0
 40
121.8654571140817
 50
263.718902421385
 51
264.843569968038
  0
ARC
  5
158
  8
0
  6
CONTINUOUS
 62
     7
 10
-3851.964578728046
 20
-530.5729978617893
 30
0.0
 40
0.4946485720849734
 50
234.0642320614952
 51
251.8133021068832
  0
ARC
  5
159
  8
0
  6
CONTINUOUS
 62
     7
 10
-4368.270128473537
 20
-313.4202502138087
 30
0.0
 40
9.740801093228784
 50
209.3087928512986
 51
221.5109942323984
  0
ARC
  5
15A
  8
0
  6
CONTINUOUS
 62
     7
 10
-4368.558649719769
 20
-310.3213254297684
 30
0.0
 40
9.25496762468215
 50
103.3581685865091
 51
115.0259803177041
  0
ARC
  5
15B
  8
0
  6
CONTINUOUS
 62
     7
 10
-4368.708179197904
 20
-314.7090684486432
 30
0.0
 40
8.333956556254371
 50
295.0259803177063
 51
308.5462005246881
  0
ARC
  5
15C
  8
0
  6
CONTINUOUS
 62
     7
 10
-3894.538715469728
 20
-754.7124295053603
 30
0.0
 40
232.6161220704132
 50
80.72073055600994
 51
80.87069549928356
  0
ARC
  5
15D
  8
0
  6
CONTINUOUS
 62
     7
 10
-4353.113792367655
 20
-368.8495374471287
 30
0.0
 40
74.00240565491596
 50
81.52073547155351
 51
81.81942657375618
  0
ARC
  5
15E
  8
0
  6
CONTINUOUS
 62
     7
 10
-3890.001576609483
 20
-759.9488726082421
 30
0.0
 40
232.6161220724365
 50
84.84356996803808
 51
85.34357433877753
  0
ARC
  5
15F
  8
0
  6
CONTINUOUS
 62
     7
 10
-3955.029437972715
 20
-420.598205337717
 30
0.0
 40
98.4826913854937
 50
244.1270702800994
 51
244.7269898300729
  0
ARC
  5
160
  8
0
  6
CONTINUOUS
 62
     7
 10
-4368.062271799648
 20
-313.4638623448443
 30
0.0
 40
14.64950174936799
 50
159.4577637143199
 51
159.9036372962155
  0
ARC
  5
161
  8
0
  6
CONTINUOUS
 62
     7
 10
-4359.179898517674
 20
-373.8884633131121
 30
0.0
 40
80.12070268501401
 50
74.82980092405029
 51
76.29280586341451
  0
ARC
  5
162
  8
0
  6
CONTINUOUS
 62
     7
 10
-3955.245031210868
 20
-422.4694884364988
 30
0.0
 40
96.72313445118725
 50
257.1432576078254
 51
263.4518483806973
  0
ARC
  5
163
  8
0
  6
CONTINUOUS
 62
     7
 10
-3852.231527213705
 20
-527.1060656198262
 30
0.0
 40
0.9208593290130211
 50
54.06423206148895
 51
76.99677721013035
  0
LINE
  5
164
  8
0
  6
CONTINUOUS
 62
     7
 10
-3897.489208017026
 20
-526.511276006361
 30
0.0
 11
-3878.194816389612
 21
-529.6553607640276
 31
0.0
  0
ARC
  5
165
  8
0
  6
CONTINUOUS
 62
     7
 10
-4349.766317168614
 20
-339.1693663419761
 30
0.0
 40
44.14805740687944
 50
71.7222543599837
 51
74.82980092405006
  0
ARC
  5
166
  8
0
  6
CONTINUOUS
 62
     7
 10
-4368.828221736063
 20
-309.1861047081675
 30
0.0
 40
8.08817922967603
 50
90.0000000073488
 51
103.3581685865067
  0
ARC
  5
167
  8
0
  6
CONTINUOUS
 62
     7
 10
-3833.787135454266
 20
-299.9852578137164
 30
0.0
 40
232.6161220704132
 50
260.72073055601
 51
261.2207349267538
  0
ARC
  5
168
  8
0
  6
CONTINUOUS
 62
     7
 10
-3904.925310707428
 20
-776.8988833791547
 30
0.0
 40
256.3003804794273
 50
78.60044414290792
 51
78.77483767285639
  0
ARC
  5
169
  8
0
  6
CONTINUOUS
 62
     7
 10
-3850.690809386006
 20
-409.4383326717097
 30
0.0
 40
121.8654571141248
 50
261.2207349267539
 51
262.3454024734065
  0
ARC
  5
16A
  8
0
  6
CONTINUOUS
 62
     7
 10
-3840.34009890347
 20
-332.4232481490298
 30
0.0
 40
199.5729886122286
 50
263.0321524473963
 51
263.7189024213847
  0
ARC
  5
16B
  8
0
  6
CONTINUOUS
 62
     7
 10
-4368.828221735315
 20
-315.0097462488152
 30
0.0
 40
8.08817922967603
 50
270.0000000073487
 51
283.3581685865067
  0
ARC
  5
16C
  8
0
  6
CONTINUOUS
 62
     7
 10
-4368.948264273475
 20
-309.4867825083408
 30
0.0
 40
8.333956556255528
 50
115.0259803177028
 51
128.5462005246825
  0
ARC
  5
16D
  8
0
  6
CONTINUOUS
 62
     7
 10
-3888.549533875816
 20
-726.8874733795151
 30
0.0
 40
199.5729886127223
 50
82.34540247340959
 51
83.03215244739627
  0
ARC
  5
16E
  8
0
  6
CONTINUOUS
 62
     7
 10
-3843.625714240363
 20
-275.3269848234502
 30
0.0
 40
256.300380481406
 50
267.2894672219343
 51
267.4638607518815
  0
ARC
  5
16F
  8
0
  6
CONTINUOUS
 62
     7
 10
-3852.64117735391
 20
-530.457947367957
 30
0.0
 40
0.9208593290136843
 50
269.067527684614
 51
292.0000728332919
  0
ARC
  5
170
  8
0
  6
CONTINUOUS
 62
     7
 10
-4365.522683766414
 20
-312.3179492669661
 30
0.0
 40
12.89156153950902
 50
150.6912071634769
 51
159.9036373035676
  0
ARC
  5
171
  8
0
  6
CONTINUOUS
 62
     7
 10
-4369.43073785108
 20
-313.4644972335429
 30
0.0
 40
13.19231653021837
 50
189.4998696765441
 51
200.0963627037839
  0
ARC
  5
172
  8
0
  6
CONTINUOUS
 62
     7
 10
-3854.625596020881
 20
-533.1095372818128
 30
0.0
 40
7.350286069969332
 50
72.18886640978548
 51
76.73135002008598
  0
ARC
  5
173
  8
0
  6
CONTINUOUS
 62
     7
 10
-3852.156496914042
 20
-531.1571774074273
 30
0.0
 40
0.1202484368992139
 50
274.2510027879889
 51
353.0321524473509
  0
ARC
  5
174
  8
0
  6
CONTINUOUS
 62
     7
 10
-3852.110917092783
 20
-531.7703827658107
 30
0.0
 40
0.4946485720837679
 50
94.25100278787325
 51
112.0000728332773
  0
LINE
  5
175
  8
0
  6
CONTINUOUS
 62
   253
 10
-4378.683818847085
 20
-306.0224380136879
 30
0.0
 11
-4380.933818847085
 21
-306.0224380136879
 31
0.0
  0
ARC
  5
176
  8
0
  6
CONTINUOUS
 62
     7
 10
-4369.43073785108
 20
-312.9631733905172
 30
0.0
 40
13.19231653021837
 50
159.9036372962161
 51
170.5001303234559
  0
ARC
  5
177
  8
0
  6
CONTINUOUS
 62
     7
 10
-3852.727187873487
 20
-535.7423988053514
 30
0.0
 40
4.364292022050701
 50
89.06752768462059
 51
93.87543848500894
  0
ARC
  5
178
  8
0
  6
CONTINUOUS
 62
     7
 10
-4497.388547175076
 20
-313.2038698057949
 30
0.0
 40
8.146851823432488
 50
318.4890057676082
 51
330.6912071486993
  0
ARC
  5
179
  8
0
  6
CONTINUOUS
 62
     7
 10
-3858.887955006588
 20
-548.5699064116711
 30
0.0
 40
23.37644473442209
 50
76.68829772072121
 51
78.60044414290599
  0
ARC
  5
17A
  8
0
  6
CONTINUOUS
 62
     7
 10
-4358.150564504514
 20
-364.5540578358442
 30
0.0
 40
70.88152268223045
 50
69.78688607491797
 51
71.72225435999394
  0
ARC
  5
17B
  8
0
  6
CONTINUOUS
 62
     7
 10
-4368.270128473883
 20
-310.7756007430244
 30
0.0
 40
9.740801093219527
 50
138.4890057823089
 51
150.6912071634196
  0
ARC
  5
17C
  8
0
  6
CONTINUOUS
 62
     7
 10
-4367.9328203427
 20
-313.2138353120301
 30
0.0
 40
14.71106215105422
 50
170.5001303234351
 51
180.0
  0
ARC
  5
17D
  8
0
  6
CONTINUOUS
 62
     7
 10
-4366.72693389174
 20
-312.3185079691542
 30
0.0
 40
11.60923854658775
 50
189.4998696838945
 51
200.096362711138
  0
ARC
  5
17E
  8
0
  6
CONTINUOUS
 62
     7
 10
-4363.420060019465
 20
-372.3272856812397
 30
0.0
 40
80.12070268468128
 50
63.9672686342231
 51
64.74397122578472
  0
ARC
  5
17F
  8
0
  6
CONTINUOUS
 62
     7
 10
-3851.042337185344
 20
-521.9564392372727
 30
0.0
 40
4.364292022031025
 50
252.1888664097868
 51
256.9967772102045
  0
ARC
  5
180
  8
0
  6
CONTINUOUS
 62
     7
 10
-4367.180737851078
 20
-312.9631733905176
 30
0.0
 40
13.19231653022021
 50
159.9036372962167
 51
170.500130323455
  0
ARC
  5
181
  8
0
  6
CONTINUOUS
 62
     7
 10
-3951.057564041911
 20
-412.1853863831673
 30
0.0
 40
107.7859867846645
 50
244.726989830073
 51
250.4567555777577
  0
ARC
  5
182
  8
0
  6
CONTINUOUS
 62
     7
 10
-4368.062271799648
 20
-312.9638082792158
 30
0.0
 40
14.64950174936799
 50
200.0963627037845
 51
209.308792843924
  0
ARC
  5
183
  8
0
  6
CONTINUOUS
 62
     7
 10
-4367.08725471918
 20
-311.8225237463676
 30
0.0
 40
11.32043335880952
 50
128.546200524652
 51
138.4890057823073
  0
ARC
  5
184
  8
0
  6
CONTINUOUS
 62
     7
 10
-3851.59271505881
 20
-526.5441431984492
 30
0.0
 40
0.120248436898773
 50
353.0321524473777
 51
71.81330210697922
  0
ARC
  5
185
  8
0
  6
CONTINUOUS
 62
     7
 10
-4365.812271799646
 20
-313.4638623448446
 30
0.0
 40
14.64950174936979
 50
159.4577637143207
 51
159.9036372962166
  0
ARC
  5
186
  8
0
  6
CONTINUOUS
 62
     7
 10
-4345.509139747959
 20
-317.83934302838
 30
0.0
 40
22.4284715786328
 50
76.29280586341469
 51
81.5207354715528
  0
LINE
  5
187
  8
0
  6
CONTINUOUS
 62
   253
 10
-4426.602835252029
 20
2364.402074518296
 30
0.0
 11
-4426.602835252029
 21
2363.820138271535
 31
0.0
  0
ARC
  5
188
  8
0
  6
CONTINUOUS
 62
     7
 10
-3955.648147471231
 20
-425.9813516852029
 30
0.0
 40
93.18821066177286
 50
263.4518483806994
 51
263.5697174960274
  0
ARC
  5
189
  8
0
  6
CONTINUOUS
 62
     7
 10
-4365.52268376649
 20
-311.8779016891749
 30
0.0
 40
12.89156153948915
 50
200.0963627111376
 51
209.3087928512439
  0
ARC
  5
18A
  8
0
  6
CONTINUOUS
 62
     7
 10
-3866.258802591942
 20
247.3727998491488
 30
0.0
 40
775.3316688566302
 50
269.3329548746994
 51
269.3760071740711
  0
ARC
  5
18B
  8
0
  6
CONTINUOUS
 62
     7
 10
-3840.34009890341
 20
-332.4232481485398
 30
0.0
 40
199.5729886127223
 50
262.3454024734096
 51
263.0321524473963
  0
ARC
  5
18C
  8
0
  6
CONTINUOUS
 62
     7
 10
-3862.630830187284
 20
-1306.683521377204
 30
0.0
 40
775.3316688566302
 50
89.33295487469951
 51
89.3760071740711
  0
ARC
  5
18D
  8
0
  6
CONTINUOUS
 62
     7
 10
-4370.569188752199
 20
-312.3733272106127
 30
0.0
 40
11.32043335881247
 50
308.5462005246516
 51
313.4273348725451
  0
ARC
  5
18E
  8
0
  6
CONTINUOUS
 62
     7
 10
-3866.668526260857
 20
-584.1323505166994
 30
0.0
 40
59.77425563083766
 50
78.77483767285639
 51
80.72073055601254
  0
ARC
  5
18F
  8
0
  6
CONTINUOUS
 62
     7
 10
-4497.946318033036
 20
-310.6120418044974
 30
0.0
 40
7.740518377000256
 50
103.3581685718112
 51
115.0174960248514
  0
ARC
  5
190
  8
0
  6
CONTINUOUS
 62
     7
 10
-3853.932488266632
 20
-508.0227738980498
 30
0.0
 40
23.3764447343917
 50
267.4638607518834
 51
269.376007174071
  0
ARC
  5
191
  8
0
  6
CONTINUOUS
 62
     7
 10
-4348.071830673086
 20
-339.7932563547588
 30
0.0
 40
44.14805740684012
 50
64.74397122578495
 51
67.85151778985517
  0
ARC
  5
192
  8
0
  6
CONTINUOUS
 62
     7
 10
-4499.781686293317
 20
-312.0979254813523
 30
0.0
 40
10.82734174322297
 50
359.9999999926714
 51
9.499869669192208
  0
ARC
  5
193
  8
0
  6
CONTINUOUS
 62
     7
 10
-4499.686410020986
 20
-312.2819453775177
 30
0.0
 40
10.78203328754039
 50
20.09636269645114
 51
29.30879283658282
  0
ARC
  5
194
  8
0
  6
CONTINUOUS
 62
     7
 10
-3867.232308116088
 20
-588.7453847256767
 30
0.0
 40
59.77425563083689
 50
78.77483767285628
 51
80.72073055601246
  0
ARC
  5
195
  8
0
  6
CONTINUOUS
 62
     7
 10
-3876.778715686442
 20
-527.540338762244
 30
0.0
 40
0.4946485720837679
 50
274.2510027878732
 51
292.0000728332773
  0
ARC
  5
196
  8
0
  6
CONTINUOUS
 62
     7
 10
-3877.283513738659
 20
-532.7412480818331
 30
0.0
 40
4.364292022061466
 50
72.18886640978678
 51
76.99677721017115
  0
ARC
  5
197
  8
0
  6
CONTINUOUS
 62
     7
 10
-4496.821379052049
 20
-314.2817905113212
 30
0.0
 40
6.970218210686437
 50
295.0259803030161
 51
308.5462005099935
  0
ARC
  5
198
  8
0
  6
CONTINUOUS
 62
     7
 10
-3874.957144512593
 20
-551.2879476300047
 30
0.0
 40
23.3764447343917
 50
87.46386075188344
 51
89.37600717407108
  0
ARC
  5
199
  8
0
  6
CONTINUOUS
 62
     7
 10
-3876.733135865185
 20
-528.1535441206275
 30
0.0
 40
0.120248436898773
 50
173.032152447325
 51
251.8133021069792
  0
ARC
  5
19A
  8
0
  6
CONTINUOUS
 62
     7
 10
-3876.925054051179
 20
-528.7377236662654
 30
0.0
 40
0.4946485720849734
 50
54.06423206149515
 51
71.8133021068831
  0
ARC
  5
19B
  8
0
  6
CONTINUOUS
 62
     7
 10
-3869.437895917406
 20
-506.1277809074056
 30
0.0
 40
23.37644473442209
 50
256.6882977207212
 51
258.600444142906
  0
ARC
  5
19C
  8
0
  6
CONTINUOUS
 62
     7
 10
-3852.795309068936
 20
-531.7190998288031
 30
0.0
 40
0.9208593290118616
 50
54.06423206147082
 51
76.99677721014017
  0
ARC
  5
19D
  8
0
  6
CONTINUOUS
 62
     7
 10
-4526.984301276896
 20
419.4166411102993
 30
0.0
 40
46.76482713193037
 50
353.721126288549
 51
359.9821531627887
  0
ARC
  5
19E
  8
0
  6
CONTINUOUS
 62
     7
 10
-4499.781686293234
 20
-312.0979254813523
 30
0.0
 40
10.82734174314037
 50
350.5001303160776
 51
359.9999999926715
  0
ARC
  5
19F
  8
0
  6
CONTINUOUS
 62
     7
 10
-3875.970182865256
 20
-587.677485591812
 30
0.0
 40
59.77425563096871
 50
85.34357433878277
 51
87.28946722193443
  0
ARC
  5
1A0
  8
0
  6
CONTINUOUS
 62
     7
 10
-4498.679219007102
 20
-312.2824126557325
 30
0.0
 40
9.70954496621623
 50
339.9036372888766
 51
350.50013031614
  0
ARC
  5
1A1
  8
0
  6
CONTINUOUS
 62
     7
 10
-4053.339239148786
 20
-1283.376098211322
 30
0.0
 40
775.3316689053948
 50
76.68829772072172
 51
76.73135002009064
  0
ARC
  5
1A2
  8
0
  6
CONTINUOUS
 62
     7
 10
-3885.263918538863
 20
-783.9837367046046
 30
0.0
 40
256.3003804814059
 50
87.28946722193426
 51
87.46386075188148
  0
ARC
  5
1A3
  8
0
  6
CONTINUOUS
 62
     7
 10
-4498.679219007149
 20
-311.9134383072857
 30
0.0
 40
9.709544966315597
 50
9.4998696692939
 51
20.09636269645051
  0
ARC
  5
1A4
  8
0
  6
CONTINUOUS
 62
     7
 10
-4496.921778265222
 20
-314.5332664896155
 30
0.0
 40
6.764658992099104
 50
269.9999999926654
 51
283.3581685718059
  0
ARC
  5
1A5
  8
0
  6
CONTINUOUS
 62
     7
 10
-3905.489092562682
 20
-781.5119175882428
 30
0.0
 40
256.3003804795396
 50
78.60044414290789
 51
78.77483767285628
  0
ARC
  5
1A6
  8
0
  6
CONTINUOUS
 62
     7
 10
-3823.400540216544
 20
-277.798803939812
 30
0.0
 40
256.3003804795396
 50
258.6004441429079
 51
258.7748376728563
  0
ARC
  5
1A7
  8
0
  6
CONTINUOUS
 62
     7
 10
-4993.035421271958
 20
-530.5729978617848
 30
0.0
 40
0.4946485720904835
 50
288.1866978933922
 51
305.9357679384868
  0
ARC
  5
1A8
  8
0
  6
CONTINUOUS
 62
     7
 10
-3851.606119040567
 20
-526.5694734462218
 30
0.0
 40
4.364292022061466
 50
252.1888664097868
 51
256.9967772101711
  0
ARC
  5
1A9
  8
0
  6
CONTINUOUS
 62
     7
 10
-3861.657324663137
 20
-470.5653368023781
 30
0.0
 40
59.77425563083689
 50
258.7748376728563
 51
260.7207305560124
  0
ARC
  5
1AA
  8
0
  6
CONTINUOUS
 62
     7
 10
-3853.518948066258
 20
-524.0546079246378
 30
0.0
 40
7.350286069974111
 50
269.3329548747126
 51
273.8754384850079
  0
ARC
  5
1AB
  8
0
  6
CONTINUOUS
 62
     7
 10
-3876.162444905739
 20
-523.5683227227033
 30
0.0
 40
4.364292022050701
 50
269.0675276846206
 51
273.875438485009
  0
ARC
  5
1AC
  8
0
  6
CONTINUOUS
 62
     7
 10
-3859.451736861819
 20
-553.1829406206492
 30
0.0
 40
23.37644473442209
 50
76.68829772072121
 51
78.600444142906
  0
LINE
  5
1AD
  8
0
  6
CONTINUOUS
 62
   253
 10
-4383.499999999501
 20
-444.5844018226114
 30
0.0
 11
-4383.499999999493
 21
-358.5979254817116
 31
0.0
  0
ARC
  5
1AE
  8
0
  6
CONTINUOUS
 62
     7
 10
-3876.733135865184
 20
-528.1535441206275
 30
0.0
 40
0.1202484368992139
 50
94.25100278798887
 51
173.0321524473508
  0
ARC
  5
1AF
  8
0
  6
CONTINUOUS
 62
     7
 10
-4498.171778264599
 20
-309.6625844736588
 30
0.0
 40
6.764658992099104
 50
89.99999999266527
 51
103.358168571806
  0
ARC
  5
1B0
  8
0
  6
CONTINUOUS
 62
     7
 10
-3895.10249732496
 20
-759.3254637143384
 30
0.0
 40
232.6161220704132
 50
80.72073055600997
 51
81.22073492675385
  0
ARC
  5
1B1
  8
0
  6
CONTINUOUS
 62
     7
 10
-3876.09432371029
 20
-527.5916216992516
 30
0.0
 40
0.9208593290118616
 50
234.0642320614709
 51
256.9967772101401
  0
ARC
  5
1B2
  8
0
  6
CONTINUOUS
 62
     7
 10
-3888.549533875756
 20
-726.887473379025
 30
0.0
 40
199.5729886122286
 50
83.0321524473963
 51
83.71890242138473
  0
ARC
  5
1B3
  8
0
  6
CONTINUOUS
 62
     7
 10
-3876.248455425316
 20
-528.8527741600977
 30
0.0
 40
0.9208593290136843
 50
89.06752768461399
 51
112.0000728332919
  0
ARC
  5
1B4
  8
0
  6
CONTINUOUS
 62
     7
 10
-3855.189377876113
 20
-537.7225714907909
 30
0.0
 40
7.350286069969332
 50
72.18886640978555
 51
76.73135002008608
  0
ARC
  5
1B5
  8
0
  6
CONTINUOUS
 62
     7
 10
-4496.821379051501
 20
-309.9140604521623
 30
0.0
 40
6.970218210711818
 50
51.45379947538572
 51
64.9740196823202
  0
ARC
  5
1B6
  8
0
  6
CONTINUOUS
 62
     7
 10
-4499.686410020976
 20
-311.9139055851944
 30
0.0
 40
10.78203328758119
 50
330.6912071487804
 51
339.9036372888766
  0
ARC
  5
1B7
  8
0
  6
CONTINUOUS
 62
     7
 10
-4497.147238496411
 20
-310.6120418046139
 30
0.0
 40
7.740518377015279
 50
64.97401968232015
 51
76.64183141349827
  0
ARC
  5
1B8
  8
0
  6
CONTINUOUS
 62
     7
 10
-3875.370684712968
 20
-535.2561136034169
 30
0.0
 40
7.350286069974111
 50
89.33295487471258
 51
93.87543848500786
  0
ARC
  5
1B9
  8
0
  6
CONTINUOUS
 62
     7
 10
-3873.700254903113
 20
-521.588150037264
 30
0.0
 40
7.350286069969332
 50
252.1888664097855
 51
256.731350020086
  0
ARC
  5
1BA
  8
0
  6
CONTINUOUS
 62
     7
 10
-3675.55039363044
 20
224.065376683267
 30
0.0
 40
775.3316689053948
 50
256.6882977207217
 51
256.7313500200907
  0
LINE
  5
1BB
  8
0
  6
CONTINUOUS
 62
     7
 10
-4418.900000000517
 20
-304.022925481045
 30
0.0
 11
-4418.899999999484
 21
-320.1729254810451
 31
0.0
  0
ARC
  5
1BC
  8
0
  6
CONTINUOUS
 62
     7
 10
-3880.0478335362
 20
-649.6464121300243
 30
0.0
 40
121.8654571140817
 50
83.718902421385
 51
84.84356996803801
  0
LINE
  5
1BD
  8
0
  6
CONTINUOUS
 62
     7
 10
-4383.200000000001
 20
-145.5979254817173
 30
0.0
 11
-4434.0
 21
-145.5979254817173
 31
0.0
  0
ARC
  5
1BE
  8
0
  6
CONTINUOUS
 62
     7
 10
-4497.147238496786
 20
-313.5838091587764
 30
0.0
 40
7.740518377000758
 50
283.3581685718102
 51
295.0259803030158
  0
ARC
  5
1BF
  8
0
  6
CONTINUOUS
 62
     7
 10
-3852.156496914041
 20
-531.1571774074273
 30
0.0
 40
0.120248436898773
 50
353.032152447325
 51
71.81330210697917
  0
ARC
  5
1C0
  8
0
  6
CONTINUOUS
 62
     7
 10
-3878.19882339322
 20
-649.8723888563451
 30
0.0
 40
121.8654571141248
 50
81.22073492675393
 51
82.3454024734064
  0
ARC
  5
1C1
  8
0
  6
CONTINUOUS
 62
     7
 10
-4497.388547174743
 20
-310.9919811574745
 30
0.0
 40
8.146851823364706
 50
29.30879283653002
 51
41.51099421771596
  0
ARC
  5
1C2
  8
0
  6
CONTINUOUS
 62
     7
 10
-4498.377859769683
 20
-312.3282614754827
 30
0.0
 40
9.467998809183104
 50
308.5462005099514
 51
318.4890057676085
  0
LINE
  5
1C3
  8
0
  6
CONTINUOUS
 62
     7
 10
-4484.661439200224
 20
-325.5979254817173
 30
0.0
 11
-4484.723784443416
 21
-325.5979254817173
 31
0.0
  0
LINE
  5
1C4
  8
0
  6
CONTINUOUS
 62
     7
 10
-4493.742810529742
 20
-171.5166491453629
 30
0.0
 11
-4494.323784443415
 21
-172.5229254817174
 31
0.0
  0
LINE
  5
1C5
  8
0
  6
CONTINUOUS
 62
     7
 10
-4484.8
 20
-169.5979254817174
 30
0.0
 11
-4486.323784443414
 21
-169.5979254817174
 31
0.0
  0
LINE
  5
1C6
  8
0
  6
CONTINUOUS
 62
     7
 10
-4381.676215556586
 20
-169.5979254817174
 30
0.0
 11
-4383.200000000001
 21
-169.5979254817174
 31
0.0
  0
ARC
  5
1C7
  8
0
  6
CONTINUOUS
 62
     7
 10
-4365.425173257124
 20
-334.568590168521
 30
0.0
 40
11.02933531319628
 50
270.0
 51
283.3581685791568
  0
ARC
  5
1C8
  8
0
  6
CONTINUOUS
 62
     7
 10
-4502.738521112127
 20
-334.1585749864915
 30
0.0
 40
11.3644862130736
 50
231.4537994826637
 51
244.9740196896439
  0
ARC
  5
1C9
  8
0
  6
CONTINUOUS
 62
     7
 10
-4365.792771460963
 20
-333.0205619117492
 30
0.0
 40
12.62041039729213
 50
283.358168579164
 51
295.0259803103586
  0
LINE
  5
1CA
  8
0
  6
CONTINUOUS
 62
     7
 10
-3852.037136585886
 20
-531.1717650268121
 30
0.0
 11
-3851.473354730655
 21
-526.558730817834
 31
0.0
  0
LINE
  5
1CB
  8
0
  6
CONTINUOUS
 62
     7
 10
-4341.500000000001
 20
-295.5979254817175
 30
0.0
 11
-4341.500000000001
 21
-289.5979254817175
 31
0.0
  0
LINE
  5
1CC
  8
0
  6
CONTINUOUS
 62
     7
 10
-4387.499999999446
 20
124.5009866721568
 30
0.0
 11
-4387.499999999432
 21
264.3022126991129
 31
0.0
  0
LINE
  5
1CD
  8
0
  6
CONTINUOUS
 62
   253
 10
-4383.499999999232
 20
2367.402074518289
 30
0.0
 11
-4383.499999999224
 21
2453.388550859189
 31
0.0
  0
ARC
  5
1CE
  8
0
  6
CONTINUOUS
 62
   253
 10
-4388.499999999224
 20
2453.388550859098
 30
0.0
 40
5.000000000000004
 50
359.9999999999948
 51
82.42152159340115
  0
LINE
  5
1CF
  8
0
  6
CONTINUOUS
 62
     7
 10
-4368.721472260113
 20
-298.4131299185285
 30
0.0
 11
-4370.971472260113
 21
-298.4131299185285
 31
0.0
  0
LINE
  5
1D0
  8
0
  6
CONTINUOUS
 62
     7
 10
-4993.526645269347
 20
-526.5587308178337
 30
0.0
 11
-4992.962863414115
 21
-531.1717650268118
 31
0.0
  0
LINE
  5
1D1
  8
0
  6
CONTINUOUS
 62
     7
 10
-4430.999999999297
 20
-323.0979254818166
 30
0.0
 11
-4429.399999999295
 21
-323.0979254817142
 31
0.0
  0
LINE
  5
1D2
  8
0
  6
CONTINUOUS
 62
     7
 10
-4383.200000000001
 20
-191.5979254817174
 30
0.0
 11
-4381.676215556586
 21
-191.5979254817174
 31
0.0
  0
LINE
  5
1D3
  8
0
  6
CONTINUOUS
 62
     7
 10
-4368.828221737101
 20
-301.0979254784912
 30
0.0
 11
-4369.6282217371
 21
-301.097925478594
 31
0.0
  0
LINE
  5
1D4
  8
0
  6
CONTINUOUS
 62
     7
 10
-4418.900000000517
 20
-304.022925481045
 30
0.0
 11
-4419.146102918905
 21
-303.59666272257
 31
0.0
  0
ARC
  5
1D5
  8
0
  6
CONTINUOUS
 62
     7
 10
-4369.932725033251
 20
-330.2978930423523
 30
0.0
 40
17.57940209920426
 50
330.6912071560527
 51
339.9036372962127
  0
LINE
  5
1D6
  8
0
  6
CONTINUOUS
 62
     7
 10
-4496.121778263503
 20
-301.0979254818228
 30
0.0
 11
-4496.921778263504
 21
-301.0979254817202
 31
0.0
  0
LINE
  5
1D7
  8
0
  6
CONTINUOUS
 62
     7
 10
-4383.200000000001
 20
-289.5979254817175
 30
0.0
 11
-4383.200000000001
 21
-191.5979254817174
 31
0.0
  0
LINE
  5
1D8
  8
0
  6
CONTINUOUS
 62
     7
 10
-4494.323784443415
 20
-188.6729254817173
 30
0.0
 11
-4493.742810529742
 21
-189.6792018180718
 31
0.0
  0
LINE
  5
1D9
  8
0
  6
CONTINUOUS
 62
     7
 10
-4484.800000000001
 20
-341.5979254817173
 30
0.0
 11
-4484.800000000001
 21
-345.5979254817173
 31
0.0
  0
LINE
  5
1DA
  8
0
  6
CONTINUOUS
 62
     7
 10
-4480.499999999233
 20
2354.303162364427
 30
0.0
 11
-4480.499999999417
 21
424.5019363374838
 31
0.0
  0
LINE
  5
1DB
  8
0
  6
CONTINUOUS
 62
     7
 10
-4480.499999999418
 20
414.3031623644289
 30
0.0
 11
-4480.499999999432
 21
274.5019363374839
 31
0.0
  0
ARC
  5
1DC
  8
0
  6
CONTINUOUS
 62
   253
 10
-4479.499999999224
 20
2453.388550859107
 30
0.0
 40
5.000000000000016
 50
97.5784784065883
 51
179.9999999999949
  0
LINE
  5
1DD
  8
0
  6
CONTINUOUS
 62
     7
 10
-4496.92177826632
 20
-323.0979254817142
 30
0.0
 11
-4496.12177826632
 21
-323.0979254818166
 31
0.0
  0
LINE
  5
1DE
  8
0
  6
CONTINUOUS
 62
     7
 10
-4495.926215556586
 20
-176.3479254817174
 30
0.0
 11
-4496.676215556586
 21
-177.0979254817174
 31
0.0
  0
LINE
  5
1DF
  8
0
  6
CONTINUOUS
 62
   253
 10
-4484.499999999493
 20
-358.5979254817019
 30
0.0
 11
-4484.499999999501
 21
-444.5844018226016
 31
0.0
  0
ARC
  5
1E0
  8
0
  6
CONTINUOUS
 62
   253
 10
-4433.999999998725
 20
-102.5979254817101
 30
0.0
 40
349.9999999999999
 50
262.4215215900293
 51
262.9429747347526
  0
ARC
  5
1E1
  8
0
  6
CONTINUOUS
 62
   253
 10
-4481.499999999232
 20
2367.402074518307
 30
0.0
 40
3.000000000000003
 50
179.9999999999915
 51
269.9999999999858
  0
LINE
  5
1E2
  8
0
  6
CONTINUOUS
 62
     7
 10
-4515.565207799644
 20
-295.5979254817175
 30
0.0
 11
-4515.565207799643
 21
-330.5979254817174
 31
0.0
  0
LINE
  5
1E3
  8
0
  6
CONTINUOUS
 62
     7
 10
-4387.499999999472
 20
-145.5979254817162
 30
0.0
 11
-4387.499999999447
 21
114.302212699113
 31
0.0
  0
LINE
  5
1E4
  8
0
  6
CONTINUOUS
 62
     7
 10
-4496.921778263732
 20
-302.8979254817198
 30
0.0
 11
-4498.171778263734
 21
-302.8979254815597
 31
0.0
  0
LINE
  5
1E5
  8
0
  6
CONTINUOUS
 62
     7
 10
-4494.323804443416
 20
-175.5979254817174
 30
0.0
 11
-4495.176215556586
 21
-175.5979254817174
 31
0.0
  0
LINE
  5
1E6
  8
0
  6
CONTINUOUS
 62
     7
 10
-4437.000000000001
 20
-298.4131299185285
 30
0.0
 11
-4438.335165148334
 21
-298.4131299185285
 31
0.0
  0
LINE
  5
1E7
  8
0
  6
CONTINUOUS
 62
     7
 10
-4484.8
 20
-145.5979254817173
 30
0.0
 11
-4484.8
 21
-169.5979254817174
 31
0.0
  0
LINE
  5
1E8
  8
0
  6
CONTINUOUS
 62
     7
 10
-4495.176215556586
 20
-325.5979254817173
 30
0.0
 11
-4495.926215556586
 21
-326.3479254817173
 31
0.0
  0
ARC
  5
1E9
  8
0
  6
CONTINUOUS
 62
     7
 10
-4500.200780811222
 20
-330.9734732979419
 30
0.0
 40
15.43695458019926
 50
221.5109942250466
 51
231.4537994826979
  0
LINE
  5
1EA
  8
0
  6
CONTINUOUS
 62
     7
 10
-4502.574826742877
 20
-345.5979254817173
 30
0.0
 11
-4484.800000000001
 21
-345.5979254817173
 31
0.0
  0
TEXT
  5
1EB
  8
0
  6
CONTINUOUS
 62
     7
 10
-3923.602932349632
 20
-210.9367528448169
 30
0.0
 40
50.50000000000004
  1
MRDS-30
  0
ARC
  5
1EC
  8
0
  6
CONTINUOUS
 62
     7
 10
-4405.330170147378
 20
2456.064659632373
 30
0.0
 40
2.264886731197173
 50
40.06054401364963
 51
59.09355088806564
  0
ARC
  5
1ED
  8
0
  6
CONTINUOUS
 62
     7
 10
-4461.596592934731
 20
2454.734967169908
 30
0.0
 40
3.924507363733539
 50
146.0957290278706
 51
159.0103328702031
  0
ARC
  5
1EE
  8
0
  6
CONTINUOUS
 62
     7
 10
-4405.49179376035
 20
2367.264804306746
 30
0.0
 40
3.362041550837799
 50
309.7973227801473
 51
323.8335855409185
  0
ARC
  5
1EF
  8
0
  6
CONTINUOUS
 62
   253
 10
-4433.999999998539
 20
-405.5979254817069
 30
0.0
 40
24.99999999999999
 50
0.0
 51
96.89210258271943
  0
LINE
  5
1F0
  8
0
  6
CONTINUOUS
 62
     7
 10
-4419.904563242417
 20
-320.5979254811094
 30
0.0
 11
-4419.145373863881
 21
-320.5979254810608
 31
0.0
  0
LINE
  5
1F1
  8
0
  6
CONTINUOUS
 62
     7
 10
-4426.899999999412
 20
-321.2979254815597
 30
0.0
 11
-4426.899999999456
 21
-320.5979254815646
 31
0.0
  0
LINE
  5
1F2
  8
0
  6
CONTINUOUS
 62
   251
 10
-4405.999999999315
 20
-444.6133875673314
 30
0.0
 11
-4402.224719100444
 21
-444.5844018226082
 31
0.0
  0
ARC
  5
1F3
  8
0
  6
CONTINUOUS
 62
     7
 10
-4462.629213482527
 20
2456.520106808275
 30
0.0
 40
1.868444050920459
 50
102.8101097705567
 51
109.6332441617865
  0
LINE
  5
1F4
  8
0
  6
CONTINUOUS
 62
     7
 10
-4426.900000000077
 20
-310.8962856964793
 30
0.0
 11
-4426.9
 21
-312.0979254815571
 31
0.0
  0
LINE
  5
1F5
  8
0
  6
CONTINUOUS
 62
   251
 10
-4461.999999999387
 20
2453.41753660392
 30
0.0
 11
-4462.405797100825
 21
2458.374282431246
 31
0.0
  0
ARC
  5
1F6
  8
0
  6
CONTINUOUS
 62
     7
 10
-4411.084805974468
 20
2452.93891508555
 30
0.0
 40
8.938617339353026
 50
15.32919359429064
 51
20.98966712929962
  0
ARC
  5
1F7
  8
0
  6
CONTINUOUS
 62
   253
 10
-4433.999999998539
 20
-405.5979254817069
 30
0.0
 40
24.99999999999991
 50
263.1078974172806
 51
0.0
  0
ARC
  5
1F8
  8
0
  6
CONTINUOUS
 62
     7
 10
-4456.915194024486
 20
2452.93891508567
 30
0.0
 40
8.938617339206543
 50
159.0103328701908
 51
164.6708064053015
  0
ARC
  5
1F9
  8
0
  6
CONTINUOUS
 62
     7
 10
-4462.167235527259
 20
2455.225100178467
 30
0.0
 40
3.243386159665681
 50
109.6332441618217
 51
120.9064491114657
  0
ARC
  5
1FA
  8
0
  6
CONTINUOUS
 62
     7
 10
-4408.933921255237
 20
2453.034258381704
 30
0.0
 40
6.973427246839791
 50
33.90427097159738
 51
40.06054401372609
  0
LINE
  5
1FB
  8
0
  6
CONTINUOUS
 62
   251
 10
-4461.999999999404
 20
2364.402074518304
 30
0.0
 11
-4461.999999999403
 21
2367.402074518305
 31
0.0
  0
ARC
  5
1FC
  8
0
  6
CONTINUOUS
 62
     7
 10
-4411.084805974244
 20
-444.1347660490817
 30
0.0
 40
8.938617339212744
 50
339.0103328701994
 51
344.6708064053072
  0
LINE
  5
1FD
  8
0
  6
CONTINUOUS
 62
   253
 10
-4404.112359549884
 20
-355.5979254817158
 30
0.0
 11
-4386.499999999492
 21
-355.59792548172
 31
0.0
  0
ARC
  5
1FE
  8
0
  6
CONTINUOUS
 62
     7
 10
-4406.403407064067
 20
2454.7349671698
 30
0.0
 40
3.924507363731433
 50
20.9896671292811
 51
33.90427097159551
  0
LINE
  5
1FF
  8
0
  6
CONTINUOUS
 62
   251
 10
-4405.594202897926
 20
2458.374282431118
 30
0.0
 11
-4405.999999999387
 21
2453.41753660379
 31
0.0
  0
ARC
  5
200
  8
0
  6
CONTINUOUS
 62
     7
 10
-4462.669829851381
 20
2456.064659632463
 30
0.0
 40
2.264886731237557
 50
120.9064491114538
 51
139.9394559856328
  0
ARC
  5
201
  8
0
  6
CONTINUOUS
 62
     7
 10
-4472.633654313886
 20
-326.1095698334716
 30
0.0
 40
40.18359654157997
 50
145.9290038160596
 51
152.1613269744176
  0
ARC
  5
202
  8
0
  6
CONTINUOUS
 62
     7
 10
-4408.58949521395
 20
2453.622921627917
 30
0.0
 40
6.351255605548616
 50
6.603301231647549
 51
15.32919359429178
  0
ARC
  5
203
  8
0
  6
CONTINUOUS
 62
     7
 10
-4404.112359549964
 20
2365.608998626498
 30
0.0
 40
1.20692410820844
 50
270.0
 51
309.7973227802145
  0
ARC
  5
204
  8
0
  6
CONTINUOUS
 62
     7
 10
-4410.61408088972
 20
-444.584401822598
 30
0.0
 40
8.389361789276073
 50
353.3966987680614
 51
359.9999999998944
  0
ARC
  5
205
  8
0
  6
CONTINUOUS
 62
     7
 10
-4457.385919108869
 20
2453.388550859185
 30
0.0
 40
8.389361789411964
 50
173.3966987681683
 51
179.9999999998938
  0
LINE
  5
206
  8
0
  6
CONTINUOUS
 62
     7
 10
-4459.999999999391
 20
2364.402074518303
 30
0.0
 11
-4459.999999999391
 21
2363.820138271537
 31
0.0
  0
ARC
  5
207
  8
0
  6
CONTINUOUS
 62
     7
 10
-4405.832764471513
 20
2455.225100178369
 30
0.0
 40
3.243386159638161
 50
59.0935508880787
 51
70.36675583770669
  0
ARC
  5
208
  8
0
  6
CONTINUOUS
 62
     7
 10
-4407.258336174254
 20
2367.402074518289
 30
0.0
 40
5.03361707371841
 50
353.3966987683723
 51
0.0
  0
LINE
  5
209
  8
0
  6
CONTINUOUS
 62
   251
 10
-4383.499999999224
 20
2453.388550859097
 30
0.0
 11
-4402.224719100525
 21
2453.388550859099
 31
0.0
  0
ARC
  5
20A
  8
0
  6
CONTINUOUS
 62
     7
 10
-4498.171778264599
 20
-309.6625844736614
 30
0.0
 40
6.764658992101713
 50
76.64183141352419
 51
89.99999999266532
  0
ARC
  5
20B
  8
0
  6
CONTINUOUS
 62
     7
 10
-4459.410504784901
 20
2453.622921628028
 30
0.0
 40
6.351255605503844
 50
164.6708064053025
 51
173.3966987680072
  0
ARC
  5
20C
  8
0
  6
CONTINUOUS
 62
     7
 10
-4501.031686293235
 20
-312.0979254811922
 30
0.0
 40
10.82734174314037
 50
350.5001303160776
 51
353.62727188586
  0
LINE
  5
20D
  8
0
  6
CONTINUOUS
 62
     7
 10
-4457.703892927639
 20
2364.402074518303
 30
0.0
 11
-4457.703892927639
 21
2363.820138271537
 31
0.0
  0
ARC
  5
20E
  8
0
  6
CONTINUOUS
 62
   251
 10
-4433.999999998539
 20
-102.5979254817088
 30
0.0
 40
343.1596950482362
 50
269.4990975610866
 51
274.6802329612212
  0
ARC
  5
20F
  8
0
  6
CONTINUOUS
 62
     7
 10
-4526.971593766184
 20
119.388206898165
 30
0.0
 40
46.75211940925266
 50
0.0169950823026284
 51
6.279725466338334
  0
ARC
  5
210
  8
0
  6
CONTINUOUS
 62
     7
 10
-4408.933921255118
 20
-444.2301093452214
 30
0.0
 40
6.973427246807884
 50
319.9394559856894
 51
326.0957290278768
  0
LINE
  5
211
  8
0
  6
CONTINUOUS
 62
     7
 10
-4410.296107071098
 20
2364.402074518292
 30
0.0
 11
-4410.296107071098
 21
2363.820138271534
 31
0.0
  0
ARC
  5
212
  8
0
  6
CONTINUOUS
 62
     7
 10
-4410.614080889927
 20
2453.388550859081
 30
0.0
 40
8.389361789401306
 50
359.9999999998939
 51
6.603301231571321
  0
ARC
  5
213
  8
0
  6
CONTINUOUS
 62
     7
 10
-4406.043584768567
 20
2367.26145205698
 30
0.0
 40
3.810753363306026
 50
344.6708064055229
 51
353.3966987682235
  0
ARC
  5
214
  8
0
  6
CONTINUOUS
 62
     7
 10
-4408.836957532475
 20
-359.2230133584316
 30
0.0
 40
6.707172483608073
 50
15.3291935945889
 51
19.85859538625152
  0
ARC
  5
215
  8
0
  6
CONTINUOUS
 62
     7
 10
-4465.580595745058
 20
-292.9909750329417
 30
0.0
 40
33.55924624017964
 50
198.4252039337983
 51
214.704898417424
  0
LINE
  5
216
  8
0
  6
CONTINUOUS
 62
     7
 10
-4426.899999999533
 20
-319.3962856964864
 30
0.0
 11
-4426.899999999923
 21
-313.2995652666343
 31
0.0
  0
ARC
  5
217
  8
0
  6
CONTINUOUS
 62
     7
 10
-4406.043584768452
 20
-358.457303020411
 30
0.0
 40
3.810753363290558
 50
6.603301231858097
 51
15.3291935945885
  0
LINE
  5
218
  8
0
  6
CONTINUOUS
 62
   251
 10
-4405.999999999338
 20
-444.6133875673331
 30
0.0
 11
-4405.5942028979
 21
-449.5701333946593
 31
0.0
  0
LINE
  5
219
  8
0
  6
CONTINUOUS
 62
   253
 10
-4405.999999999404
 20
2364.40207451829
 30
0.0
 11
-4461.999999999404
 21
2364.402074518304
 31
0.0
  0
LINE
  5
21A
  8
0
  6
CONTINUOUS
 62
   251
 10
-4402.224719100435
 20
-358.5979254817181
 30
0.0
 11
-4405.999999999307
 21
-358.5979254817174
 31
0.0
  0
ARC
  5
21B
  8
0
  6
CONTINUOUS
 62
     7
 10
-4404.286205101534
 20
2366.383531564551
 30
0.0
 40
1.868694417582775
 50
323.8335855409168
 51
340.1414046141583
  0
LINE
  5
21C
  8
0
  6
CONTINUOUS
 62
     7
 10
-4381.676215556586
 20
-169.5979254817174
 30
0.0
 11
-4381.676215556586
 21
-182.3969176618764
 31
0.0
  0
ARC
  5
21D
  8
0
  6
CONTINUOUS
 62
     7
 10
-4408.836957532763
 20
2368.027162395042
 30
0.0
 40
6.707172483801669
 50
340.1414046139935
 51
344.6708064055197
  0
LINE
  5
21E
  8
0
  6
CONTINUOUS
 62
   251
 10
-4477.0
 20
-449.5407275665816
 30
0.0
 11
-4480.159420288604
 21
-449.5407275665814
 31
0.0
  0
ARC
  5
21F
  8
0
  6
CONTINUOUS
 62
     7
 10
-4499.929219007103
 20
-312.2824126555724
 30
0.0
 40
9.70954496621623
 50
339.9036372888766
 51
350.50013031614
  0
LINE
  5
220
  8
0
  6
CONTINUOUS
 62
   253
 10
-4461.999999999404
 20
2364.402074518304
 30
0.0
 11
-4463.887640448841
 21
2364.402074518304
 31
0.0
  0
ARC
  5
221
  8
0
  6
CONTINUOUS
 62
     7
 10
-4498.397238496412
 20
-310.6120418044538
 30
0.0
 40
7.740518377015279
 50
64.97930892266436
 51
76.64183141349827
  0
LINE
  5
222
  8
0
  6
CONTINUOUS
 62
   253
 10
-4405.99999999932
 20
-355.5979254817169
 30
0.0
 11
-4404.112359549884
 21
-355.5979254817173
 31
0.0
  0
ARC
  5
223
  8
0
  6
CONTINUOUS
 62
     7
 10
-4472.149293473653
 20
-297.7957634727119
 30
0.0
 40
40.74757924593361
 50
207.8819467341031
 51
214.0278285327324
  0
LINE
  5
224
  8
0
  6
CONTINUOUS
 62
     7
 10
-4381.676215556586
 20
-182.3969176618764
 30
0.0
 11
-4381.676215556586
 21
-191.5979254817174
 31
0.0
  0
ARC
  5
225
  8
0
  6
CONTINUOUS
 62
     7
 10
-4341.028406245087
 20
119.4159421381692
 30
0.0
 40
46.75211939692085
 50
180.0169950819961
 51
186.2797254676883
  0
LINE
  5
226
  8
0
  6
CONTINUOUS
 62
     7
 10
-4419.904563242961
 20
-312.0979254811095
 30
0.0
 11
-4426.9
 21
-312.0979254815571
 31
0.0
  0
ARC
  5
227
  8
0
  6
CONTINUOUS
 62
   251
 10
-4433.999999998559
 20
-102.5979254817088
 30
0.0
 40
348.1330239619788
 50
269.5062534886382
 51
274.6802329612212
  0
ARC
  5
228
  8
0
  6
CONTINUOUS
 62
     7
 10
-4459.066078743715
 20
2453.03425838188
 30
0.0
 40
6.973427246677944
 50
139.9394559855655
 51
146.0957290278693
  0
ARC
  5
229
  8
0
  6
CONTINUOUS
 62
     7
 10
-4406.403407063991
 20
-445.9308181333226
 30
0.0
 40
3.924507363731168
 50
326.0957290278754
 51
339.0103328702203
  0
ARC
  5
22A
  8
0
  6
CONTINUOUS
 62
     7
 10
-4341.028406244855
 20
2359.415942138169
 30
0.0
 40
46.7521193969403
 50
180.0169950819976
 51
186.2797254676868
  0
LINE
  5
22B
  8
0
  6
CONTINUOUS
 62
     7
 10
-4407.999999999649
 20
-345.5979254817159
 30
0.0
 11
-4407.99999999965
 21
-355.5979254817164
 31
0.0
  0
LINE
  5
22C
  8
0
  6
CONTINUOUS
 62
     7
 10
-4484.723784443416
 20
-341.5979254817173
 30
0.0
 11
-4484.723784443416
 21
-319.5979254817173
 31
0.0
  0
LINE
  5
22D
  8
0
  6
CONTINUOUS
 62
     7
 10
-4493.319221200455
 20
-174.3663925508848
 30
0.0
 11
-4486.323784443415
 21
-174.3663925508848
 31
0.0
  0
LINE
  5
22E
  8
0
  6
CONTINUOUS
 62
     7
 10
-4374.676215556585
 20
-174.0308867275328
 30
0.0
 11
-4374.676215556585
 21
-181.9880558027494
 31
0.0
  0
LINE
  5
22F
  8
0
  6
CONTINUOUS
 62
     7
 10
-4381.676215556586
 20
-169.5979254817174
 30
0.0
 11
-4381.676215556586
 21
-182.3969176618764
 31
0.0
  0
ARC
  5
230
  8
0
  6
CONTINUOUS
 62
     7
 10
-4376.927318500034
 20
-188.827452796524
 30
0.0
 40
2.267519233143497
 50
6.898616586388216
 51
52.44535214753294
  0
ARC
  5
231
  8
0
  6
CONTINUOUS
 62
     7
 10
-4363.704499310829
 20
-311.9274753712172
 30
0.0
 40
8.970775240581332
 50
159.9036373035622
 51
170.5001303307642
  0
LINE
  5
232
  8
0
  6
CONTINUOUS
 62
     7
 10
-4495.176215556586
 20
-175.5979254817174
 30
0.0
 11
-4495.176215556586
 21
-181.4156491999715
 31
0.0
  0
LINE
  5
233
  8
0
  6
CONTINUOUS
 62
   253
 10
-4408.188888888846
 20
1013.820138271601
 30
0.0
 11
-4408.188888888839
 21
2363.820138271533
 31
0.0
  0
LINE
  5
234
  8
0
  6
CONTINUOUS
 62
     7
 10
-4375.779593456509
 20
-190.2807307013182
 30
0.0
 11
-4375.163134573827
 21
-189.678212899307
 31
0.0
  0
ARC
  5
235
  8
0
  6
CONTINUOUS
 62
     7
 10
-4380.088954012381
 20
-174.1944337286715
 30
0.0
 40
5.415208695187106
 50
1.730677163235477
 51
37.27020933737457
  0
LINE
  5
236
  8
0
  6
CONTINUOUS
 62
     7
 10
-4494.323784443415
 20
-188.6729254817173
 30
0.0
 11
-4494.323784443415
 21
-172.5229254817174
 31
0.0
  0
LINE
  5
237
  8
0
  6
CONTINUOUS
 62
     7
 10
-4374.676215556585
 20
-172.0979254817173
 30
0.0
 11
-4374.676215556585
 21
-174.0308867275328
 31
0.0
  0
LINE
  5
238
  8
0
  6
CONTINUOUS
 62
     7
 10
-4381.676215556586
 20
-170.9151202621165
 30
0.0
 11
-4375.779593456509
 21
-170.9151202621165
 31
0.0
  0
ARC
  5
239
  8
0
  6
CONTINUOUS
 62
     7
 10
-4363.982929041089
 20
-311.8851150486953
 30
0.0
 40
8.747607595475925
 50
128.5462005246926
 51
138.4890057823056
  0
ARC
  5
23A
  8
0
  6
CONTINUOUS
 62
     7
 10
-4507.503303511291
 20
-311.7058003615515
 30
0.0
 40
3.038059404331529
 50
136.7209420286774
 51
162.1717320675221
  0
ARC
  5
23B
  8
0
  6
CONTINUOUS
 62
     7
 10
-4365.3282217354
 20
-314.3479688005643
 30
0.0
 40
6.249956677477853
 50
256.6418314281933
 51
269.9999999998453
  0
ARC
  5
23C
  8
0
  6
CONTINUOUS
 62
     7
 10
-4365.420981878524
 20
-310.0802240920138
 30
0.0
 40
6.439875520740336
 50
115.0259803177158
 51
128.5462005246983
  0
LINE
  5
23D
  8
0
  6
CONTINUOUS
 62
     7
 10
-4377.328221735689
 20
-312.0979254784913
 30
0.0
 11
-4373.078221735416
 21
-320.5979254784913
 31
0.0
  0
ARC
  5
23E
  8
0
  6
CONTINUOUS
 62
     7
 10
-4508.859512707732
 20
-312.0979254809026
 30
0.0
 40
4.318823356666002
 50
342.1717320674179
 51
0.0000000073592332
  0
ARC
  5
23F
  8
0
  6
CONTINUOUS
 62
     7
 10
-4507.033926801103
 20
-312.1477947976648
 30
0.0
 40
3.682786926329955
 50
117.7624206702645
 51
136.720942028678
  0
ARC
  5
240
  8
0
  6
CONTINUOUS
 62
     7
 10
-4478.238559938191
 20
-179.2077951606853
 30
0.0
 40
15.83873490330909
 50
162.2016119947509
 51
197.7983880052491
  0
LINE
  5
241
  8
0
  6
CONTINUOUS
 62
     7
 10
-4496.676215556585
 20
-184.0979254817173
 30
0.0
 11
-4496.676215556585
 21
-181.1703320844954
 31
0.0
  0
ARC
  5
242
  8
0
  6
CONTINUOUS
 62
     7
 10
-4366.673514430289
 20
-312.310735907389
 30
0.0
 40
8.747607595475925
 50
308.5462005246926
 51
318.4890057823055
  0
ARC
  5
243
  8
0
  6
CONTINUOUS
 62
     7
 10
-4505.121540099289
 20
-311.9255733229636
 30
0.0
 40
6.07034007112019
 50
200.0963627111264
 51
208.9909716652096
  0
ARC
  5
244
  8
0
  6
CONTINUOUS
 62
     7
 10
-4365.119916086671
 20
-313.4707527883654
 30
0.0
 40
7.15156589180005
 50
244.9740196969983
 51
256.6418314281919
  0
LINE
  5
245
  8
0
  6
CONTINUOUS
 62
     7
 10
-4493.743492766807
 20
-339.6780201277542
 30
0.0
 11
-4493.319221200455
 21
-340.2807307013181
 31
0.0
  0
ARC
  5
246
  8
0
  6
CONTINUOUS
 62
     7
 10
-4376.492091791761
 20
-338.4349449728599
 30
0.0
 40
1.819846813341417
 50
316.908005515473
 51
356.2144753080845
  0
LINE
  5
247
  8
0
  6
CONTINUOUS
 62
     7
 10
-4383.276215556585
 20
-182.3969176618764
 30
0.0
 11
-4383.276215556585
 21
-191.5979254817174
 31
0.0
  0
LINE
  5
248
  8
0
  6
CONTINUOUS
 62
     7
 10
-4381.676215556586
 20
-186.8294584125499
 30
0.0
 11
-4375.779593456509
 21
-186.8294584125499
 31
0.0
  0
ARC
  5
249
  8
0
  6
CONTINUOUS
 62
     7
 10
-4362.68591540512
 20
-312.097925477703
 30
0.0
 40
10.00352226273726
 50
170.5001303308076
 51
180.0000000073531
  0
LINE
  5
24A
  8
0
  6
CONTINUOUS
 62
     7
 10
-4493.319221200455
 20
-170.9151202621165
 30
0.0
 11
-4486.323784443415
 21
-170.9151202621165
 31
0.0
  0
LINE
  5
24B
  8
0
  6
CONTINUOUS
 62
     7
 10
-4375.779593456509
 20
-170.9151202621165
 30
0.0
 11
-4375.163134573827
 21
-171.5176380641278
 31
0.0
  0
ARC
  5
24C
  8
0
  6
CONTINUOUS
 62
     7
 10
-4365.235461593381
 20
-310.0802240920078
 30
0.0
 40
6.439875520759487
 50
51.45379949004776
 51
64.97401969699743
  0
ARC
  5
24D
  8
0
  6
CONTINUOUS
 62
     7
 10
-4365.759475620071
 20
-311.0761290916529
 30
0.0
 40
7.526982662937767
 50
29.30879285128189
 51
41.51099423239982
  0
LINE
  5
24E
  8
0
  6
CONTINUOUS
 62
     7
 10
-4374.676215556585
 20
-181.9880558027494
 30
0.0
 11
-4374.676215556585
 21
-188.5550945569342
 31
0.0
  0
LINE
  5
24F
  8
0
  6
CONTINUOUS
 62
     7
 10
-4365.328221735416
 20
-320.5979254780421
 30
0.0
 11
-4370.129910685379
 21
-320.5979254781129
 31
0.0
  0
ARC
  5
250
  8
0
  6
CONTINUOUS
 62
     7
 10
-4377.654388645249
 20
-317.1871387438513
 30
0.0
 40
20.90345780483184
 50
14.09100506156767
 51
26.53717602849537
  0
ARC
  5
251
  8
0
  6
CONTINUOUS
 62
     7
 10
-4505.86664742616
 20
-311.9976607119183
 30
0.0
 40
5.276926612105405
 50
159.9036373035783
 51
170.5001303307822
  0
ARC
  5
252
  8
0
  6
CONTINUOUS
 62
     7
 10
-4377.807775235702
 20
-306.9519299032229
 30
0.0
 40
21.06606086889607
 50
333.511045813207
 51
345.8607731019524
  0
LINE
  5
253
  8
0
  6
CONTINUOUS
 62
     7
 10
-4495.176215556586
 20
-181.4156491999715
 30
0.0
 11
-4495.176215556586
 21
-185.5979254817174
 31
0.0
  0
ARC
  5
254
  8
0
  6
CONTINUOUS
 62
     7
 10
-4365.536527384708
 20
-310.7250981677188
 30
0.0
 40
7.15156589180005
 50
64.97401969699834
 51
76.64183142819199
  0
LINE
  5
255
  8
0
  6
CONTINUOUS
 62
     7
 10
-4460.249999999997
 20
1013.820138271603
 30
0.0
 11
-4460.24999999999
 21
2363.820138271537
 31
0.0
  0
ARC
  5
256
  8
0
  6
CONTINUOUS
 62
     7
 10
-4365.3282217354
 20
-314.3479688005627
 30
0.0
 40
6.249956677479351
 50
270.0000000073443
 51
283.3581685864991
  0
LINE
  5
257
  8
0
  6
CONTINUOUS
 62
     7
 10
-4374.676215556585
 20
-188.5550945569342
 30
0.0
 11
-4374.676215556585
 21
-189.0979254817175
 31
0.0
  0
LINE
  5
258
  8
0
  6
CONTINUOUS
 62
   253
 10
-4459.811111111057
 20
1013.820138271603
 30
0.0
 11
-4459.81111111105
 21
2363.820138271537
 31
0.0
  0
LINE
  5
259
  8
0
  6
CONTINUOUS
 62
     7
 10
-4408.188888888855
 20
2363.820138271536
 30
0.0
 11
-4459.811111111027
 21
2363.820138271538
 31
0.0
  0
ARC
  5
25A
  8
0
  6
CONTINUOUS
 62
     7
 10
-4365.328221735978
 20
-309.84788215552
 30
0.0
 40
6.249956677477853
 50
76.64183142819331
 51
89.99999999984533
  0
ARC
  5
25B
  8
0
  6
CONTINUOUS
 62
     7
 10
-4507.571778264437
 20
-311.1260449071044
 30
0.0
 40
2.528119426367603
 50
90.00000000734714
 51
117.7624206702573
  0
ARC
  5
25C
  8
0
  6
CONTINUOUS
 62
     7
 10
-4506.284043820891
 20
-312.0979254805711
 30
0.0
 40
4.318823356666002
 50
162.1717320674179
 51
180.0000000073593
  0
ARC
  5
25D
  8
0
  6
CONTINUOUS
 62
     7
 10
-4390.498943928254
 20
-298.4737087141681
 30
0.0
 40
21.00369283414392
 50
333.492638631245
 51
345.8791802839128
  0
ARC
  5
25E
  8
0
  6
CONTINUOUS
 62
     7
 10
-4507.503303511187
 20
-312.4900505999018
 30
0.0
 40
3.038059404335344
 50
197.8282679472167
 51
223.2790579860347
  0
ARC
  5
25F
  8
0
  6
CONTINUOUS
 62
     7
 10
-4507.033926801111
 20
-312.0480561636662
 30
0.0
 40
3.682786926336171
 50
223.2790579860379
 51
242.2375793444172
  0
ARC
  5
260
  8
0
  6
CONTINUOUS
 62
     7
 10
-4505.267480422781
 20
-312.0979254804424
 30
0.0
 40
5.884424860453485
 50
180.0000000073411
 51
189.4998696838536
  0
ARC
  5
261
  8
0
  6
CONTINUOUS
 62
     7
 10
-4386.834360457048
 20
-181.7635924674893
 30
0.0
 40
12.16021674188105
 50
335.3802998584927
 51
358.9423270579237
  0
ARC
  5
262
  8
0
  6
CONTINUOUS
 62
     7
 10
-4367.882501075529
 20
-311.927907096058
 30
0.0
 40
9.961661189563046
 50
333.6644605908907
 51
339.9036373035642
  0
ARC
  5
263
  8
0
  6
CONTINUOUS
 62
     7
 10
-4384.363829397759
 20
-320.8838574491996
 30
0.0
 40
28.55931553986096
 50
27.15834169358834
 51
37.24785766373935
  0
LINE
  5
264
  8
0
  6
CONTINUOUS
 62
     7
 10
-4408.099999999776
 20
-308.597925480737
 30
0.0
 11
-4408.100000000225
 21
-315.5979254807369
 31
0.0
  0
LINE
  5
265
  8
0
  6
CONTINUOUS
 62
     7
 10
-4408.188888888862
 20
1013.820138271602
 30
0.0
 11
-4459.811111111034
 21
1013.820138271605
 31
0.0
  0
ARC
  5
266
  8
0
  6
CONTINUOUS
 62
     7
 10
-4365.235461592854
 20
-314.1156268640705
 30
0.0
 40
6.439875520740336
 50
295.0259803177158
 51
308.5462005246982
  0
ARC
  5
267
  8
0
  6
CONTINUOUS
 62
     7
 10
-4507.640253017436
 20
-311.7058003615719
 30
0.0
 40
3.038059404335344
 50
17.82826794721667
 51
43.2790579860347
  0
ARC
  5
268
  8
0
  6
CONTINUOUS
 62
     7
 10
-4506.82177826448
 20
-310.7870681726798
 30
0.0
 40
3.689142692039127
 50
62.80379003507743
 51
90.00000000735234
  0
ARC
  5
269
  8
0
  6
CONTINUOUS
 62
     7
 10
-4396.337097310718
 20
-328.8946644624052
 30
0.0
 40
27.64504449253909
 50
26.9910482549719
 51
37.41515110235301
  0
LINE
  5
26A
  8
0
  6
CONTINUOUS
 62
     7
 10
-4496.676215556585
 20
-181.1703320844954
 30
0.0
 11
-4496.676215556585
 21
-177.0979254817174
 31
0.0
  0
LINE
  5
26B
  8
0
  6
CONTINUOUS
 62
     7
 10
-4381.676215556586
 20
-190.2807307013182
 30
0.0
 11
-4375.779593456509
 21
-190.2807307013182
 31
0.0
  0
ARC
  5
26C
  8
0
  6
CONTINUOUS
 62
     7
 10
-4506.296871002143
 20
-312.3872575158098
 30
0.0
 40
4.837638019262501
 50
222.1466366047065
 51
242.8037900350836
  0
ARC
  5
26D
  8
0
  6
CONTINUOUS
 62
     7
 10
-4367.970528066258
 20
-312.0979254783813
 30
0.0
 40
10.00352226273726
 50
350.5001303308077
 51
0.0000000073527531
  0
ARC
  5
26E
  8
0
  6
CONTINUOUS
 62
     7
 10
-4505.121540099151
 20
-312.2702776379152
 30
0.0
 40
6.070340071218774
 50
151.0090283496472
 51
159.9036373035799
  0
LINE
  5
26F
  8
0
  6
CONTINUOUS
 62
   251
 10
-4480.159420289812
 20
2458.344876603177
 30
0.0
 11
-4463.044129620395
 21
2458.344876603176
 31
0.0
  0
LINE
  5
270
  8
0
  6
CONTINUOUS
 62
   251
 10
-4405.99999999932
 20
-355.5979254817169
 30
0.0
 11
-4405.999999999321
 21
-358.5979254817174
 31
0.0
  0
ARC
  5
271
  8
0
  6
CONTINUOUS
 62
     7
 10
-4505.267480422794
 20
-312.0979254804424
 30
0.0
 40
5.884424860440163
 50
170.5001303308063
 51
180.0000000073411
  0
ARC
  5
272
  8
0
  6
CONTINUOUS
 62
     7
 10
-4507.571778264187
 20
-313.0698060543693
 30
0.0
 40
2.528119426367603
 50
270.0000000073471
 51
297.7624206702572
  0
ARC
  5
273
  8
0
  6
CONTINUOUS
 62
     7
 10
-4407.258336174028
 20
-358.5979254817178
 30
0.0
 40
5.033617073592289
 50
359.9999999999998
 51
6.603301231797843
  0
LINE
  5
274
  8
0
  6
CONTINUOUS
 62
   251
 10
-4461.999999999409
 20
2453.417536603919
 30
0.0
 11
-4465.77528089828
 21
2453.388550859195
 31
0.0
  0
ARC
  5
275
  8
0
  6
CONTINUOUS
 62
     7
 10
-4506.806515938564
 20
-312.8761374272785
 30
0.0
 40
4.109086887676139
 50
317.8533634100161
 51
331.0090283496056
  0
ARC
  5
276
  8
0
  6
CONTINUOUS
 62
     7
 10
-4508.109629727521
 20
-312.048056163809
 30
0.0
 40
3.682786926329955
 50
297.7624206702646
 51
316.720942028678
  0
LINE
  5
277
  8
0
  6
CONTINUOUS
 62
   251
 10
-4402.224719100435
 20
-358.5979254817183
 30
0.0
 11
-4402.224719100444
 21
-444.5844018226082
 31
0.0
  0
LINE
  5
278
  8
0
  6
CONTINUOUS
 62
     7
 10
-4407.99999999939
 20
2364.402074518291
 30
0.0
 11
-4407.99999999939
 21
2363.820138271534
 31
0.0
  0
ARC
  5
279
  8
0
  6
CONTINUOUS
 62
     7
 10
-4362.773942395848
 20
-312.2679438600268
 30
0.0
 40
9.96166118956409
 50
150.6912071634167
 51
153.6644605908901
  0
ARC
  5
27A
  8
0
  6
CONTINUOUS
 62
     7
 10
-4405.370786516231
 20
2456.520106808188
 30
0.0
 40
1.868444050877827
 50
70.36675583769085
 51
77.18989022905926
  0
ARC
  5
27B
  8
0
  6
CONTINUOUS
 62
     7
 10
-4508.522016429473
 20
-311.9255733233662
 30
0.0
 40
6.070340071218774
 50
331.0090283496472
 51
339.9036373035799
  0
LINE
  5
27C
  8
0
  6
CONTINUOUS
 62
   253
 10
-4463.887640448841
 20
2364.402074518303
 30
0.0
 11
-4481.499999999233
 21
2364.402074518307
 31
0.0
  0
LINE
  5
27D
  8
0
  6
CONTINUOUS
 62
   253
 10
-4404.112359549964
 20
2364.40207451829
 30
0.0
 11
-4405.999999999404
 21
2364.40207451829
 31
0.0
  0
ARC
  5
27E
  8
0
  6
CONTINUOUS
 62
     7
 10
-4365.328221735978
 20
-309.8478821555216
 30
0.0
 40
6.249956677479351
 50
90.00000000734433
 51
103.3581685864991
  0
ARC
  5
27F
  8
0
  6
CONTINUOUS
 62
     7
 10
-4507.346685526481
 20
-311.8085934454716
 30
0.0
 40
4.837638019262501
 50
42.1466366047066
 51
62.80379003508369
  0
LINE
  5
280
  8
0
  6
CONTINUOUS
 62
   251
 10
-4402.224719100525
 20
2453.388550859065
 30
0.0
 11
-4405.999999999409
 21
2453.417536603792
 31
0.0
  0
ARC
  5
281
  8
0
  6
CONTINUOUS
 62
     7
 10
-4505.86664742615
 20
-312.1981902491234
 30
0.0
 40
5.276926612089301
 50
189.4998696838915
 51
200.0963627111279
  0
LINE
  5
282
  8
0
  6
CONTINUOUS
 62
   251
 10
-4484.499999999232
 20
2367.402074518308
 30
0.0
 11
-4465.77528089829
 21
2367.402074518303
 31
0.0
  0
ARC
  5
283
  8
0
  6
CONTINUOUS
 62
     7
 10
-4506.82177826448
 20
-310.7870681726853
 30
0.0
 40
3.689142692044678
 50
90.00000000735234
 51
117.1962099795962
  0
ARC
  5
284
  8
0
  6
CONTINUOUS
 62
     7
 10
-4506.83704059006
 20
-311.319713534003
 30
0.0
 40
4.109086887676139
 50
137.8533634100161
 51
151.0090283496056
  0
ARC
  5
285
  8
0
  6
CONTINUOUS
 62
     7
 10
-4463.713794897294
 20
2366.383531564566
 30
0.0
 40
1.86869441757606
 50
199.8585953859028
 51
216.1664144592169
  0
LINE
  5
286
  8
0
  6
CONTINUOUS
 62
   251
 10
-4465.77528089829
 20
2367.402074518306
 30
0.0
 11
-4465.775280898281
 21
2453.388550859195
 31
0.0
  0
ARC
  5
287
  8
0
  6
CONTINUOUS
 62
     7
 10
-4366.951944160552
 20
-312.2683755848663
 30
0.0
 40
8.970775240584082
 50
339.9036373035638
 51
350.5001303307624
  0
ARC
  5
288
  8
0
  6
CONTINUOUS
 62
     7
 10
-4508.109629727513
 20
-312.1477947978076
 30
0.0
 40
3.682786926336171
 50
43.27905798603788
 51
62.23757934441723
  0
ARC
  5
289
  8
0
  6
CONTINUOUS
 62
     7
 10
-4506.821778264144
 20
-313.4087827886017
 30
0.0
 40
3.689142692039127
 50
242.8037900350774
 51
269.9999999998759
  0
ARC
  5
28A
  8
0
  6
CONTINUOUS
 62
     7
 10
-4367.970528066202
 20
-312.0979254783813
 30
0.0
 40
10.00352226268042
 50
0.0000000073527609
 51
9.499869683952495
  0
ARC
  5
28B
  8
0
  6
CONTINUOUS
 62
     7
 10
-4365.119916087025
 20
-310.7250981676596
 30
0.0
 40
7.151565891794212
 50
103.3581685865122
 51
115.0259803177165
  0
ARC
  5
28C
  8
0
  6
CONTINUOUS
 62
     7
 10
-4506.284043820883
 20
-312.0979254805711
 30
0.0
 40
4.318823356674883
 50
180.0000000073592
 51
197.8282679472648
  0
ARC
  5
28D
  8
0
  6
CONTINUOUS
 62
     7
 10
-4364.896967851308
 20
-313.1197218644314
 30
0.0
 40
7.526982662937767
 50
209.3087928512819
 51
221.5109942323998
  0
LINE
  5
28E
  8
0
  6
CONTINUOUS
 62
     7
 10
-4370.129910685923
 20
-303.597925478113
 30
0.0
 11
-4365.328221735961
 21
-303.5979254780422
 31
0.0
  0
ARC
  5
28F
  8
0
  6
CONTINUOUS
 62
   251
 10
-4434.000000000165
 20
2111.402074518296
 30
0.0
 40
348.1330239619788
 50
85.3197670385188
 51
94.68023296122128
  0
LINE
  5
290
  8
0
  6
CONTINUOUS
 62
   253
 10
-4404.741573033362
 20
-345.5979254817159
 30
0.0
 11
-4404.741573033363
 21
-355.5979254817158
 31
0.0
  0
LINE
  5
291
  8
0
  6
CONTINUOUS
 62
     7
 10
-4373.078221735962
 20
-303.5979254784914
 30
0.0
 11
-4370.129910685923
 21
-303.597925478113
 31
0.0
  0
LINE
  5
292
  8
0
  6
CONTINUOUS
 62
     7
 10
-4373.078221735962
 20
-303.5979254784914
 30
0.0
 11
-4377.328221735689
 21
-312.0979254784913
 31
0.0
  0
LINE
  5
293
  8
0
  6
CONTINUOUS
 62
   253
 10
-4404.741573033104
 20
2364.40207451829
 30
0.0
 11
-4404.741573033343
 21
-145.5979254817161
 31
0.0
  0
LINE
  5
294
  8
0
  6
CONTINUOUS
 62
   251
 10
-4402.224719100534
 20
2367.402074518289
 30
0.0
 11
-4402.224719100525
 21
2453.388550859065
 31
0.0
  0
LINE
  5
295
  8
0
  6
CONTINUOUS
 62
     7
 10
-4365.328221735962
 20
-303.5979254780422
 30
0.0
 11
-4361.629910685923
 21
-303.597925478113
 31
0.0
  0
ARC
  5
296
  8
0
  6
CONTINUOUS
 62
     7
 10
-4507.571778264187
 20
-313.0698060543714
 30
0.0
 40
2.528119426365549
 50
242.2375793444178
 51
270.0000000073471
  0
ARC
  5
297
  8
0
  6
CONTINUOUS
 62
     7
 10
-4363.982929041041
 20
-312.3107359070482
 30
0.0
 40
8.747607595469207
 50
221.5109942323997
 51
231.4537994900223
  0
ARC
  5
298
  8
0
  6
CONTINUOUS
 62
     7
 10
-4506.296871002224
 20
-311.808593445329
 30
0.0
 40
4.837638019252584
 50
117.1962099795936
 51
137.8533634100179
  0
ARC
  5
299
  8
0
  6
CONTINUOUS
 62
     7
 10
-4364.896967851574
 20
-311.0761290915377
 30
0.0
 40
7.526982662931057
 50
138.4890057823065
 51
150.6912071634341
  0
ARC
  5
29A
  8
0
  6
CONTINUOUS
 62
     7
 10
-4507.640253017333
 20
-312.4900505999223
 30
0.0
 40
3.038059404331529
 50
316.7209420286774
 51
342.1717320675222
  0
ARC
  5
29B
  8
0
  6
CONTINUOUS
 62
     7
 10
-4367.882501075531
 20
-312.2679438606975
 30
0.0
 40
9.961661189611066
 50
20.09636271113639
 51
26.33553941326017
  0
LINE
  5
29C
  8
0
  6
CONTINUOUS
 62
   253
 10
-4481.499999999492
 20
-355.5979254816967
 30
0.0
 11
-4477.0
 21
-355.5979254816978
 31
0.0
  0
ARC
  5
29D
  8
0
  6
CONTINUOUS
 62
     7
 10
-4366.951944160561
 20
-311.9274753716214
 30
0.0
 40
8.970775240546708
 50
9.499869683896002
 51
20.0963627111378
  0
LINE
  5
29E
  8
0
  6
CONTINUOUS
 62
   251
 10
-4405.999999999418
 20
2367.40207451829
 30
0.0
 11
-4402.224719100535
 21
2367.402074518289
 31
0.0
  0
ARC
  5
29F
  8
0
  6
CONTINUOUS
 62
     7
 10
-4506.80651593875
 20
-311.3197135339884
 30
0.0
 40
4.109086887658271
 50
28.99097166506897
 51
42.14663660471331
  0
ARC
  5
2A0
  8
0
  6
CONTINUOUS
 62
     7
 10
-4506.837040589874
 20
-312.8761374272931
 30
0.0
 40
4.109086887658271
 50
208.9909716650688
 51
222.1466366047133
  0
ARC
  5
2A1
  8
0
  6
CONTINUOUS
 62
     7
 10
-4462.508206238541
 20
2367.26480430672
 30
0.0
 40
3.362041550756781
 50
216.1664144592189
 51
230.2026772204567
  0
ARC
  5
2A2
  8
0
  6
CONTINUOUS
 62
     7
 10
-4383.587097314004
 20
-303.8011864935776
 30
0.0
 40
27.64504449551331
 50
322.584848901728
 51
333.0089517479311
  0
ARC
  5
2A3
  8
0
  6
CONTINUOUS
 62
     7
 10
-4463.887640448841
 20
2365.608998626534
 30
0.0
 40
1.206924108229757
 50
230.2026772202336
 51
270.0
  0
LINE
  5
2A4
  8
0
  6
CONTINUOUS
 62
     7
 10
-4361.629910685378
 20
-320.5979254781129
 30
0.0
 11
-4365.328221735416
 21
-320.5979254780421
 31
0.0
  0
LINE
  5
2A5
  8
0
  6
CONTINUOUS
 62
     7
 10
-4383.276215556585
 20
-182.3969176618764
 30
0.0
 11
-4383.276215556585
 21
-191.5979254817174
 31
0.0
  0
ARC
  5
2A6
  8
0
  6
CONTINUOUS
 62
     7
 10
-4507.571778264437
 20
-311.1260449071024
 30
0.0
 40
2.528119426365549
 50
62.23757934441787
 51
90.00000000734713
  0
ARC
  5
2A7
  8
0
  6
CONTINUOUS
 62
     7
 10
-4508.859512707741
 20
-312.0979254809026
 30
0.0
 40
4.318823356674883
 50
0.0000000073592459
 51
17.82826794726486
  0
ARC
  5
2A8
  8
0
  6
CONTINUOUS
 62
     7
 10
-4404.112359549884
 20
-356.8048495899494
 30
0.0
 40
1.206924108232088
 50
50.20267722027705
 51
90.0
  0
ARC
  5
2A9
  8
0
  6
CONTINUOUS
 62
     7
 10
-4362.773942395847
 20
-311.9279070953866
 30
0.0
 40
9.961661189611105
 50
206.335539413261
 51
209.3087928512373
  0
ARC
  5
2AA
  8
0
  6
CONTINUOUS
 62
     7
 10
-4365.420981877998
 20
-314.1156268640765
 30
0.0
 40
6.439875520759487
 50
231.4537994900477
 51
244.9740196969974
  0
ARC
  5
2AB
  8
0
  6
CONTINUOUS
 62
     7
 10
-4362.773942395847
 20
-311.9279070953866
 30
0.0
 40
9.961661189611105
 50
200.096362711137
 51
206.335539413261
  0
LINE
  5
2AC
  8
0
  6
CONTINUOUS
 62
   251
 10
-4404.955870378763
 20
-449.5407275666795
 30
0.0
 11
-4405.594202897897
 21
-449.5701333946593
 31
0.0
  0
LINE
  5
2AD
  8
0
  6
CONTINUOUS
 62
   251
 10
-4484.499999999501
 20
-444.5844018225101
 30
0.0
 11
-4477.0
 21
-444.5844018225108
 31
0.0
  0
ARC
  5
2AE
  8
0
  6
CONTINUOUS
 62
     7
 10
-4506.821778264144
 20
-313.4087827885962
 30
0.0
 40
3.689142692044678
 50
270.0000000073523
 51
297.1962099795962
  0
ARC
  5
2AF
  8
0
  6
CONTINUOUS
 62
     7
 10
-4405.491793760207
 20
-358.4606552701492
 30
0.0
 40
3.362041550784141
 50
36.16641445921562
 51
50.20267722033111
  0
LINE
  5
2B0
  8
0
  6
CONTINUOUS
 62
   251
 10
-4383.499999999492
 20
-358.5979254817203
 30
0.0
 11
-4402.224719100434
 21
-358.5979254817157
 31
0.0
  0
LINE
  5
2B1
  8
0
  6
CONTINUOUS
 62
   251
 10
-4461.999999999418
 20
2367.402074518305
 30
0.0
 11
-4461.99999999941
 21
2453.417536603919
 31
0.0
  0
LINE
  5
2B2
  8
0
  6
CONTINUOUS
 62
   251
 10
-4461.999999999418
 20
2367.402074518305
 30
0.0
 11
-4405.999999999418
 21
2367.40207451829
 31
0.0
  0
LINE
  5
2B3
  8
0
  6
CONTINUOUS
 62
   251
 10
-4387.840579708913
 20
-449.5407275665902
 30
0.0
 11
-4404.95587037833
 21
-449.5407275665885
 31
0.0
  0
LINE
  5
2B4
  8
0
  6
CONTINUOUS
 62
   251
 10
-4405.594202897928
 20
2458.374282431118
 30
0.0
 11
-4404.955870378794
 21
2458.344876603135
 31
0.0
  0
ARC
  5
2B5
  8
0
  6
CONTINUOUS
 62
     7
 10
-4461.956415230269
 20
2367.261452057
 30
0.0
 40
3.810753363294352
 50
186.6033012318777
 51
195.3291935945945
  0
LINE
  5
2B6
  8
0
  6
CONTINUOUS
 62
   251
 10
-4405.999999999307
 20
-358.5979254817174
 30
0.0
 11
-4405.999999999315
 21
-444.6133875673314
 31
0.0
  0
ARC
  5
2B7
  8
0
  6
CONTINUOUS
 62
     7
 10
-4508.37607610583
 20
-312.097925480839
 30
0.0
 40
5.884424860440163
 50
350.5001303308062
 51
0.0000000073411002
  0
LINE
  5
2B8
  8
0
  6
CONTINUOUS
 62
   251
 10
-4463.044129619961
 20
2458.344876603267
 30
0.0
 11
-4462.405797100828
 21
2458.374282431246
 31
0.0
  0
ARC
  5
2B9
  8
0
  6
CONTINUOUS
 62
     7
 10
-4507.776909102474
 20
-311.9976607121581
 30
0.0
 40
5.276926612089301
 50
9.49986968389163
 51
20.09636271112788
  0
LINE
  5
2BA
  8
0
  6
CONTINUOUS
 62
   251
 10
-4402.224719100534
 20
2367.402074518288
 30
0.0
 11
-4383.499999999232
 21
2367.402074518283
 31
0.0
  0
ARC
  5
2BB
  8
0
  6
CONTINUOUS
 62
     7
 10
-4460.741663824687
 20
2367.402074518305
 30
0.0
 40
5.033617073602059
 50
179.9999999999999
 51
186.6033012317913
  0
LINE
  5
2BC
  8
0
  6
CONTINUOUS
 62
   251
 10
-4405.999999999403
 20
2367.40207451829
 30
0.0
 11
-4405.999999999404
 21
2364.40207451829
 31
0.0
  0
ARC
  5
2BD
  8
0
  6
CONTINUOUS
 62
     7
 10
-4459.163042466248
 20
2368.027162395019
 30
0.0
 40
6.707172483609121
 50
195.3291935945929
 51
199.8585953862539
  0
LINE
  5
2BE
  8
0
  6
CONTINUOUS
 62
   253
 10
-4437.0
 20
-355.5979254817091
 30
0.0
 11
-4405.99999999932
 21
-355.5979254817169
 31
0.0
  0
LINE
  5
2BF
  8
0
  6
CONTINUOUS
 62
   251
 10
-4402.224719100444
 20
-444.5844018225543
 30
0.0
 11
-4383.499999999501
 21
-444.5844018225774
 31
0.0
  0
LINE
  5
2C0
  8
0
  6
CONTINUOUS
 62
   251
 10
-4465.775280898281
 20
2453.388550859142
 30
0.0
 11
-4484.499999999224
 21
2453.388550859165
 31
0.0
  0
ARC
  5
2C1
  8
0
  6
CONTINUOUS
 62
     7
 10
-4507.776909102464
 20
-312.1981902493631
 30
0.0
 40
5.276926612105405
 50
339.9036373035784
 51
350.5001303307822
  0
LINE
  5
2C2
  8
0
  6
CONTINUOUS
 62
   251
 10
-4465.77528089829
 20
2367.402074518306
 30
0.0
 11
-4461.999999999418
 21
2367.402074518305
 31
0.0
  0
ARC
  5
2C3
  8
0
  6
CONTINUOUS
 62
     7
 10
-4508.376076105844
 20
-312.097925480839
 30
0.0
 40
5.884424860453485
 50
0.0000000073411002
 51
9.499869683853547
  0
LINE
  5
2C4
  8
0
  6
CONTINUOUS
 62
   253
 10
-4386.499999999233
 20
2364.402074518284
 30
0.0
 11
-4404.112359549963
 21
2364.402074518288
 31
0.0
  0
LINE
  5
2C5
  8
0
  6
CONTINUOUS
 62
   251
 10
-4404.955870378954
 20
2458.344876603157
 30
0.0
 11
-4387.840579710121
 21
2458.344876603147
 31
0.0
  0
LINE
  5
2C6
  8
0
  6
CONTINUOUS
 62
   251
 10
-4405.999999999418
 20
2367.40207451829
 30
0.0
 11
-4405.99999999941
 21
2453.417536603792
 31
0.0
  0
LINE
  5
2C7
  8
0
  6
CONTINUOUS
 62
     7
 10
-4409.600000000321
 20
-317.0979254806406
 30
0.0
 11
-4409.599999999679
 21
-307.0979254806406
 31
0.0
  0
CIRCLE
  5
2C8
  8
0
  6
CONTINUOUS
 62
   253
 10
-4434.000000000185
 20
2414.402074518294
 30
0.0
 40
24.99999999999998
  0
ARC
  5
2C9
  8
0
  6
CONTINUOUS
 62
     7
 10
-4404.28620510143
 20
-357.5793825279785
 30
0.0
 40
1.868694417575114
 50
19.85859538590091
 51
36.16641445922329
  0
LINE
  5
2CA
  8
0
  6
CONTINUOUS
 62
   251
 10
-4405.999999999307
 20
-358.5979254817174
 30
0.0
 11
-4437.0
 21
-358.5979254817094
 31
0.0
  0
ARC
  5
2CB
  8
0
  6
CONTINUOUS
 62
     7
 10
-4508.522016429335
 20
-312.2702776383179
 30
0.0
 40
6.07034007112019
 50
20.09636271112635
 51
28.99097166520965
  0
ARC
  5
2CC
  8
0
  6
CONTINUOUS
 62
     7
 10
-4507.346685526401
 20
-312.3872575159525
 30
0.0
 40
4.837638019252584
 50
297.1962099795936
 51
317.8533634100179
  0
ARC
  5
2CD
  8
0
  6
CONTINUOUS
 62
   251
 10
-4434.000000000186
 20
2111.402074518296
 30
0.0
 40
343.1596950482363
 50
85.31976703851872
 51
94.68023296122136
  0
LINE
  5
2CE
  8
0
  6
CONTINUOUS
 62
   251
 10
-4477.0
 20
-358.5979254816974
 30
0.0
 11
-4484.499999999493
 21
-358.5979254816957
 31
0.0
  0
ARC
  5
2CF
  8
0
  6
CONTINUOUS
 62
     7
 10
-3861.351116169134
 20
-391.6012689486692
 30
0.0
 40
138.4022054542529
 50
267.2894672219404
 51
267.4638607518949
  0
ARC
  5
2D0
  8
0
  6
CONTINUOUS
 62
     7
 10
-3866.265911930735
 20
-532.2255924932159
 30
0.0
 40
2.356717691926741
 50
89.06752768465981
 51
93.87543848500343
  0
ARC
  5
2D1
  8
0
  6
CONTINUOUS
 62
     7
 10
-3858.792780810843
 20
-404.5800955564413
 30
0.0
 40
125.6127059176743
 50
264.8435699680379
 51
265.3435743387829
  0
LINE
  5
2D2
  8
0
  6
CONTINUOUS
 62
     7
 10
-4380.933818847085
 20
-306.0224380136879
 30
0.0
 11
-4381.780911533421
 21
-308.3231434071895
 31
0.0
  0
ARC
  5
2D3
  8
0
  6
CONTINUOUS
 62
     7
 10
-3877.591368126738
 20
-524.5822981584456
 30
0.0
 40
3.969154477766696
 50
252.1888664097731
 51
256.7313500200946
  0
ARC
  5
2D4
  8
0
  6
CONTINUOUS
 62
     7
 10
-3889.14857903402
 20
-652.9604475407311
 30
0.0
 40
125.6127059146656
 50
80.72073055599607
 51
81.22073492675318
  0
ARC
  5
2D5
  8
0
  6
CONTINUOUS
 62
     7
 10
-3866.916774143034
 20
-517.2569950431476
 30
0.0
 40
12.62328015667761
 50
267.4638607519024
 51
269.3760071740745
  0
ARC
  5
2D6
  8
0
  6
CONTINUOUS
 62
     7
 10
-3861.351116169134
 20
-391.6012689486692
 30
0.0
 40
138.4022054542529
 50
267.2894672219404
 51
267.4638607518949
  0
ARC
  5
2D7
  8
0
  6
CONTINUOUS
 62
     7
 10
-3864.167802070298
 20
-464.1434242133593
 30
0.0
 40
65.80734684148771
 50
263.7189024213831
 51
264.843569968038
  0
ARC
  5
2D8
  8
0
  6
CONTINUOUS
 62
     7
 10
-4352.697416295099
 20
-301.7259290873798
 30
0.0
 40
6.676126040568032
 50
128.5952913892557
 51
133.8132283144618
  0
ARC
  5
2D9
  8
0
  6
CONTINUOUS
 62
     7
 10
-4496.921778265284
 20
-315.0097462520321
 30
0.0
 40
8.08817922968208
 50
256.6418314135167
 51
269.9999999926637
  0
ARC
  5
2DA
  8
0
  6
CONTINUOUS
 62
     7
 10
-3878.493400224058
 20
-531.9629984841187
 30
0.0
 40
3.969154477752453
 50
89.33295487465988
 51
93.87543848500215
  0
ARC
  5
2DB
  8
0
  6
CONTINUOUS
 62
     7
 10
-3865.166267547558
 20
-464.021396781436
 30
0.0
 40
65.80734684121683
 50
261.2207349267532
 51
262.3454024734127
  0
ARC
  5
2DC
  8
0
  6
CONTINUOUS
 62
     7
 10
-3866.219466250164
 20
-529.3719887170047
 30
0.0
 40
0.4972640376662606
 50
269.0675276845566
 51
292.0000728332649
  0
ARC
  5
2DD
  8
0
  6
CONTINUOUS
 62
     7
 10
-3873.572983875077
 20
-109.3433848845733
 30
0.0
 40
418.6791015177932
 50
269.3329548747377
 51
269.3760071740746
  0
ARC
  5
2DE
  8
0
  6
CONTINUOUS
 62
     7
 10
-3879.229123846252
 20
-528.1276109634456
 30
0.0
 40
0.0649341559255267
 50
173.0321524474443
 51
251.8133021071254
  0
ARC
  5
2DF
  8
0
  6
CONTINUOUS
 62
     7
 10
-4496.652206248988
 20
-313.8745255304343
 30
0.0
 40
9.254967624685648
 50
244.9740196823122
 51
256.6418314135017
  0
ARC
  5
2E0
  8
0
  6
CONTINUOUS
 62
     7
 10
-4495.180811248314
 20
-311.8225237500588
 30
0.0
 40
11.32043335883373
 50
128.5462005099836
 51
133.427334861544
  0
ARC
  5
2E1
  8
0
  6
CONTINUOUS
 62
     7
 10
-3865.957738812635
 20
-529.7495729383177
 30
0.0
 40
0.0649341559255267
 50
274.2510027877138
 51
353.0321524473471
  0
ARC
  5
2E2
  8
0
  6
CONTINUOUS
 62
     7
 10
-4350.879666958077
 20
-303.8713753120617
 30
0.0
 40
9.478749633102476
 50
136.4375371174681
 51
140.4755996788256
  0
ARC
  5
2E3
  8
0
  6
CONTINUOUS
 62
     7
 10
-3850.429522194869
 20
-392.9360512601538
 30
0.0
 40
138.4022054647124
 50
258.6004441429167
 51
258.774837672858
  0
ARC
  5
2E4
  8
0
  6
CONTINUOUS
 62
     7
 10
-3974.596419661252
 20
-935.9477903491257
 30
0.0
 40
418.6791013905077
 50
76.68829772071562
 51
76.7313500200658
  0
ARC
  5
2E5
  8
0
  6
CONTINUOUS
 62
     7
 10
-3859.576883886998
 20
-422.4332511393557
 30
0.0
 40
107.7694138500263
 50
263.0321524473971
 51
263.7189024213893
  0
ARC
  5
2E6
  8
0
  6
CONTINUOUS
 62
     7
 10
-3878.967396408724
 20
-528.5051951847587
 30
0.0
 40
0.4972640376662606
 50
89.06752768455654
 51
112.0000728332649
  0
ARC
  5
2E7
  8
0
  6
CONTINUOUS
 62
     7
 10
-3846.38805616998
 20
-299.3618489224372
 30
0.0
 40
232.6161220698014
 50
264.8435699680383
 51
265.3435743387834
  0
LINE
  5
2E8
  8
0
  6
CONTINUOUS
 62
     7
 10
-4358.508600876255
 20
-302.344018093936
 30
0.0
 11
-4364.486008828438
 21
-299.4096029510317
 31
0.0
  0
ARC
  5
2E9
  8
0
  6
CONTINUOUS
 62
     7
 10
-3885.609978771937
 20
-635.4439327627957
 30
0.0
 40
107.7694138504173
 50
82.3454024734074
 51
83.03215244739707
  0
ARC
  5
2EA
  8
0
  6
CONTINUOUS
 62
     7
 10
-3879.229123846252
 20
-528.1276109634456
 30
0.0
 40
0.0649341559255267
 50
94.25100278771392
 51
173.0321524474443
  0
ARC
  5
2EB
  8
0
  6
CONTINUOUS
 62
     7
 10
-3867.59549453215
 20
-533.2948857433178
 30
0.0
 40
3.969154477766696
 50
72.18886640977308
 51
76.73135002009472
  0
ARC
  5
2EC
  8
0
  6
CONTINUOUS
 62
     7
 10
-3878.920950728153
 20
-525.6515914085475
 30
0.0
 40
2.356717691926741
 50
269.0675276846598
 51
273.8754384850034
  0
ARC
  5
2ED
  8
0
  6
CONTINUOUS
 62
     7
 10
-3871.61387878381
 20
-948.5337990171901
 30
0.0
 40
418.6791015177932
 50
89.3329548747376
 51
89.37600717407469
  0
ARC
  5
2EE
  8
0
  6
CONTINUOUS
 62
     7
 10
-3841.287135454684
 20
-299.9852578164308
 30
0.0
 40
232.6161220676669
 50
260.8706954992794
 51
261.2207349267536
  0
ARC
  5
2EF
  8
0
  6
CONTINUOUS
 62
     7
 10
-4911.692435958069
 20
-412.1853863832108
 30
0.0
 40
107.7859867846164
 50
289.5432444222398
 51
295.2730101699271
  0
ARC
  5
2F0
  8
0
  6
CONTINUOUS
 62
     7
 10
-3865.166267547558
 20
-464.021396781436
 30
0.0
 40
65.80734684121683
 50
261.2207349267532
 51
262.3454024734127
  0
ARC
  5
2F1
  8
0
  6
CONTINUOUS
 62
     7
 10
-3894.757340464011
 20
-664.94113264157
 30
0.0
 40
138.402205464672
 50
78.60044414291681
 51
78.77483767285811
  0
ARC
  5
2F2
  8
0
  6
CONTINUOUS
 62
     7
 10
-3869.897168384414
 20
-541.6434850733622
 30
0.0
 40
12.62328015649031
 50
76.68829772071558
 51
78.60044414291536
  0
ARC
  5
2F3
  8
0
  6
CONTINUOUS
 62
     7
 10
-3847.840098903409
 20
-332.4232481485324
 30
0.0
 40
199.5729886127297
 50
262.3454024734096
 51
263.0321524473963
  0
ARC
  5
2F4
  8
0
  6
CONTINUOUS
 62
     7
 10
-3851.125714240098
 20
-275.3269848178022
 30
0.0
 40
256.3003804870602
 50
267.2894672219348
 51
267.463860751878
  0
ARC
  5
2F5
  8
0
  6
CONTINUOUS
 62
     7
 10
-4368.993100650401
 20
-310.6001734050083
 30
0.0
 40
12.86412881683234
 50
128.5462005172983
 51
138.4890057749503
  0
ARC
  5
2F6
  8
0
  6
CONTINUOUS
 62
     7
 10
-3865.660534760959
 20
-527.2722127992707
 30
0.0
 40
2.35671769190915
 50
252.1888664097668
 51
256.996777210157
  0
ARC
  5
2F7
  8
0
  6
CONTINUOUS
 62
     7
 10
-4906.537978991865
 20
-426.7062840569552
 30
0.0
 40
92.37738866967415
 50
282.8567423921745
 51
289.5432444222467
  0
ARC
  5
2F8
  8
0
  6
CONTINUOUS
 62
     7
 10
-4344.984701043893
 20
-308.2467629002326
 30
0.0
 40
16.84570491003953
 50
148.9441543901181
 51
153.8527629962032
  0
ARC
  5
2F9
  8
0
  6
CONTINUOUS
 62
     7
 10
-4347.974648581968
 20
-306.4462524252987
 30
0.0
 40
13.35548654283351
 50
142.7516481075554
 51
148.9441543901652
  0
ARC
  5
2FA
  8
0
  6
CONTINUOUS
 62
     7
 10
-4345.221289647108
 20
-308.5398302174357
 30
0.0
 40
16.81439582118947
 50
140.4755996787734
 51
142.7516481075568
  0
ARC
  5
2FB
  8
0
  6
CONTINUOUS
 62
     7
 10
-4367.215179113312
 20
-311.1631569513427
 30
0.0
 40
14.64950174936799
 50
150.691207156076
 51
159.4577637143199
  0
ARC
  5
2FC
  8
0
  6
CONTINUOUS
 62
     7
 10
-3879.253736949732
 20
-527.7964800699176
 30
0.0
 40
0.2671102289262453
 50
274.2510027879086
 51
292.0000728332494
  0
ARC
  5
2FD
  8
0
  6
CONTINUOUS
 62
     7
 10
-4348.131876209039
 20
-306.4846304966446
 30
0.0
 40
13.27077503653117
 50
133.8132283144671
 51
136.4375371174663
  0
ARC
  5
2FE
  8
0
  6
CONTINUOUS
 62
     7
 10
-4497.041820802697
 20
-314.7090684518676
 30
0.0
 40
8.333956556252767
 50
231.4537994753337
 51
244.9740196823153
  0
ARC
  5
2FF
  8
0
  6
CONTINUOUS
 62
     7
 10
-3866.369733432618
 20
-497.6066445442647
 30
0.0
 40
32.27809804033587
 50
265.3435743387654
 51
267.2894672219402
  0
ARC
  5
300
  8
0
  6
CONTINUOUS
 62
     7
 10
-3974.596419661252
 20
-935.9477903491257
 30
0.0
 40
418.6791013905077
 50
76.68829772071562
 51
76.7313500200658
  0
ARC
  5
301
  8
0
  6
CONTINUOUS
 62
     7
 10
-4496.921778264537
 20
-309.1861047114098
 30
0.0
 40
8.08817922968963
 50
89.99999999267006
 51
103.3581685718045
  0
ARC
  5
302
  8
0
  6
CONTINUOUS
 62
     7
 10
-4495.18081124839
 20
-312.3733272138251
 30
0.0
 40
11.32043335882739
 50
226.5726651257697
 51
231.4537994753568
  0
ARC
  5
303
  8
0
  6
CONTINUOUS
 62
     7
 10
-3879.33275966669
 20
-528.4430679180917
 30
0.0
 40
0.267110228927574
 50
54.06423206157174
 51
71.8133021068308
  0
ARC
  5
304
  8
0
  6
CONTINUOUS
 62
     7
 10
-3878.270088515854
 20
-540.6201888586156
 30
0.0
 40
12.62328015667761
 50
87.46386075190239
 51
89.37600717407446
  0
ARC
  5
305
  8
0
  6
CONTINUOUS
 62
     7
 10
-3858.190809386097
 20
-409.4383326723081
 30
0.0
 40
121.8654571135195
 50
261.2207349267537
 51
262.3454024734119
  0
ARC
  5
306
  8
0
  6
CONTINUOUS
 62
     7
 10
-3858.792780810843
 20
-404.5800955564413
 30
0.0
 40
125.6127059176743
 50
264.8435699680379
 51
265.3435743387829
  0
ARC
  5
307
  8
0
  6
CONTINUOUS
 62
     7
 10
-4977.404505467838
 20
-533.294885743363
 30
0.0
 40
3.969154477814036
 50
103.2686499799482
 51
107.8111335902162
  0
ARC
  5
308
  8
0
  6
CONTINUOUS
 62
     7
 10
-4470.598302826754
 20
-303.9018272312142
 30
0.0
 40
7.701110941670471
 50
135.0493000417152
 51
139.3853504214839
  0
ARC
  5
309
  8
0
  6
CONTINUOUS
 62
     7
 10
-4969.710305725607
 20
-516.2336988280481
 30
0.0
 40
12.62328015685218
 50
281.3995558571236
 51
283.3117022792665
  0
ARC
  5
30A
  8
0
  6
CONTINUOUS
 62
     7
 10
-4980.832197929716
 20
-464.1434242132197
 30
0.0
 40
65.80734684162796
 50
275.1564300319626
 51
276.2810975786151
  0
ARC
  5
30B
  8
0
  6
CONTINUOUS
 62
     7
 10
-4959.123121455053
 20
-551.387678905064
 30
0.0
 40
25.36026491782416
 50
97.17502763935123
 51
99.3262597270333
  0
ARC
  5
30C
  8
0
  6
CONTINUOUS
 62
     7
 10
-4983.648883830904
 20
-391.6012689478711
 30
0.0
 40
138.4022054550519
 50
272.5361392481056
 51
272.710532778059
  0
ARC
  5
30D
  8
0
  6
CONTINUOUS
 62
     7
 10
-4985.423116113132
 20
-422.433251138309
 30
0.0
 40
107.7694138510809
 50
276.2810975786185
 51
276.9678475526035
  0
LINE
  5
30E
  8
0
  6
CONTINUOUS
 62
   253
 10
-4437.0
 20
-299.4096029510337
 30
0.0
 11
-4437.71156821552
 21
-299.4096029510317
 31
0.0
  0
ARC
  5
30F
  8
0
  6
CONTINUOUS
 62
     7
 10
-4975.102831615507
 20
-541.6434850737152
 30
0.0
 40
12.62328015685218
 50
101.3995558571236
 51
103.3117022792666
  0
ARC
  5
310
  8
0
  6
CONTINUOUS
 62
     7
 10
-4973.91181420285
 20
-497.0299790116214
 30
0.0
 40
32.2780980406213
 50
279.2792694439889
 51
281.2251623271467
  0
ARC
  5
311
  8
0
  6
CONTINUOUS
 62
     7
 10
-4870.403580602804
 20
-935.9477892336354
 30
0.0
 40
418.6791002441901
 50
103.2686499797997
 51
103.3117022792679
  0
ARC
  5
312
  8
0
  6
CONTINUOUS
 62
     7
 10
-4978.780533749837
 20
-529.3719887170033
 30
0.0
 40
0.4972640376677257
 50
247.9999271666929
 51
270.9324723153385
  0
ARC
  5
313
  8
0
  6
CONTINUOUS
 62
     7
 10
-4973.386121215824
 20
-948.5337990502902
 30
0.0
 40
418.6791015508955
 50
90.62399282592605
 51
90.6670451252598
  0
ARC
  5
314
  8
0
  6
CONTINUOUS
 62
     7
 10
-4981.534969713428
 20
-373.355634400005
 30
0.0
 40
154.0769101964973
 50
277.1750276393441
 51
277.5290891138278
  0
ARC
  5
315
  8
0
  6
CONTINUOUS
 62
     7
 10
-4940.342031188914
 20
-685.0242431792643
 30
0.0
 40
160.302128358371
 50
96.41940303360997
 51
97.52908911382768
  0
LINE
  5
316
  8
0
  6
CONTINUOUS
 62
     7
 10
-4383.338560799777
 20
-185.5979254817174
 30
0.0
 11
-4383.276215556585
 21
-185.5979254817174
 31
0.0
  0
ARC
  5
317
  8
0
  6
CONTINUOUS
 62
     7
 10
-4989.81062212387
 20
-537.7225714908488
 30
0.0
 40
7.350286070030047
 50
103.2686499799483
 51
107.8111335902079
  0
LINE
  5
318
  8
0
  6
CONTINUOUS
 62
     7
 10
-4496.676215556585
 20
-184.0979254817173
 30
0.0
 11
-4495.926215556585
 21
-184.8479254817173
 31
0.0
  0
ARC
  5
319
  8
0
  6
CONTINUOUS
 62
   253
 10
-4479.499999999501
 20
-444.5844018225106
 30
0.0
 40
5.000000000000004
 50
179.9999999999946
 51
262.4215215934006
  0
ARC
  5
31A
  8
0
  6
CONTINUOUS
 62
     7
 10
-4468.340315960597
 20
-309.0386662041586
 30
0.0
 40
13.15126307149417
 50
103.1846913308797
 51
112.3385756535242
  0
ARC
  5
31B
  8
0
  6
CONTINUOUS
 62
     7
 10
-4963.751444639107
 20
-526.7043170140853
 30
0.0
 40
0.2481378939618412
 50
98.7110299071403
 51
113.4816043130813
  0
ARC
  5
31C
  8
0
  6
CONTINUOUS
 62
     7
 10
-4965.667240333307
 20
-528.4430679180954
 30
0.0
 40
0.2671102289325355
 50
108.1866978938215
 51
125.9357679385981
  0
ARC
  5
31D
  8
0
  6
CONTINUOUS
 62
     7
 10
-4965.943725900175
 20
-509.8560940746334
 30
0.0
 40
16.72765714449745
 50
278.4687824821253
 51
279.3262597270349
  0
ARC
  5
31E
  8
0
  6
CONTINUOUS
 62
     7
 10
-4992.204690931067
 20
-531.7190998288002
 30
0.0
 40
0.9208593290081313
 50
103.0032227897118
 51
125.9357679385268
  0
LINE
  5
31F
  8
0
  6
CONTINUOUS
 62
   253
 10
-4437.0
 20
-330.5979254817174
 30
0.0
 11
-4431.0
 21
-330.5979254817174
 31
0.0
  0
ARC
  5
320
  8
0
  6
CONTINUOUS
 62
     7
 10
-4992.84350308596
 20
-531.1571774074272
 30
0.0
 40
0.1202484368983457
 50
108.1866978924342
 51
186.967847552753
  0
ARC
  5
321
  8
0
  6
CONTINUOUS
 62
   253
 10
-4386.499999999492
 20
-358.5979254817201
 30
0.0
 40
3.000000000000003
 50
359.9999999999945
 51
89.99999999998568
  0
ARC
  5
322
  8
0
  6
CONTINUOUS
 62
     7
 10
-4868.770245440852
 20
-1321.156301573398
 30
0.0
 40
800.4478275799813
 50
96.3039167104007
 51
96.41940303360582
  0
ARC
  5
323
  8
0
  6
CONTINUOUS
 62
     7
 10
-5169.449606280987
 20
224.0653763089133
 30
0.0
 40
775.3316685207053
 50
283.2686499798881
 51
283.3117022792783
  0
LINE
  5
324
  8
0
  6
CONTINUOUS
 62
     7
 10
-4437.000000000003
 20
-295.5979254817175
 30
0.0
 11
-4526.5
 21
-295.5979254817175
 31
0.0
  0
ARC
  5
325
  8
0
  6
CONTINUOUS
 62
     7
 10
-4979.066874290846
 20
-530.0807038318476
 30
0.0
 40
0.2671102289284309
 50
67.99992716673461
 51
85.74899721193661
  0
ARC
  5
326
  8
0
  6
CONTINUOUS
 62
     7
 10
-5074.40955673831
 20
-121.929394668128
 30
0.0
 40
418.6791002441901
 50
283.2686499797996
 51
283.311702279268
  0
LINE
  5
327
  8
0
  6
CONTINUOUS
 62
     7
 10
-4341.500000000001
 20
-295.5979254817175
 30
0.0
 11
-4430.999999999998
 21
-295.5979254817175
 31
0.0
  0
ARC
  5
328
  8
0
  6
CONTINUOUS
 62
     7
 10
-4985.548263138148
 20
-553.1829406207902
 30
0.0
 40
23.37644473456686
 50
101.3995558571069
 51
103.3117022792787
  0
LINE
  5
329
  8
0
  6
CONTINUOUS
 62
   253
 10
-4987.368965465619
 20
-525.0423265550492
 30
0.0
 11
-4986.805183610388
 21
-529.6553607640274
 31
0.0
  0
ARC
  5
32A
  8
0
  6
CONTINUOUS
 62
     7
 10
-4994.570477806653
 20
-392.9360512525502
 30
0.0
 40
138.4022054724666
 50
281.2251623271468
 51
281.3995558570783
  0
ARC
  5
32B
  8
0
  6
CONTINUOUS
 62
     7
 10
-4962.974276543741
 20
-529.7994684544154
 30
0.0
 40
3.435572039652774
 50
98.46878248214968
 51
102.6446887069199
  0
ARC
  5
32C
  8
0
  6
CONTINUOUS
 62
     7
 10
-4963.929775358465
 20
-525.5404191124587
 30
0.0
 40
0.9293425393692047
 50
278.7110299070681
 51
282.6446887069384
  0
ARC
  5
32D
  8
0
  6
CONTINUOUS
 62
     7
 10
-4986.207219189033
 20
-404.5800955578421
 30
0.0
 40
125.612705916268
 50
274.6564256612123
 51
275.1564300319631
  0
LINE
  5
32E
  8
0
  6
CONTINUOUS
 62
     7
 10
-4464.5
 20
-526.789040309319
 30
0.0
 11
-4449.5
 21
-526.789040309319
 31
0.0
  0
ARC
  5
32F
  8
0
  6
CONTINUOUS
 62
     7
 10
-4985.42311611307
 20
-422.4332511388147
 30
0.0
 40
107.7694138505714
 50
276.9678475526035
 51
277.6545975265921
  0
ARC
  5
330
  8
0
  6
CONTINUOUS
 62
     7
 10
-4465.303372993179
 20
-318.6302245730408
 30
0.0
 40
23.16060178672299
 50
95.77352204980411
 51
99.89545087925052
  0
ARC
  5
331
  8
0
  6
CONTINUOUS
 62
     7
 10
-4462.999680223415
 20
-331.8359795128449
 30
0.0
 40
36.56578600431668
 50
99.89545087925143
 51
103.1846913308861
  0
ARC
  5
332
  8
0
  6
CONTINUOUS
 62
     7
 10
-4979.833732452445
 20
-464.0213967814315
 30
0.0
 40
65.80734684122154
 50
277.654597526588
 51
278.7792650732474
  0
ARC
  5
333
  8
0
  6
CONTINUOUS
 62
     7
 10
-4332.861175350258
 20
-330.5979246657594
 30
0.0
 40
50.72475857754529
 50
173.6643030436262
 51
186.3353942550208
  0
ARC
  5
334
  8
0
  6
CONTINUOUS
 62
     7
 10
-4963.869121779067
 20
-526.4334403234606
 30
0.0
 40
0.0471959693062002
 50
264.2591370548915
 51
293.4816043129136
  0
LINE
  5
335
  8
0
  6
CONTINUOUS
 62
     7
 10
-4484.723784443416
 20
-185.5979254817174
 30
0.0
 11
-4484.66144928757
 21
-185.5979254817174
 31
0.0
  0
LINE
  5
336
  8
0
  6
CONTINUOUS
 62
     7
 10
-4494.323784443415
 20
-338.6729254817175
 30
0.0
 11
-4493.742810529742
 21
-339.6792018180718
 31
0.0
  0
ARC
  5
337
  8
0
  6
CONTINUOUS
 62
     7
 10
-4473.361632224211
 20
-301.1432491494488
 30
0.0
 40
3.796531272609385
 50
124.2118467077854
 51
135.0493000417175
  0
ARC
  5
338
  8
0
  6
CONTINUOUS
 62
     7
 10
-4993.393880959438
 20
-526.5694734462064
 30
0.0
 40
4.364292022077411
 50
283.0032227898464
 51
287.8111335902072
  0
LINE
  5
339
  8
0
  6
CONTINUOUS
 62
     7
 10
-4943.225305603949
 20
-517.8489715740432
 30
0.0
 11
-4987.368965465619
 21
-525.0423265550492
 31
0.0
  0
LINE
  5
33A
  8
0
  6
CONTINUOUS
 62
     7
 10
-4963.760791982835
 20
-526.5112760063419
 30
0.0
 11
-4947.510791982836
 21
-526.5112760063421
 31
0.0
  0
LINE
  5
33B
  8
0
  6
CONTINUOUS
 62
     7
 10
-4430.999999999997
 20
-295.5979254817175
 30
0.0
 11
-4431.0
 21
-330.5979254817174
 31
0.0
  0
LINE
  5
33C
  8
0
  6
CONTINUOUS
 62
     7
 10
-4383.276215556585
 20
-175.5979254817174
 30
0.0
 11
-4383.338550712431
 21
-175.5979254817174
 31
0.0
  0
LINE
  5
33D
  8
0
  6
CONTINUOUS
 62
     7
 10
-4408.850000000272
 20
-316.3479254806888
 30
0.0
 11
-4408.100000000225
 21
-315.5979254807369
 31
0.0
  0
ARC
  5
33E
  8
0
  6
CONTINUOUS
 62
     7
 10
-4474.81954439828
 20
-300.2819130307143
 30
0.0
 40
2.140296322914904
 50
139.3853504213887
 51
155.0319683783151
  0
ARC
  5
33F
  8
0
  6
CONTINUOUS
 62
     7
 10
-4978.697302623724
 20
-530.0530110458576
 30
0.0
 40
0.4972640376635243
 50
103.0032227898367
 51
125.9357679386371
  0
LINE
  5
340
  8
0
  6
CONTINUOUS
 62
     7
 10
-4477.0
 20
-521.8982417973638
 30
0.0
 11
-4477.0
 21
-300.3325938182807
 31
0.0
  0
LINE
  5
341
  8
0
  6
CONTINUOUS
 62
     7
 10
-4383.338560799777
 20
-335.5979254817175
 30
0.0
 11
-4383.276215556585
 21
-335.5979254817175
 31
0.0
  0
ARC
  5
342
  8
0
  6
CONTINUOUS
 62
     7
 10
-4978.306537565171
 20
-525.9141854176477
 30
0.0
 40
3.969154477749432
 50
266.1245615150013
 51
270.6670451253343
  0
LINE
  5
343
  8
0
  6
CONTINUOUS
 62
     7
 10
-4341.500000000001
 20
-289.5979254817175
 30
0.0
 11
-4434.000000000001
 21
-289.5979254817175
 31
0.0
  0
LINE
  5
344
  8
0
  6
CONTINUOUS
 62
     7
 10
-4437.0
 20
-306.4303227966717
 30
0.0
 11
-4437.0
 21
-517.8489715740432
 31
0.0
  0
ARC
  5
345
  8
0
  6
CONTINUOUS
 62
     7
 10
-4473.960662256017
 20
-300.6818330843946
 30
0.0
 40
3.087721561988897
 50
155.0319683783114
 51
164.2248319281296
  0
ARC
  5
346
  8
0
  6
CONTINUOUS
 62
     7
 10
-4467.447496405121
 20
-309.8417664358876
 30
0.0
 40
14.3151436083268
 50
121.341619233416
 51
124.2118467077245
  0
ARC
  5
347
  8
0
  6
CONTINUOUS
 62
     7
 10
-4966.11583471739
 20
-527.8241728559057
 30
0.0
 40
0.4972640376635243
 50
283.0032227898367
 51
305.9357679386371
  0
LINE
  5
348
  8
0
  6
CONTINUOUS
 62
     7
 10
-4437.000000000003
 20
-295.5979254817175
 30
0.0
 11
-4437.0
 21
-306.4303227966717
 31
0.0
  0
ARC
  5
349
  8
0
  6
CONTINUOUS
 62
     7
 10
-4979.042261187365
 20
-529.7495729383172
 30
0.0
 40
0.0649341559260214
 50
186.9678475528972
 51
265.748997211121
  0
ARC
  5
34A
  8
0
  6
CONTINUOUS
 62
     7
 10
-4978.630266567384
 20
-497.6066445442389
 30
0.0
 40
32.27809804036163
 50
272.7105327780592
 51
274.6564256612332
  0
ARC
  5
34B
  8
0
  6
CONTINUOUS
 62
     7
 10
-4978.630266567384
 20
-497.6066445442389
 30
0.0
 40
32.27809804036163
 50
272.7105327780592
 51
274.6564256612332
  0
ARC
  5
34C
  8
0
  6
CONTINUOUS
 62
     7
 10
-4966.032603591278
 20
-528.50519518476
 30
0.0
 40
0.4972640376677257
 50
67.99992716669288
 51
90.93247231533843
  0
ARC
  5
34D
  8
0
  6
CONTINUOUS
 62
     7
 10
-4988.961716375598
 20
-404.916736358023
 30
0.0
 40
125.6127059177105
 50
278.7792650732468
 51
279.2792694439919
  0
ARC
  5
34E
  8
0
  6
CONTINUOUS
 62
     7
 10
-4939.510907434335
 20
-781.5119176032683
 30
0.0
 40
256.3003804948585
 50
101.225162327144
 51
101.3995558570822
  0
ARC
  5
34F
  8
0
  6
CONTINUOUS
 62
     7
 10
-4475.19689242637
 20
-300.3325938182807
 30
0.0
 40
1.803107573629781
 50
164.2248319280679
 51
180.0000000000018
  0
ARC
  5
350
  8
0
  6
CONTINUOUS
 62
     7
 10
-4978.734088069263
 20
-532.2255924931782
 30
0.0
 40
2.356717691888899
 50
86.12456151499906
 51
90.93247231544137
  0
ARC
  5
351
  8
0
  6
CONTINUOUS
 62
     7
 10
-4444.633211456546
 20
-303.7527136572633
 30
0.0
 40
8.344626419927932
 50
59.04038454381399
 51
68.90516398905179
  0
ARC
  5
352
  8
0
  6
CONTINUOUS
 62
     7
 10
-4977.767691883921
 20
-588.7453847256314
 30
0.0
 40
59.77425563079073
 50
99.27926944398617
 51
101.2251623271438
  0
ARC
  5
353
  8
0
  6
CONTINUOUS
 62
     7
 10
-4979.339465239036
 20
-527.272212799287
 30
0.0
 40
2.356717691891846
 50
283.0032227897962
 51
287.8111335902208
  0
ARC
  5
354
  8
0
  6
CONTINUOUS
 62
     7
 10
-4959.390021228044
 20
-635.4439327629486
 30
0.0
 40
107.7694138505714
 50
96.96784755260342
 51
97.65459752659208
  0
ARC
  5
355
  8
0
  6
CONTINUOUS
 62
     7
 10
-4978.083225856966
 20
-517.2569950431866
 30
0.0
 40
12.62328015663863
 50
270.6239928259254
 51
272.5361392481014
  0
LINE
  5
356
  8
0
  6
CONTINUOUS
 62
     7
 10
-4430.999999999997
 20
-295.5979254817175
 30
0.0
 11
-4437.000000000003
 21
-295.5979254817175
 31
0.0
  0
ARC
  5
357
  8
0
  6
CONTINUOUS
 62
     7
 10
-4958.60591815208
 20
-653.2970883439211
 30
0.0
 40
125.612705916268
 50
94.65642566121223
 51
95.15643003196307
  0
ARC
  5
358
  8
0
  6
CONTINUOUS
 62
     7
 10
-4978.083225856966
 20
-517.2569950431866
 30
0.0
 40
12.62328015663863
 50
270.6239928259254
 51
272.5361392481014
  0
ARC
  5
359
  8
0
  6
CONTINUOUS
 62
     7
 10
-4979.145897007807
 20
-529.434115983668
 30
0.0
 40
0.2671102289325355
 50
288.1866978938215
 51
305.935767938598
  0
ARC
  5
35A
  8
0
  6
CONTINUOUS
 62
     7
 10
-4462.912183631629
 20
-322.2484804640249
 30
0.0
 40
27.43285308664832
 50
112.3385756535247
 51
114.1384754923612
  0
ARC
  5
35B
  8
0
  6
CONTINUOUS
 62
     7
 10
-4985.42311611307
 20
-422.4332511388147
 30
0.0
 40
107.7694138505714
 50
276.9678475526035
 51
277.6545975265921
  0
ARC
  5
35C
  8
0
  6
CONTINUOUS
 62
     7
 10
-4979.833732452445
 20
-464.0213967814315
 30
0.0
 40
65.80734684122154
 50
277.654597526588
 51
278.7792650732474
  0
ARC
  5
35D
  8
0
  6
CONTINUOUS
 62
     7
 10
-4965.667240333307
 20
-528.4430679180953
 30
0.0
 40
0.2671102289325355
 50
108.1866978938215
 51
125.9357679385981
  0
ARC
  5
35E
  8
0
  6
CONTINUOUS
 62
     7
 10
-4959.390021227982
 20
-635.4439327634543
 30
0.0
 40
107.7694138510809
 50
96.28109757861854
 51
96.96784755260356
  0
ARC
  5
35F
  8
0
  6
CONTINUOUS
 62
     7
 10
-4965.770876153748
 20
-528.1276109634458
 30
0.0
 40
0.0649341559242312
 50
288.1866978918801
 51
6.967847552795604
  0
ARC
  5
360
  8
0
  6
CONTINUOUS
 62
     7
 10
-4966.079049271851
 20
-525.6515914085852
 30
0.0
 40
2.356717691888899
 50
266.1245615149991
 51
270.9324723154414
  0
ARC
  5
361
  8
0
  6
CONTINUOUS
 62
     7
 10
-4965.473672102078
 20
-530.6049711024763
 30
0.0
 40
2.356717691891846
 50
103.0032227897962
 51
107.8111335902208
  0
ARC
  5
362
  8
0
  6
CONTINUOUS
 62
     7
 10
-4471.325694398167
 20
-303.4736763887993
 30
0.0
 40
6.859072892387682
 50
114.1384754923626
 51
121.341619233416
  0
ARC
  5
363
  8
0
  6
CONTINUOUS
 62
     7
 10
-4963.875375850938
 20
-526.4956490843322
 30
0.0
 40
0.0153263734532104
 50
84.25913705424432
 51
119.7151136276987
  0
LINE
  5
364
  8
0
  6
CONTINUOUS
 62
     7
 10
-4477.0
 20
-529.6553607640274
 30
0.0
 11
-4477.0
 21
-525.0423265550494
 31
0.0
  0
ARC
  5
365
  8
0
  6
CONTINUOUS
 62
     7
 10
-4965.770876153748
 20
-528.1276109634459
 30
0.0
 40
0.0649341559242447
 50
288.1866978918801
 51
6.967847552990064
  0
ARC
  5
366
  8
0
  6
CONTINUOUS
 62
     7
 10
-4480.74153800875
 20
-338.2393621708907
 30
0.0
 40
192.3338510891227
 50
282.501905144919
 51
282.679856920928
  0
ARC
  5
367
  8
0
  6
CONTINUOUS
 62
     7
 10
-4949.897502675198
 20
-759.3254637133344
 30
0.0
 40
232.6161220693971
 50
99.12930450071765
 51
99.2792694439918
  0
ARC
  5
368
  8
0
  6
CONTINUOUS
 62
     7
 10
-4967.408631873276
 20
-524.5822981584002
 30
0.0
 40
3.969154477814036
 50
283.2686499799482
 51
287.8111335902162
  0
ARC
  5
369
  8
0
  6
CONTINUOUS
 62
     7
 10
-4988.961716375598
 20
-404.916736358023
 30
0.0
 40
125.6127059177105
 50
278.7792650732468
 51
279.2792694439919
  0
ARC
  5
36A
  8
0
  6
CONTINUOUS
 62
     7
 10
-4971.42701612529
 20
-109.3433848514731
 30
0.0
 40
418.6791015508955
 50
270.6239928259261
 51
270.6670451252598
  0
ARC
  5
36B
  8
0
  6
CONTINUOUS
 62
     7
 10
-4985.423116113132
 20
-422.433251138309
 30
0.0
 40
107.7694138510809
 50
276.2810975786185
 51
276.9678475526035
  0
ARC
  5
36C
  8
0
  6
CONTINUOUS
 62
     7
 10
-4870.403580602804
 20
-935.9477892336354
 30
0.0
 40
418.6791002441901
 50
103.2686499797997
 51
103.3117022792679
  0
ARC
  5
36D
  8
0
  6
CONTINUOUS
 62
     7
 10
-4433.089388945806
 20
-529.6117688468325
 30
0.0
 40
5.925436245249447
 50
132.4113160487634
 51
134.467498128462
  0
ARC
  5
36E
  8
0
  6
CONTINUOUS
 62
     7
 10
-4965.473672102081
 20
-530.6049711024672
 30
0.0
 40
2.356717691882363
 50
103.0032227897828
 51
107.8111335902269
  0
ARC
  5
36F
  8
0
  6
CONTINUOUS
 62
     7
 10
-4966.11583471739
 20
-527.8241728559045
 30
0.0
 40
0.4972640376643334
 50
283.0032227898079
 51
305.9357679385695
  0
ARC
  5
370
  8
0
  6
CONTINUOUS
 62
     7
 10
-4973.386121215824
 20
-948.5337990502902
 30
0.0
 40
418.6791015508955
 50
90.62399282592605
 51
90.6670451252598
  0
ARC
  5
371
  8
0
  6
CONTINUOUS
 62
     7
 10
-4437.81814225732
 20
-524.7942911601011
 30
0.0
 40
0.8250599693489372
 50
286.8616826808039
 51
314.4674981284716
  0
ARC
  5
372
  8
0
  6
CONTINUOUS
 62
     7
 10
-4978.780533749838
 20
-529.3719887170067
 30
0.0
 40
0.4972640376643048
 50
247.999927166644
 51
270.9324723154472
  0
ARC
  5
373
  8
0
  6
CONTINUOUS
 62
     7
 10
-4950.242659534461
 20
-664.9411326492132
 30
0.0
 40
138.4022054724666
 50
101.2251623271468
 51
101.3995558570783
  0
ARC
  5
374
  8
0
  6
CONTINUOUS
 62
     7
 10
-4451.926728022271
 20
-412.488194386806
 30
0.0
 40
114.3953409472174
 50
273.6137146217647
 51
274.6339348175898
  0
ARC
  5
375
  8
0
  6
CONTINUOUS
 62
     7
 10
-4963.980939411398
 20
-593.7337596885436
 30
0.0
 40
65.8073468416279
 50
95.15643003196259
 51
96.28109757861509
  0
ARC
  5
376
  8
0
  6
CONTINUOUS
 62
     7
 10
-4955.851420965516
 20
-652.9604475437403
 30
0.0
 40
125.6127059177106
 50
98.7792650732469
 51
99.2792694439919
  0
ARC
  5
377
  8
0
  6
CONTINUOUS
 62
     7
 10
-4979.042261187366
 20
-529.7495729383173
 30
0.0
 40
0.0649341559242447
 50
108.1866978918801
 51
186.9678475529901
  0
LINE
  5
378
  8
0
  6
CONTINUOUS
 62
     7
 10
-4387.499999999417
 20
424.5009866721566
 30
0.0
 11
-4387.499999999233
 21
2354.302212699111
 31
0.0
  0
ARC
  5
379
  8
0
  6
CONTINUOUS
 62
     7
 10
-4462.073271977772
 20
-412.4881943875034
 30
0.0
 40
114.3953409465185
 50
265.3660651824036
 51
266.386285378235
  0
ARC
  5
37A
  8
0
  6
CONTINUOUS
 62
     7
 10
-5074.40955681503
 20
-121.9293943439548
 30
0.0
 40
418.6791005773181
 50
283.2686499798365
 51
283.3117022792704
  0
LINE
  5
37B
  8
0
  6
CONTINUOUS
 62
     7
 10
-4480.499999999447
 20
114.3031623644291
 30
0.0
 11
-4480.499999999472
 21
-145.5979254817162
 31
0.0
  0
ARC
  5
37C
  8
0
  6
CONTINUOUS
 62
   253
 10
-4386.499999999232
 20
2367.402074518284
 30
0.0
 40
3.000000000000114
 50
269.9999999999864
 51
359.9999999999745
  0
LINE
  5
37D
  8
0
  6
CONTINUOUS
 62
     7
 10
-4429.399999999411
 20
-321.2979254817146
 30
0.0
 11
-4426.899999999408
 21
-321.2979254815546
 31
0.0
  0
LINE
  5
37E
  8
0
  6
CONTINUOUS
 62
     7
 10
-4498.17177826609
 20
-321.2979254815546
 30
0.0
 11
-4496.921778266088
 21
-321.2979254817146
 31
0.0
  0
LINE
  5
37F
  8
0
  6
CONTINUOUS
 62
     7
 10
-4434.0
 20
-145.5979254817173
 30
0.0
 11
-4484.8
 21
-145.5979254817173
 31
0.0
  0
ARC
  5
380
  8
0
  6
CONTINUOUS
 62
     7
 10
-4476.181857742684
 20
-524.794291160104
 30
0.0
 40
0.8250599693450108
 50
225.53250187152
 51
253.1383173193151
  0
LINE
  5
381
  8
0
  6
CONTINUOUS
 62
     7
 10
-4967.510791982974
 20
-526.511276006361
 30
0.0
 11
-4963.760791982835
 21
-526.5112760063419
 31
0.0
  0
LINE
  5
382
  8
0
  6
CONTINUOUS
 62
     7
 10
-4862.497218212022
 20
-509.2048320219434
 30
0.0
 11
-4513.849839651712
 21
-338.0476757151472
 31
0.0
  0
ARC
  5
383
  8
0
  6
CONTINUOUS
 62
     7
 10
-4472.216431005123
 20
-513.9397563293653
 30
0.0
 40
12.36620995014103
 50
257.4980948550806
 51
261.1523926235068
  0
ARC
  5
384
  8
0
  6
CONTINUOUS
 62
     7
 10
-4977.404505467849
 20
-533.2948857433307
 30
0.0
 40
3.96915447777991
 50
103.2686499799062
 51
107.8111335902126
  0
ARC
  5
385
  8
0
  6
CONTINUOUS
 62
   253
 10
-4434.0
 20
2111.402074518297
 30
0.0
 40
349.9999999999998
 50
89.9999716692928
 51
97.57847840995966
  0
ARC
  5
386
  8
0
  6
CONTINUOUS
 62
     7
 10
-4449.5
 20
-431.8615116677989
 30
0.0
 40
99.54056285049816
 50
270.0
 51
271.3774453184545
  0
LINE
  5
387
  8
0
  6
CONTINUOUS
 62
     7
 10
-4526.5
 20
-289.5979254817175
 30
0.0
 11
-4526.5
 21
-295.5979254817175
 31
0.0
  0
LINE
  5
388
  8
0
  6
CONTINUOUS
 62
     7
 10
-4383.200000000001
 20
-169.5979254817174
 30
0.0
 11
-4383.200000000001
 21
-145.5979254817173
 31
0.0
  0
ARC
  5
389
  8
0
  6
CONTINUOUS
 62
     7
 10
-4975.102831615469
 20
-541.6434850738732
 30
0.0
 40
12.6232801570146
 50
101.3995558571518
 51
103.3117022792703
  0
ARC
  5
38A
  8
0
  6
CONTINUOUS
 62
     7
 10
-4451.926728022228
 20
-417.1012285964817
 30
0.0
 40
114.3953409465185
 50
273.613714621765
 51
274.6339348175964
  0
ARC
  5
38B
  8
0
  6
CONTINUOUS
 62
     7
 10
-4966.18287077371
 20
-560.2705393578842
 30
0.0
 40
32.27809804072193
 50
92.71053277806361
 51
94.65642566121596
  0
ARC
  5
38C
  8
0
  6
CONTINUOUS
 62
     7
 10
-4478.107641751691
 20
-531.1480662615427
 30
0.0
 40
5.814149478247892
 50
69.25793980658574
 51
73.1383173193392
  0
LINE
  5
38D
  8
0
  6
CONTINUOUS
 62
     7
 10
-4369.628221734278
 20
-323.0979254785938
 30
0.0
 11
-4368.828221734278
 21
-323.0979254784912
 31
0.0
  0
LINE
  5
38E
  8
0
  6
CONTINUOUS
 62
     7
 10
-4387.499999999493
 20
-355.5979254817188
 30
0.0
 11
-4387.499999999492
 21
-345.5979254817159
 31
0.0
  0
LINE
  5
38F
  8
0
  6
CONTINUOUS
 62
     7
 10
-4383.200000000001
 20
-319.5979254817173
 30
0.0
 11
-4383.200000000001
 21
-295.5979254817175
 31
0.0
  0
LINE
  5
390
  8
0
  6
CONTINUOUS
 62
     7
 10
-4484.8
 20
-191.5979254817174
 30
0.0
 11
-4484.8
 21
-289.5979254817175
 31
0.0
  0
LINE
  5
391
  8
0
  6
CONTINUOUS
 62
     7
 10
-4484.800000000001
 20
-295.5979254817175
 30
0.0
 11
-4484.800000000001
 21
-319.5979254817173
 31
0.0
  0
LINE
  5
392
  8
0
  6
CONTINUOUS
 62
   253
 10
-4484.499999999224
 20
2453.388550859198
 30
0.0
 11
-4484.499999999232
 21
2367.402074518299
 31
0.0
  0
LINE
  5
393
  8
0
  6
CONTINUOUS
 62
     7
 10
-4480.499999999432
 20
264.3031623644289
 30
0.0
 11
-4480.499999999446
 21
124.5019363374835
 31
0.0
  0
LINE
  5
394
  8
0
  6
CONTINUOUS
 62
     7
 10
-4515.565207799644
 20
-301.3890030459264
 30
0.0
 11
-4963.087441383447
 21
-521.0855721139754
 31
0.0
  0
LINE
  5
395
  8
0
  6
CONTINUOUS
 62
     7
 10
-4429.400000000703
 20
-301.0979254817202
 30
0.0
 11
-4431.000000000704
 21
-301.0979254818228
 31
0.0
  0
ARC
  5
396
  8
0
  6
CONTINUOUS
 62
     7
 10
-4445.15266689016
 20
-500.6756629745536
 30
0.0
 40
30.54682285683716
 50
274.6339348175859
 51
278.4552333189916
  0
ARC
  5
397
  8
0
  6
CONTINUOUS
 62
     7
 10
-4978.697302623724
 20
-530.0530110458579
 30
0.0
 40
0.4972640376637039
 50
103.0032227898281
 51
125.9357679386221
  0
ARC
  5
398
  8
0
  6
CONTINUOUS
 62
     7
 10
-4966.729911484149
 20
-540.6201888584012
 30
0.0
 40
12.62328015646332
 50
90.62399282592605
 51
92.53613924812859
  0
LINE
  5
399
  8
0
  6
CONTINUOUS
 62
     7
 10
-4480.499999999491
 20
-345.5979254817159
 30
0.0
 11
-4480.499999999492
 21
-355.5979254816962
 31
0.0
  0
LINE
  5
39A
  8
0
  6
CONTINUOUS
 62
     7
 10
-4383.200000000001
 20
-191.5979254817174
 30
0.0
 11
-4381.676215556586
 21
-191.5979254817174
 31
0.0
  0
LINE
  5
39B
  8
0
  6
CONTINUOUS
 62
     7
 10
-4419.145973267876
 20
-320.5989636792684
 30
0.0
 11
-4418.899999999484
 21
-320.1729254810451
 31
0.0
  0
ARC
  5
39C
  8
0
  6
CONTINUOUS
 62
     7
 10
-4474.543746174471
 20
-521.7373887221776
 30
0.0
 40
4.248762795802472
 50
249.2579398065908
 51
257.3201430790442
  0
ARC
  5
39D
  8
0
  6
CONTINUOUS
 62
     7
 10
-4456.407429042974
 20
-412.3780666216767
 30
0.0
 40
115.1509430544307
 50
261.1523926234822
 51
261.5447666810087
  0
ARC
  5
39E
  8
0
  6
CONTINUOUS
 62
     7
 10
-4905.470562027276
 20
-420.5982053377358
 30
0.0
 40
98.48269138547292
 50
295.2730101699274
 51
295.8729297199009
  0
ARC
  5
39F
  8
0
  6
CONTINUOUS
 62
     7
 10
-4435.892358248301
 20
-535.7611004705444
 30
0.0
 40
5.81414947827305
 50
106.8616826806773
 51
110.742060193414
  0
ARC
  5
3A0
  8
0
  6
CONTINUOUS
 62
     7
 10
-4979.145897007807
 20
-529.4341159836686
 30
0.0
 40
0.267110228932086
 50
288.1866978938586
 51
305.9357679386679
  0
ARC
  5
3A1
  8
0
  6
CONTINUOUS
 62
     7
 10
-4480.910611054205
 20
-529.6117688468426
 30
0.0
 40
5.925436245264043
 50
45.53250187153219
 51
47.58868395122563
  0
ARC
  5
3A2
  8
0
  6
CONTINUOUS
 62
     7
 10
-4480.741538013605
 20
-342.8523963579756
 30
0.0
 40
192.3338511115478
 50
282.5019051449191
 51
282.6798569209073
  0
ARC
  5
3A3
  8
0
  6
CONTINUOUS
 62
     7
 10
-4457.592570957064
 20
-416.9911008304015
 30
0.0
 40
115.1509430546869
 50
278.4552333189911
 51
278.8476073765166
  0
ARC
  5
3A4
  8
0
  6
CONTINUOUS
 62
   253
 10
-4434.0
 20
2111.402074518297
 30
0.0
 40
349.9999999999998
 50
82.42152159002944
 51
89.99997166929285
  0
LINE
  5
3A5
  8
0
  6
CONTINUOUS
 62
     7
 10
-4947.510791982836
 20
-526.5112760063421
 30
0.0
 11
-4966.805183610388
 21
-529.6553607640274
 31
0.0
  0
ARC
  5
3A6
  8
0
  6
CONTINUOUS
 62
     7
 10
-4448.581111928548
 20
-470.0759251323386
 30
0.0
 40
61.31510338005297
 50
271.3774453184565
 51
273.613714621765
  0
ARC
  5
3A7
  8
0
  6
CONTINUOUS
 62
     7
 10
-4970.901323138284
 20
-560.8472048900285
 30
0.0
 40
32.27809804050608
 50
99.2792694439855
 51
101.2251623271503
  0
ARC
  5
3A8
  8
0
  6
CONTINUOUS
 62
     7
 10
-4437.81814225732
 20
-529.4073253690797
 30
0.0
 40
0.8250599693487788
 50
286.8616826808084
 51
314.4674981284824
  0
LINE
  5
3A9
  8
0
  6
CONTINUOUS
 62
     7
 10
-4495.926215556586
 20
-184.8479254817173
 30
0.0
 11
-4495.176215556586
 21
-185.5979254817174
 31
0.0
  0
LINE
  5
3AA
  8
0
  6
CONTINUOUS
 62
     7
 10
-4496.676215556586
 20
-334.0979254817175
 30
0.0
 11
-4495.926215556586
 21
-334.8479254817175
 31
0.0
  0
LINE
  5
3AB
  8
0
  6
CONTINUOUS
 62
     7
 10
-4383.200000000001
 20
-345.5979254817173
 30
0.0
 11
-4383.200000000001
 21
-341.5979254817173
 31
0.0
  0
LINE
  5
3AC
  8
0
  6
CONTINUOUS
 62
     7
 10
-4426.900000000586
 20
-302.8979254815597
 30
0.0
 11
-4429.400000000589
 21
-302.8979254817198
 31
0.0
  0
LINE
  5
3AD
  8
0
  6
CONTINUOUS
 62
   253
 10
-4864.747218212021
 20
-509.2048320219434
 30
0.0
 11
-4862.497218212021
 21
-509.2048320219434
 31
0.0
  0
ARC
  5
3AE
  8
0
  6
CONTINUOUS
 62
   253
 10
-4388.499999999501
 20
-444.5844018225192
 30
0.0
 40
5.000000000000018
 50
277.5784784065884
 51
359.9999999999947
  0
LINE
  5
3AF
  8
0
  6
CONTINUOUS
 62
     7
 10
-4387.499999999432
 20
274.5009866721567
 30
0.0
 11
-4387.499999999418
 21
414.3022126991133
 31
0.0
  0
ARC
  5
3B0
  8
0
  6
CONTINUOUS
 62
     7
 10
-4904.287978991868
 20
-426.7062840569441
 30
0.0
 40
92.37738866968559
 50
282.8567423921745
 51
289.543244422246
  0
ARC
  5
3B1
  8
0
  6
CONTINUOUS
 62
     7
 10
-4451.576377065777
 20
-526.1102241716322
 30
0.0
 40
2.294331909710135
 50
69.25793980658725
 51
77.32014307914314
  0
ARC
  5
3B2
  8
0
  6
CONTINUOUS
 62
     7
 10
-4440.12956947452
 20
-423.4519569710233
 30
0.0
 40
103.8602795916425
 50
257.3201430790821
 51
257.498094855085
  0
ARC
  5
3B3
  8
0
  6
CONTINUOUS
 62
     7
 10
-4443.764072291292
 20
-302.3039110431026
 30
0.0
 40
6.655120011719438
 50
46.6624920066151
 51
59.04038454375764
  0
ARC
  5
3B4
  8
0
  6
CONTINUOUS
 62
     7
 10
-4969.710305725607
 20
-516.2336988280481
 30
0.0
 40
12.62328015685218
 50
281.3995558571236
 51
283.3117022792665
  0
ARC
  5
3B5
  8
0
  6
CONTINUOUS
 62
     7
 10
-4966.729911484147
 20
-540.6201888585766
 30
0.0
 40
12.62328015663863
 50
90.62399282592548
 51
92.53613924810142
  0
ARC
  5
3B6
  8
0
  6
CONTINUOUS
 62
     7
 10
-4961.16425351021
 20
-666.2759149538922
 30
0.0
 40
138.4022054550519
 50
92.5361392481056
 51
92.7105327780591
  0
ARC
  5
3B7
  8
0
  6
CONTINUOUS
 62
     7
 10
-4448.138270030908
 20
-521.8580589045182
 30
0.0
 40
3.199735572186394
 50
225.5325018715216
 51
227.5886839513793
  0
ARC
  5
3B8
  8
0
  6
CONTINUOUS
 62
     7
 10
-4435.892358248289
 20
-531.1480662615944
 30
0.0
 40
5.814149478303407
 50
106.8616826807057
 51
110.7420601934223
  0
ARC
  5
3B9
  8
0
  6
CONTINUOUS
 62
     7
 10
-4437.263518389416
 20
-525.0423265550493
 30
0.0
 40
0.2635183894161841
 50
312.4113160483544
 51
0.0000000000241585
  0
ARC
  5
3BA
  8
0
  6
CONTINUOUS
 62
     7
 10
-4449.5
 20
-427.2484774588208
 30
0.0
 40
99.54056285049816
 50
270.0
 51
271.3774453184545
  0
ARC
  5
3BB
  8
0
  6
CONTINUOUS
 62
     7
 10
-4462.423622934222
 20
-522.5408913121745
 30
0.0
 40
2.294331909710135
 50
249.2579398065872
 51
257.3201430791431
  0
LINE
  5
3BC
  8
0
  6
CONTINUOUS
 62
   253
 10
-4894.414873791884
 20
-518.5872431636277
 30
0.0
 11
-4896.664873791884
 21
-518.5872431636277
 31
0.0
  0
ARC
  5
3BD
  8
0
  6
CONTINUOUS
 62
     7
 10
-4444.091625076492
 20
-511.2251711249096
 30
0.0
 40
10.65317279989399
 50
275.5790066217396
 51
283.3607506961087
  0
ARC
  5
3BE
  8
0
  6
CONTINUOUS
 62
     7
 10
-4450.392299930286
 20
-524.3255577419034
 30
0.0
 40
0.1422999302862493
 50
0.0
 51
47.58868395120658
  0
ARC
  5
3BF
  8
0
  6
CONTINUOUS
 62
     7
 10
-4444.500000000001
 20
-507.0444690846534
 30
0.0
 40
14.85377271271027
 50
270.0
 51
275.5790066217435
  0
ARC
  5
3C0
  8
0
  6
CONTINUOUS
 62
     7
 10
-4448.581111928548
 20
-465.4628909233605
 30
0.0
 40
61.31510338005297
 50
271.3774453184565
 51
273.613714621765
  0
ARC
  5
3C1
  8
0
  6
CONTINUOUS
 62
     7
 10
-4967.408631873272
 20
-524.5822981584166
 30
0.0
 40
3.969154477797137
 50
283.2686499799399
 51
287.8111335902269
  0
ARC
  5
3C2
  8
0
  6
CONTINUOUS
 62
     7
 10
-4442.182550119924
 20
-515.6252585439606
 30
0.0
 40
5.898530845334064
 50
287.787984971252
 51
300.4112086545448
  0
ARC
  5
3C3
  8
0
  6
CONTINUOUS
 62
     7
 10
-4463.308203181047
 20
-524.4594968551754
 30
0.0
 40
0.4455323834485101
 50
106.8616826807641
 51
134.467498128461
  0
ARC
  5
3C4
  8
0
  6
CONTINUOUS
 62
     7
 10
-4979.066874290846
 20
-530.0807038318463
 30
0.0
 40
0.2671102289271956
 50
67.99992716662751
 51
85.74899721191541
  0
ARC
  5
3C5
  8
0
  6
CONTINUOUS
 62
     7
 10
-4994.570477806653
 20
-392.9360512525502
 30
0.0
 40
138.4022054724666
 50
281.2251623271468
 51
281.3995558570783
  0
ARC
  5
3C6
  8
0
  6
CONTINUOUS
 62
     7
 10
-4465.861729969821
 20
-521.858058903775
 30
0.0
 40
3.199735573227569
 50
312.4113160492961
 51
314.4674981284745
  0
LINE
  5
3C7
  8
0
  6
CONTINUOUS
 62
   253
 10
-4515.565207799644
 20
-307.9030757857885
 30
0.0
 11
-4943.225305603949
 21
-517.8489715740432
 31
0.0
  0
ARC
  5
3C8
  8
0
  6
CONTINUOUS
 62
     7
 10
-4454.652440120677
 20
-539.9745945481569
 30
0.0
 40
16.4952843426291
 50
81.54476668100723
 51
85.36606518242809
  0
ARC
  5
3C9
  8
0
  6
CONTINUOUS
 62
     7
 10
-4452.630011682692
 20
-463.4868573744475
 30
0.0
 40
62.18150925286557
 50
261.1523926235009
 51
261.544766681006
  0
ARC
  5
3CA
  8
0
  6
CONTINUOUS
 62
     7
 10
-4904.851852528769
 20
-425.9813516852137
 30
0.0
 40
93.18821066176186
 50
276.4302825039733
 51
276.5481516193011
  0
ARC
  5
3CB
  8
0
  6
CONTINUOUS
 62
     7
 10
-4450.691796818952
 20
-524.4594968551754
 30
0.0
 40
0.4455323834485101
 50
45.53250187153901
 51
73.13831731923591
  0
ARC
  5
3CC
  8
0
  6
CONTINUOUS
 62
     7
 10
-4978.734088069263
 20
-532.2255924931892
 30
0.0
 40
2.356717691899977
 50
86.1245615150173
 51
90.932472315437
  0
ARC
  5
3CD
  8
0
  6
CONTINUOUS
 62
     7
 10
-4443.27945458918
 20
-302.3440180939383
 30
0.0
 40
6.279454589179778
 50
0.000000000001013
 51
25.1332107976056
  0
ARC
  5
3CE
  8
0
  6
CONTINUOUS
 62
     7
 10
-4444.407053606587
 20
-303.166454571694
 30
0.0
 40
7.716257827054068
 50
68.9051639890498
 51
78.8429036955175
  0
ARC
  5
3CF
  8
0
  6
CONTINUOUS
 62
     7
 10
-4978.30653756517
 20
-525.9141854176279
 30
0.0
 40
3.96915447776921
 50
266.1245615150078
 51
270.667045125318
  0
LINE
  5
3D0
  8
0
  6
CONTINUOUS
 62
     7
 10
-4967.510791982974
 20
-526.511276006361
 30
0.0
 11
-4896.664873791884
 21
-518.5872431636277
 31
0.0
  0
ARC
  5
3D1
  8
0
  6
CONTINUOUS
 62
     7
 10
-4439.044899822107
 20
-517.848971574043
 30
0.0
 40
2.044899822107205
 50
336.4453967890547
 51
359.9999999999968
  0
ARC
  5
3D2
  8
0
  6
CONTINUOUS
 62
     7
 10
-4966.18287077373
 20
-560.2705393575244
 30
0.0
 40
32.2780980403617
 50
92.71053277805918
 51
94.65642566123323
  0
ARC
  5
3D3
  8
0
  6
CONTINUOUS
 62
     7
 10
-4980.832197929716
 20
-464.1434242132197
 30
0.0
 40
65.80734684162796
 50
275.1564300319626
 51
276.2810975786151
  0
ARC
  5
3D4
  8
0
  6
CONTINUOUS
 62
     7
 10
-4463.607700069717
 20
-524.3255577419033
 30
0.0
 40
0.1422999302826966
 50
132.4113160475335
 51
180.0000000000447
  0
ARC
  5
3D5
  8
0
  6
CONTINUOUS
 62
     7
 10
-4456.503800441422
 20
-556.4984529831355
 30
0.0
 40
33.11015582534889
 50
86.38628537823678
 51
88.62255468153786
  0
ARC
  5
3D6
  8
0
  6
CONTINUOUS
 62
     7
 10
-4965.77087615375
 20
-528.127610963446
 30
0.0
 40
0.0649341559260214
 50
6.967847552897145
 51
85.74899721112105
  0
ARC
  5
3D7
  8
0
  6
CONTINUOUS
 62
     7
 10
-4459.347559879323
 20
-539.9745945481569
 30
0.0
 40
16.4952843426291
 50
94.63393481757191
 51
98.45523331899275
  0
ARC
  5
3D8
  8
0
  6
CONTINUOUS
 62
     7
 10
-4964.97940488867
 20
-593.8557871203318
 30
0.0
 40
65.80734684122149
 50
97.65459752658793
 51
98.77926507324734
  0
ARC
  5
3D9
  8
0
  6
CONTINUOUS
 62
     7
 10
-4457.0
 20
-577.1342362538962
 30
0.0
 40
53.75190393929851
 50
88.62255468154662
 51
90.0
  0
ARC
  5
3DA
  8
0
  6
CONTINUOUS
 62
     7
 10
-4458.310433132009
 20
-585.1047891125068
 30
0.0
 40
61.77348411124878
 50
85.36606518240706
 51
86.38628537823627
  0
ARC
  5
3DB
  8
0
  6
CONTINUOUS
 62
     7
 10
-4986.207219189033
 20
-404.5800955578421
 30
0.0
 40
125.612705916268
 50
274.6564256612123
 51
275.1564300319631
  0
ARC
  5
3DC
  8
0
  6
CONTINUOUS
 62
     7
 10
-4979.042261187365
 20
-529.7495729383173
 30
0.0
 40
0.064934155926008
 50
186.9678475527999
 51
265.748997211121
  0
ARC
  5
3DD
  8
0
  6
CONTINUOUS
 62
     7
 10
-4965.746263050268
 20
-527.7964800699158
 30
0.0
 40
0.2671102289284309
 50
247.9999271667346
 51
265.7489972119366
  0
ARC
  5
3DE
  8
0
  6
CONTINUOUS
 62
     7
 10
-4461.369988317308
 20
-585.1642581093593
 30
0.0
 40
62.18150925286557
 50
81.15239262350092
 51
81.54476668100594
  0
ARC
  5
3DF
  8
0
  6
CONTINUOUS
 62
     7
 10
-4452.833127257253
 20
-530.3209456638665
 30
0.0
 40
6.67775337317226
 50
77.49809485508327
 51
81.15239262345152
  0
ARC
  5
3E0
  8
0
  6
CONTINUOUS
 62
     7
 10
-4439.456253825519
 20
-521.7373887222074
 30
0.0
 40
4.248762795770975
 50
282.6798569208916
 51
290.7420601934164
  0
ARC
  5
3E1
  8
0
  6
CONTINUOUS
 62
     7
 10
-4444.216903534596
 20
-302.783814063754
 30
0.0
 40
7.31494047528744
 50
25.13321079764863
 51
46.66249200661345
  0
ARC
  5
3E2
  8
0
  6
CONTINUOUS
 62
     7
 10
-4973.91181420285
 20
-497.0299790116214
 30
0.0
 40
32.2780980406213
 50
279.2792694439889
 51
281.2251623271467
  0
ARC
  5
3E3
  8
0
  6
CONTINUOUS
 62
     7
 10
-4446.537509690225
 20
-508.2057355814479
 30
0.0
 40
14.5017275680771
 50
300.4112086545477
 51
304.5675817952187
  0
ARC
  5
3E4
  8
0
  6
CONTINUOUS
 62
     7
 10
-4459.347559879323
 20
-508.6765209356498
 30
0.0
 40
16.4952843426291
 50
261.5447666810072
 51
265.3660651824281
  0
ARC
  5
3E5
  8
0
  6
CONTINUOUS
 62
     7
 10
-4445.152666890167
 20
-496.062628765526
 30
0.0
 40
30.54682285688707
 50
274.6339348175918
 51
278.4552333189913
  0
ARC
  5
3E6
  8
0
  6
CONTINUOUS
 62
     7
 10
-4966.506599775942
 20
-531.9629984841157
 30
0.0
 40
3.969154477749432
 50
86.12456151500132
 51
90.66704512533428
  0
ARC
  5
3E7
  8
0
  6
CONTINUOUS
 62
     7
 10
-4441.783568994882
 20
-513.939756329339
 30
0.0
 40
12.36620995016787
 50
278.8476073764991
 51
282.501905144917
  0
ARC
  5
3E8
  8
0
  6
CONTINUOUS
 62
     7
 10
-4463.308203181047
 20
-524.1916186286313
 30
0.0
 40
0.4455323834485101
 50
225.532501871539
 51
253.1383173192359
  0
ARC
  5
3E9
  8
0
  6
CONTINUOUS
 62
     7
 10
-4970.901323138264
 20
-560.8472048901419
 30
0.0
 40
32.27809804062136
 50
99.27926944398884
 51
101.2251623271467
  0
LINE
  5
3EA
  8
0
  6
CONTINUOUS
 62
   253
 10
-4444.500000000001
 20
-521.8982417973635
 30
0.0
 11
-4444.500000000001
 21
-295.5979254817128
 31
0.0
  0
ARC
  5
3EB
  8
0
  6
CONTINUOUS
 62
     7
 10
-4457.0
 20
-577.1342362538962
 30
0.0
 40
53.75190393929851
 50
90.0
 51
91.37744531845338
  0
ARC
  5
3EC
  8
0
  6
CONTINUOUS
 62
     7
 10
-4452.630011682692
 20
-585.1642581093593
 30
0.0
 40
62.18150925286557
 50
98.45523331899406
 51
98.84760737649908
  0
ARC
  5
3ED
  8
0
  6
CONTINUOUS
 62
     7
 10
-4983.648883830904
 20
-391.6012689478711
 30
0.0
 40
138.4022054550519
 50
272.5361392481056
 51
272.710532778059
  0
ARC
  5
3EE
  8
0
  6
CONTINUOUS
 62
     7
 10
-4464.348126545938
 20
-521.0284583003332
 30
0.0
 40
3.139640718321958
 50
286.8616826807597
 51
290.7420601934217
  0
ARC
  5
3EF
  8
0
  6
CONTINUOUS
 62
     7
 10
-4457.592570957062
 20
-412.3780666214357
 30
0.0
 40
115.1509430546745
 50
278.4552333189911
 51
278.8476073765167
  0
ARC
  5
3F0
  8
0
  6
CONTINUOUS
 62
     7
 10
-4449.651873454062
 20
-521.0284583003332
 30
0.0
 40
3.139640718321958
 50
249.2579398065782
 51
253.1383173192401
  0
ARC
  5
3F1
  8
0
  6
CONTINUOUS
 62
     7
 10
-4958.60591815205
 20
-653.2970883442714
 30
0.0
 40
125.6127059166196
 50
94.65642566121296
 51
95.15643003196244
  0
ARC
  5
3F2
  8
0
  6
CONTINUOUS
 62
     7
 10
-4992.358822646091
 20
-530.457947367959
 30
0.0
 40
0.9208593290118314
 50
247.9999271666616
 51
270.9324723153328
  0
LINE
  5
3F3
  8
0
  6
CONTINUOUS
 62
     7
 10
-4477.0
 20
-521.8982417973638
 30
0.0
 11
-4477.0
 21
-525.0423265550494
 31
0.0
  0
ARC
  5
3F4
  8
0
  6
CONTINUOUS
 62
     7
 10
-4437.263518389416
 20
-529.6553607640275
 30
0.0
 40
0.2635183894161841
 50
312.4113160483544
 51
0.0000000000241585
  0
ARC
  5
3F5
  8
0
  6
CONTINUOUS
 62
     7
 10
-4992.272812126514
 20
-535.7423988053415
 30
0.0
 40
4.364292022040672
 50
86.12456151499373
 51
90.93247231539908
  0
LINE
  5
3F6
  8
0
  6
CONTINUOUS
 62
     7
 10
-4967.510791982974
 20
-526.511276006361
 30
0.0
 11
-4986.805183610388
 21
-529.6553607640274
 31
0.0
  0
ARC
  5
3F7
  8
0
  6
CONTINUOUS
 62
     7
 10
-4439.456253825524
 20
-526.3504229311698
 30
0.0
 40
4.248762795787607
 50
282.6798569209146
 51
290.7420601934082
  0
ARC
  5
3F8
  8
0
  6
CONTINUOUS
 62
     7
 10
-4959.390021228122
 20
-635.4439327622623
 30
0.0
 40
107.7694138498807
 50
96.96784755260641
 51
97.6545975265995
  0
ARC
  5
3F9
  8
0
  6
CONTINUOUS
 62
     7
 10
-4964.979404888653
 20
-593.8557871204439
 30
0.0
 40
65.80734684133465
 50
97.65459752658874
 51
98.77926507324625
  0
ARC
  5
3FA
  8
0
  6
CONTINUOUS
 62
     7
 10
-4955.851420965152
 20
-652.9604475461035
 30
0.0
 40
125.6127059201013
 50
98.77926507324615
 51
99.27926944398165
  0
ARC
  5
3FB
  8
0
  6
CONTINUOUS
 62
     7
 10
-4440.12956947452
 20
-625.1991585127834
 30
0.0
 40
103.8602795916425
 50
102.501905144915
 51
102.679856920918
  0
LINE
  5
3FC
  8
0
  6
CONTINUOUS
 62
     7
 10
-4477.0
 20
-521.8982417973638
 30
0.0
 11
-4444.500000000001
 21
-521.8982417973635
 31
0.0
  0
ARC
  5
3FD
  8
0
  6
CONTINUOUS
 62
     7
 10
-4441.459347357809
 20
-516.7964027613502
 30
0.0
 40
4.678805288920597
 50
326.2094518859358
 51
336.4453967891484
  0
ARC
  5
3FE
  8
0
  6
CONTINUOUS
 62
     7
 10
-4959.390021228079
 20
-635.4439327626175
 30
0.0
 40
107.7694138502385
 50
96.28109757861607
 51
96.96784755260647
  0
ARC
  5
3FF
  8
0
  6
CONTINUOUS
 62
     7
 10
-4433.258461982437
 20
-338.2393621311465
 30
0.0
 40
192.333851129832
 50
257.3201430791094
 51
257.498094855081
  0
ARC
  5
400
  8
0
  6
CONTINUOUS
 62
     7
 10
-4465.418888071453
 20
-465.4628909233604
 30
0.0
 40
61.31510338005297
 50
266.3862853782348
 51
268.6225546815435
  0
LINE
  5
401
  8
0
  6
CONTINUOUS
 62
     7
 10
-4437.0
 20
-517.8489715740432
 30
0.0
 11
-4437.0
 21
-525.0423265550492
 31
0.0
  0
ARC
  5
402
  8
0
  6
CONTINUOUS
 62
     7
 10
-4455.68956686799
 20
-463.5463263713015
 30
0.0
 40
61.77348411124724
 50
265.3660651824068
 51
266.3862853782362
  0
ARC
  5
403
  8
0
  6
CONTINUOUS
 62
     7
 10
-4979.042261187366
 20
-529.7495729383174
 30
0.0
 40
0.0649341559242312
 50
108.1866978918801
 51
186.9678475528927
  0
ARC
  5
404
  8
0
  6
CONTINUOUS
 62
     7
 10
-4905.254968789131
 20
-422.4694884365038
 30
0.0
 40
96.72313445118185
 50
276.5481516193017
 51
282.8567423921745
  0
ARC
  5
405
  8
0
  6
CONTINUOUS
 62
     7
 10
-4465.861729969091
 20
-526.7930565792885
 30
0.0
 40
3.199735572186394
 50
45.53250187152156
 51
47.58868395137932
  0
ARC
  5
406
  8
0
  6
CONTINUOUS
 62
     7
 10
-4992.843503085959
 20
-531.1571774074273
 30
0.0
 40
0.1202484368992004
 50
186.9678475525967
 51
265.7489972120111
  0
ARC
  5
407
  8
0
  6
CONTINUOUS
 62
     7
 10
-4982.369169811375
 20
-1306.683521497518
 30
0.0
 40
775.3316689769522
 50
90.65808793919565
 51
90.66704512529616
  0
ARC
  5
408
  8
0
  6
CONTINUOUS
 62
     7
 10
-4457.0
 20
-471.5168792299104
 30
0.0
 40
53.75190393929851
 50
268.6225546815466
 51
270.0
  0
ARC
  5
409
  8
0
  6
CONTINUOUS
 62
     7
 10
-4445.509377226736
 20
-505.2559350370805
 30
0.0
 40
16.7884642055049
 50
283.3607506961073
 51
287.7879849712708
  0
ARC
  5
40A
  8
0
  6
CONTINUOUS
 62
     7
 10
-4961.16425351058
 20
-666.2759149458235
 30
0.0
 40
138.4022054469747
 50
92.5361392481002
 51
92.7105327780639
  0
ARC
  5
40B
  8
0
  6
CONTINUOUS
 62
     7
 10
-4971.427016121406
 20
-109.3433852092532
 30
0.0
 40
418.6791011930941
 50
270.6239928259279
 51
270.6580879391968
  0
ARC
  5
40C
  8
0
  6
CONTINUOUS
 62
     7
 10
-4439.898833742189
 20
-517.8407028131311
 30
0.0
 40
2.801103144626409
 50
304.567581795254
 51
326.2094518859314
  0
ARC
  5
40D
  8
0
  6
CONTINUOUS
 62
     7
 10
-4473.870430525479
 20
-625.1991585127834
 30
0.0
 40
103.8602795916425
 50
77.32014307908206
 51
77.498094855085
  0
ARC
  5
40E
  8
0
  6
CONTINUOUS
 62
     7
 10
-4464.348126545938
 20
-527.6226571834734
 30
0.0
 40
3.139640718321958
 50
69.25793980657818
 51
73.13831731924006
  0
ARC
  5
40F
  8
0
  6
CONTINUOUS
 62
     7
 10
-4476.736481610582
 20
-525.0423265550489
 30
0.0
 40
0.2635183894179605
 50
180.0000000000966
 51
227.5886839514094
  0
ARC
  5
410
  8
0
  6
CONTINUOUS
 62
     7
 10
-4457.496199558577
 20
-492.1526625006712
 30
0.0
 40
33.11015582534889
 50
266.3862853782367
 51
268.6225546815378
  0
ARC
  5
411
  8
0
  6
CONTINUOUS
 62
     7
 10
-4992.889082907216
 20
-531.7703827658067
 30
0.0
 40
0.494648572079563
 50
67.99992716669232
 51
85.74899721224631
  0
ARC
  5
412
  8
0
  6
CONTINUOUS
 62
     7
 10
-4979.339465239026
 20
-527.2722127993167
 30
0.0
 40
2.356717691860741
 50
283.0032227897267
 51
287.8111335902141
  0
ARC
  5
413
  8
0
  6
CONTINUOUS
 62
     7
 10
-4441.783568994883
 20
-518.5527905383167
 30
0.0
 40
12.3662099501686
 50
278.8476073765025
 51
282.5019051449207
  0
ARC
  5
414
  8
0
  6
CONTINUOUS
 62
     7
 10
-4464.5
 20
-427.2484774588207
 30
0.0
 40
99.54056285049816
 50
268.6225546815455
 51
270.0
  0
ARC
  5
415
  8
0
  6
CONTINUOUS
 62
     7
 10
-4468.84733310984
 20
-496.0626287655753
 30
0.0
 40
30.54682285683716
 50
261.5447666810084
 51
265.366065182414
  0
ARC
  5
416
  8
0
  6
CONTINUOUS
 62
     7
 10
-4463.607700069714
 20
-524.3255577419034
 30
0.0
 40
0.1422999302862493
 50
180.0
 51
227.5886839512065
  0
ARC
  5
417
  8
0
  6
CONTINUOUS
 62
     7
 10
-4991.481051933744
 20
-524.0546079246539
 30
0.0
 40
7.350286069958102
 50
266.1245615149906
 51
270.6670451252993
  0
ARC
  5
418
  8
0
  6
CONTINUOUS
 62
     7
 10
-4461.166872742746
 20
-530.3209456638665
 30
0.0
 40
6.67775337317226
 50
98.84760737654852
 51
102.5019051449168
  0
ARC
  5
419
  8
0
  6
CONTINUOUS
 62
     7
 10
-4462.423622934222
 20
-526.1102241716322
 30
0.0
 40
2.294331909710135
 50
102.6798569208569
 51
110.7420601934128
  0
ARC
  5
41A
  8
0
  6
CONTINUOUS
 62
     7
 10
-4433.089388945821
 20
-534.2248030557947
 30
0.0
 40
5.925436245227381
 50
132.4113160487607
 51
134.4674981284668
  0
ARC
  5
41B
  8
0
  6
CONTINUOUS
 62
     7
 10
-4461.166872742746
 20
-518.3301698199401
 30
0.0
 40
6.67775337317226
 50
257.4980948550833
 51
261.1523926234515
  0
ARC
  5
41C
  8
0
  6
CONTINUOUS
 62
     7
 10
-4457.496199558577
 20
-556.4984529831355
 30
0.0
 40
33.11015582534889
 50
91.37744531846215
 51
93.61371462176324
  0
ARC
  5
41D
  8
0
  6
CONTINUOUS
 62
     7
 10
-4455.68956686799
 20
-585.1047891125068
 30
0.0
 40
61.77348411124878
 50
93.61371462176375
 51
94.63393481759297
  0
ARC
  5
41E
  8
0
  6
CONTINUOUS
 62
     7
 10
-4909.442435958078
 20
-412.1853863831927
 30
0.0
 40
107.7859867846365
 50
289.543244422241
 51
295.2730101699275
  0
LINE
  5
41F
  8
0
  6
CONTINUOUS
 62
     7
 10
-4894.414873791884
 20
-518.5872431636277
 30
0.0
 11
-4956.661114362133
 21
-525.5494121524565
 31
0.0
  0
ARC
  5
420
  8
0
  6
CONTINUOUS
 62
     7
 10
-4963.980939411457
 20
-593.7337596878893
 30
0.0
 40
65.80734684097106
 50
95.1564300319622
 51
96.28109757862595
  0
ARC
  5
421
  8
0
  6
CONTINUOUS
 62
     7
 10
-4950.242659533379
 20
-664.9411326546187
 30
0.0
 40
138.4022054779794
 50
101.2251623271505
 51
101.399555857075
  0
ARC
  5
422
  8
0
  6
CONTINUOUS
 62
     7
 10
-4526.984301276913
 20
269.4166411102997
 30
0.0
 40
46.76482713193335
 50
353.7211262885489
 51
359.982153162788
  0
LINE
  5
423
  8
0
  6
CONTINUOUS
 62
     7
 10
-4497.419496643703
 20
-320.5979254811094
 30
0.0
 11
-4493.921778265183
 21
-320.5979254815573
 31
0.0
  0
ARC
  5
424
  8
0
  6
CONTINUOUS
 62
     7
 10
-4504.598343637774
 20
-312.2594429439347
 30
0.0
 40
9.463578130099968
 50
20.09636269644581
 51
29.3087928365766
  0
LINE
  5
425
  8
0
  6
CONTINUOUS
 62
   253
 10
-4426.602835252288
 20
-345.5979254817159
 30
0.0
 11
-4426.602835252288
 21
-355.5979254817117
 31
0.0
  0
LINE
  5
426
  8
0
  6
CONTINUOUS
 62
     7
 10
-4505.919496643703
 20
-320.5979254811094
 30
0.0
 11
-4497.419496643703
 21
-320.5979254811094
 31
0.0
  0
ARC
  5
427
  8
0
  6
CONTINUOUS
 62
     7
 10
-4465.861522754323
 20
-331.0644124266732
 30
0.0
 40
33.24835431994209
 50
145.218465576168
 51
161.651432066742
  0
ARC
  5
428
  8
0
  6
CONTINUOUS
 62
     7
 10
-4502.171778265184
 20
-314.235466637444
 30
0.0
 40
5.93745884360114
 50
269.9999999926634
 51
283.3581685718245
  0
LINE
  5
429
  8
0
  6
CONTINUOUS
 62
     7
 10
-4489.67177826491
 20
-312.0979254815571
 30
0.0
 11
-4493.921778264638
 21
-303.5979254815572
 31
0.0
  0
ARC
  5
42A
  8
0
  6
CONTINUOUS
 62
     7
 10
-4341.015698734452
 20
2359.387507926559
 30
0.0
 40
46.7648271192795
 50
173.721126287178
 51
179.982153163117
  0
LINE
  5
42B
  8
0
  6
CONTINUOUS
 62
     7
 10
-4419.904563243505
 20
-303.5979254811095
 30
0.0
 11
-4426.900000000544
 21
-303.5979254815572
 31
0.0
  0
ARC
  5
42C
  8
0
  6
CONTINUOUS
 62
     7
 10
-4502.259900400593
 20
-314.014741797751
 30
0.0
 40
6.11788174472606
 50
231.4537994753724
 51
244.9740196823147
  0
ARC
  5
42D
  8
0
  6
CONTINUOUS
 62
     7
 10
-4501.973887898344
 20
-310.7937395362343
 30
0.0
 40
6.793987597206547
 50
103.3581685718246
 51
115.0259803030241
  0
ARC
  5
42E
  8
0
  6
CONTINUOUS
 62
     7
 10
-4502.171778264637
 20
-309.9603843246462
 30
0.0
 40
5.93745884360114
 50
90.0000000001457
 51
103.3581685718246
  0
LINE
  5
42F
  8
0
  6
CONTINUOUS
 62
     7
 10
-4419.145373864972
 20
-303.5979254810609
 30
0.0
 11
-4419.904563243505
 21
-303.5979254811095
 31
0.0
  0
ARC
  5
430
  8
0
  6
CONTINUOUS
 62
     7
 10
-4405.330170147347
 20
-447.2605105958694
 30
0.0
 40
2.264886731245288
 50
300.9064491114414
 51
319.9394559855707
  0
LINE
  5
431
  8
0
  6
CONTINUOUS
 62
     7
 10
-4493.169496643432
 20
-312.0979254811095
 30
0.0
 11
-4489.671778264911
 21
-312.0979254815571
 31
0.0
  0
ARC
  5
432
  8
0
  6
CONTINUOUS
 62
     7
 10
-4503.714314568522
 20
-311.9359978795583
 30
0.0
 40
8.522236478545109
 50
9.499869669236825
 51
20.09636269644701
  0
LINE
  5
433
  8
0
  6
CONTINUOUS
 62
     7
 10
-4497.419496643159
 20
-303.5979254811095
 30
0.0
 11
-4505.919496643158
 21
-303.5979254811095
 31
0.0
  0
ARC
  5
434
  8
0
  6
CONTINUOUS
 62
     7
 10
-4502.581469455065
 20
-313.0686320481227
 30
0.0
 40
7.150633529779362
 50
318.4890057676169
 51
330.6912071487536
  0
ARC
  5
435
  8
0
  6
CONTINUOUS
 62
     7
 10
-4500.936410020977
 20
-311.9139055850343
 30
0.0
 40
10.78203328758119
 50
330.6912071487804
 51
339.9036372888766
  0
ARC
  5
436
  8
0
  6
CONTINUOUS
 62
     7
 10
-4502.171778264637
 20
-309.960384324643
 30
0.0
 40
5.937458843597976
 50
76.64183141350088
 51
89.99999999266338
  0
ARC
  5
437
  8
0
  6
CONTINUOUS
 62
     7
 10
-4501.762087074758
 20
-311.1272189139676
 30
0.0
 40
7.150633529779362
 50
138.4890057676169
 51
146.7698092255521
  0
ARC
  5
438
  8
0
  6
CONTINUOUS
 62
     7
 10
-4341.015698734666
 20
269.3875079265607
 30
0.0
 40
46.7648271192644
 50
173.7211262871767
 51
179.9821531631173
  0
ARC
  5
439
  8
0
  6
CONTINUOUS
 62
     7
 10
-4502.369668631143
 20
-310.7937395361837
 30
0.0
 40
6.793987597206313
 50
64.97401968231043
 51
76.64183141350944
  0
LINE
  5
43A
  8
0
  6
CONTINUOUS
 62
   253
 10
-4463.258426965691
 20
2364.402074518304
 30
0.0
 11
-4463.25842696593
 21
-145.5979254817161
 31
0.0
  0
ARC
  5
43B
  8
0
  6
CONTINUOUS
 62
     7
 10
-4503.714314568578
 20
-312.2598530821315
 30
0.0
 40
8.522236478561279
 50
339.9036372888837
 51
350.5001303160747
  0
ARC
  5
43C
  8
0
  6
CONTINUOUS
 62
     7
 10
-4503.449806324769
 20
-311.8957555731558
 30
0.0
 40
8.31022721568767
 50
41.51099421770741
 51
51.45379947534155
  0
ARC
  5
43D
  8
0
  6
CONTINUOUS
 62
     7
 10
-4502.171778265184
 20
-314.2354666374472
 30
0.0
 40
5.937458843597976
 50
256.6418314135009
 51
269.9999999926634
  0
ARC
  5
43E
  8
0
  6
CONTINUOUS
 62
     7
 10
-4431.431817690078
 20
-307.8479254818473
 30
0.0
 40
12.28576798911321
 50
339.7615013840539
 51
20.23849862328007
  0
ARC
  5
43F
  8
0
  6
CONTINUOUS
 62
     7
 10
-4526.957775930894
 20
2359.388639556502
 30
0.0
 40
46.73830144841352
 50
0.016469717459529
 51
6.158881549192132
  0
ARC
  5
440
  8
0
  6
CONTINUOUS
 62
     7
 10
-4504.681969278924
 20
-312.0979254807248
 30
0.0
 40
9.5033461495726
 50
359.9999999926716
 51
9.499869669244845
  0
LINE
  5
441
  8
0
  6
CONTINUOUS
 62
     7
 10
-4410.296107071356
 20
-345.5979254817159
 30
0.0
 11
-4410.296107071357
 21
-355.5979254817159
 31
0.0
  0
ARC
  5
442
  8
0
  6
CONTINUOUS
 62
     7
 10
-4503.449806324815
 20
-312.3000953886119
 30
0.0
 40
8.310227215679651
 50
308.546200509974
 51
318.4890057676179
  0
ARC
  5
443
  8
0
  6
CONTINUOUS
 62
     7
 10
-4526.984301276913
 20
119.4166411102989
 30
0.0
 40
46.76482713191917
 50
353.721126288548
 51
359.982153162789
  0
ARC
  5
444
  8
0
  6
CONTINUOUS
 62
     7
 10
-4501.762087075025
 20
-313.0686320482457
 30
0.0
 40
7.150633529752596
 50
213.230190762325
 51
221.510994217709
  0
ARC
  5
445
  8
0
  6
CONTINUOUS
 62
     7
 10
-4501.973887898678
 20
-313.4021114259065
 30
0.0
 40
6.793987597206313
 50
244.9740196823104
 51
256.6418314135094
  0
ARC
  5
446
  8
0
  6
CONTINUOUS
 62
     7
 10
-4341.028406245077
 20
269.4159421381689
 30
0.0
 40
46.75211939691612
 50
180.0169950819959
 51
186.2797254676884
  0
ARC
  5
447
  8
0
  6
CONTINUOUS
 62
     7
 10
-4504.681969278971
 20
-312.0979254807248
 30
0.0
 40
9.503346149619674
 50
350.5001303161459
 51
359.9999999926716
  0
LINE
  5
448
  8
0
  6
CONTINUOUS
 62
     7
 10
-4429.399999999984
 20
-312.3479254817171
 30
0.0
 11
-4426.899999999984
 21
-312.347925481557
 31
0.0
  0
ARC
  5
449
  8
0
  6
CONTINUOUS
 62
     7
 10
-4498.638547175077
 20
-313.2038698056348
 30
0.0
 40
8.146851823432488
 50
318.4890057676082
 51
330.6912071486993
  0
LINE
  5
44A
  8
0
  6
CONTINUOUS
 62
   253
 10
-4441.397164746509
 20
2364.402074518299
 30
0.0
 11
-4441.397164746509
 21
2363.820138271536
 31
0.0
  0
ARC
  5
44B
  8
0
  6
CONTINUOUS
 62
     7
 10
-4499.627859769683
 20
-312.3282614753226
 30
0.0
 40
9.467998809183104
 50
311.7429992644881
 51
318.4890057676085
  0
LINE
  5
44C
  8
0
  6
CONTINUOUS
 62
     7
 10
-4426.900000000544
 20
-303.5979254815572
 30
0.0
 11
-4426.900000000467
 21
-304.7995652666303
 31
0.0
  0
ARC
  5
44D
  8
0
  6
CONTINUOUS
 62
     7
 10
-4502.369668631477
 20
-313.4021114258558
 30
0.0
 40
6.793987597206547
 50
283.3581685718245
 51
295.0259803030241
  0
ARC
  5
44E
  8
0
  6
CONTINUOUS
 62
     7
 10
-4526.984301276697
 20
2359.416641110297
 30
0.0
 40
46.76482713191547
 50
353.721126288548
 51
359.9821531627904
  0
LINE
  5
44F
  8
0
  6
CONTINUOUS
 62
   253
 10
-4422.507075030594
 20
2364.402074518294
 30
0.0
 11
-4422.507075030594
 21
2363.820138271535
 31
0.0
  0
ARC
  5
450
  8
0
  6
CONTINUOUS
 62
     7
 10
-4502.083656129228
 20
-310.1811091643392
 30
0.0
 40
6.11788174472606
 50
51.45379947537239
 51
64.97401968231473
  0
LINE
  5
451
  8
0
  6
CONTINUOUS
 62
     7
 10
-4426.900000000077
 20
-310.8962856964789
 30
0.0
 11
-4426.900000000467
 21
-304.7995652666261
 31
0.0
  0
LINE
  5
452
  8
0
  6
CONTINUOUS
 62
   253
 10
-4422.507075030852
 20
-345.5979254817159
 30
0.0
 11
-4422.507075030853
 21
-355.5979254817129
 31
0.0
  0
LINE
  5
453
  8
0
  6
CONTINUOUS
 62
   253
 10
-4445.492924967965
 20
2364.4020745183
 30
0.0
 11
-4445.492924967965
 21
2363.820138271536
 31
0.0
  0
ARC
  5
454
  8
0
  6
CONTINUOUS
 62
     7
 10
-4405.370786516197
 20
-447.7159577716905
 30
0.0
 40
1.86844405091785
 50
282.810109770577
 51
289.6332441618122
  0
ARC
  5
455
  8
0
  6
CONTINUOUS
 62
     7
 10
-4405.832764471456
 20
-446.4209511418922
 30
0.0
 40
3.243386159650831
 50
289.6332441617467
 51
300.9064491114399
  0
ARC
  5
456
  8
0
  6
CONTINUOUS
 62
     7
 10
-4502.259900400105
 20
-310.1811091643107
 30
0.0
 40
6.117881744719994
 50
115.0259803030239
 51
128.5462005099751
  0
ARC
  5
457
  8
0
  6
CONTINUOUS
 62
     7
 10
-4526.971593766179
 20
269.3882068981645
 30
0.0
 40
46.75211940926208
 50
0.01699508230314
 51
6.279725466337595
  0
ARC
  5
458
  8
0
  6
CONTINUOUS
 62
     7
 10
-4341.015698734651
 20
419.3875079265609
 30
0.0
 40
46.7648271192654
 50
173.721126287177
 51
179.9821531631173
  0
ARC
  5
459
  8
0
  6
CONTINUOUS
 62
     7
 10
-4502.581469454796
 20
-311.1272189138446
 30
0.0
 40
7.150633529752596
 50
29.30879283652984
 51
41.51099421770904
  0
ARC
  5
45A
  8
0
  6
CONTINUOUS
 62
     7
 10
-4526.971593766172
 20
419.3882068981645
 30
0.0
 40
46.75211940926805
 50
0.01699508230314
 51
6.279725466336857
  0
ARC
  5
45B
  8
0
  6
CONTINUOUS
 62
     7
 10
-4504.598343637736
 20
-311.9364080175322
 30
0.0
 40
9.46357813010514
 50
330.6912071487571
 51
339.9036372888829
  0
LINE
  5
45C
  8
0
  6
CONTINUOUS
 62
     7
 10
-4493.921778265183
 20
-320.5979254815573
 30
0.0
 11
-4489.671778264911
 21
-312.0979254815571
 31
0.0
  0
ARC
  5
45D
  8
0
  6
CONTINUOUS
 62
     7
 10
-4341.028406245062
 20
419.4159421381689
 30
0.0
 40
46.75211939691675
 50
180.0169950819959
 51
186.2797254676884
  0
ARC
  5
45E
  8
0
  6
CONTINUOUS
 62
     7
 10
-4502.083656129716
 20
-314.0147417977794
 30
0.0
 40
6.117881744719994
 50
295.0259803030239
 51
308.5462005099751
  0
ARC
  5
45F
  8
0
  6
CONTINUOUS
 62
     7
 10
-4500.893750205007
 20
-311.8957555734783
 30
0.0
 40
8.310227215679651
 50
128.546200509974
 51
138.4890057676179
  0
ARC
  5
460
  8
0
  6
CONTINUOUS
 62
     7
 10
-4408.58949521376
 20
-444.8187725914588
 30
0.0
 40
6.351255605438286
 50
344.6708064053082
 51
353.3966987681011
  0
ARC
  5
461
  8
0
  6
CONTINUOUS
 62
     7
 10
-4431.431817689535
 20
-316.3479254818472
 30
0.0
 40
12.28576798911335
 50
339.7615013840541
 51
20.23849862327984
  0
ARC
  5
462
  8
0
  6
CONTINUOUS
 62
     7
 10
-4492.619968797642
 20
3334.862660928923
 30
0.0
 40
1.701164437400488
 50
215.1194910070164
 51
245.7296039919833
  0
ARC
  5
463
  8
0
  6
CONTINUOUS
 62
     7
 10
-4481.849078244504
 20
3348.506356544935
 30
0.0
 40
12.2855401663475
 50
189.9612354782377
 51
200.9921497020593
  0
ARC
  5
464
  8
0
  6
CONTINUOUS
 62
     7
 10
-4485.018387706386
 20
3347.903099247699
 30
0.0
 40
9.059771869431467
 50
167.1038040167111
 51
189.6707626561707
  0
ARC
  5
465
  8
0
  6
CONTINUOUS
 62
     7
 10
-4481.141095557874
 20
3347.063019762037
 30
0.0
 40
13.02683960054586
 50
159.2037346651596
 51
167.3081737632467
  0
LINE
  5
466
  8
0
  6
CONTINUOUS
 62
     7
 10
-4374.676215556769
 20
3350.88555530007
 30
0.0
 11
-4374.676215556769
 21
3345.48888947745
 31
0.0
  0
ARC
  5
467
  8
0
  6
CONTINUOUS
 62
     7
 10
-4376.222963418504
 20
3335.30943282735
 30
0.0
 40
2.032893931473263
 50
285.2595344989825
 51
315.4776411843123
  0
LINE
  5
468
  8
0
  6
CONTINUOUS
 62
     7
 10
-4375.687922487742
 20
3333.348211539726
 30
0.0
 11
-4375.779593456693
 21
3333.311852584873
 31
0.0
  0
LINE
  5
469
  8
0
  6
CONTINUOUS
 62
     7
 10
-4426.899999999533
 20
-319.3962856964841
 30
0.0
 11
-4426.899999999456
 21
-320.5979254815573
 31
0.0
  0
LINE
  5
46A
  8
0
  6
CONTINUOUS
 62
     7
 10
-4497.419496643159
 20
-303.5979254811095
 30
0.0
 11
-4493.921778264638
 21
-303.5979254815572
 31
0.0
  0
LINE
  5
46B
  8
0
  6
CONTINUOUS
 62
     7
 10
-4381.676215556769
 20
3351.688147415127
 30
0.0
 11
-4375.779593456693
 21
3351.688147415127
 31
0.0
  0
LINE
  5
46C
  8
0
  6
CONTINUOUS
 62
     7
 10
-4495.176215556769
 20
3347.499999999999
 30
0.0
 11
-4495.176215556769
 21
3337.5
 31
0.0
  0
LINE
  5
46D
  8
0
  6
CONTINUOUS
 62
     7
 10
-4374.676215556769
 20
3351.0
 30
0.0
 11
-4374.676215556769
 21
3350.88555530007
 31
0.0
  0
ARC
  5
46E
  8
0
  6
CONTINUOUS
 62
     7
 10
-4376.327483826603
 20
3349.554187601132
 30
0.0
 40
2.203172336697121
 50
45.14512956622853
 51
75.6004379135033
  0
ARC
  5
46F
  8
0
  6
CONTINUOUS
 62
     7
 10
-4498.171778265223
 20
-314.5332664894528
 30
0.0
 40
6.764658992101713
 50
256.6418314135242
 51
269.9999999926654
  0
LINE
  5
470
  8
0
  6
CONTINUOUS
 62
     7
 10
-4381.676215556769
 20
3333.311852584872
 30
0.0
 11
-4375.779593456693
 21
3333.311852584872
 31
0.0
  0
ARC
  5
471
  8
0
  6
CONTINUOUS
 62
     7
 10
-4498.397238496786
 20
-313.5838091586162
 30
0.0
 40
7.740518377000758
 50
283.3581685718102
 51
295.0206910813349
  0
LINE
  5
472
  8
0
  6
CONTINUOUS
 62
     7
 10
-4496.676215556769
 20
3339.0
 30
0.0
 11
-4496.676215556769
 21
3346.0
 31
0.0
  0
LINE
  5
473
  8
0
  6
CONTINUOUS
 62
     7
 10
-4484.723784443599
 20
3331.499999999999
 30
0.0
 11
-4484.723784443599
 21
3339.718329326111
 31
0.0
  0
ARC
  5
474
  8
0
  6
CONTINUOUS
 62
     7
 10
-4492.638847641155
 20
3350.160179602996
 30
0.0
 40
1.672600913354227
 50
114.002455301744
 51
145.1484520582254
  0
ARC
  5
475
  8
0
  6
CONTINUOUS
 62
     7
 10
-4500.936410020986
 20
-312.2819453773577
 30
0.0
 40
10.78203328754039
 50
20.09636269645114
 51
29.30879283658282
  0
ARC
  5
476
  8
0
  6
CONTINUOUS
 62
     7
 10
-4493.502631614616
 20
3334.123829446019
 30
0.0
 40
0.5624971306257432
 50
116.9603735495506
 51
205.2361172858239
  0
ARC
  5
477
  8
0
  6
CONTINUOUS
 62
     7
 10
-4491.971315898864
 20
3332.416842979982
 30
0.0
 40
2.840390451177086
 50
118.3300090871013
 51
128.9694236659558
  0
LINE
  5
478
  8
0
  6
CONTINUOUS
 62
     7
 10
-4493.31922120064
 20
3344.105184230112
 30
0.0
 11
-4486.3237844436
 21
3344.105184230112
 31
0.0
  0
LINE
  5
479
  8
0
  6
CONTINUOUS
 62
     7
 10
-4493.31922120064
 20
3334.917036814985
 30
0.0
 11
-4486.3237844436
 21
3334.917036814985
 31
0.0
  0
ARC
  5
47A
  8
0
  6
CONTINUOUS
 62
     7
 10
-4381.301368233079
 20
3337.061693994257
 30
0.0
 40
6.62528353274492
 50
0.3601087329715918
 51
19.0524311578874
  0
ARC
  5
47B
  8
0
  6
CONTINUOUS
 62
     7
 10
-4384.867910889599
 20
3335.866129091905
 30
0.0
 40
10.38678022615907
 50
18.86396370080563
 51
28.95633770362967
  0
LINE
  5
47C
  8
0
  6
CONTINUOUS
 62
     7
 10
-4486.3237844436
 20
3331.499999999999
 30
0.0
 11
-4486.3237844436
 21
3353.499999999999
 31
0.0
  0
LINE
  5
47D
  8
0
  6
CONTINUOUS
 62
     7
 10
-4484.723784443599
 20
3345.281670673887
 30
0.0
 11
-4484.723784443599
 21
3353.5
 31
0.0
  0
ARC
  5
47E
  8
0
  6
CONTINUOUS
 62
     7
 10
-4384.324048744567
 20
3345.441140954973
 30
0.0
 40
9.647951344247966
 50
0.2835627882574556
 51
16.53079501544508
  0
ARC
  5
47F
  8
0
  6
CONTINUOUS
 62
     7
 10
-4388.782812006804
 20
3344.17233057866
 30
0.0
 40
14.28353144251206
 50
16.321049903744
 51
24.44424224745119
  0
LINE
  5
480
  8
0
  6
CONTINUOUS
 62
     7
 10
-4383.276215556769
 20
3353.5
 30
0.0
 11
-4383.276215556769
 21
3345.281670673887
 31
0.0
  0
LINE
  5
481
  8
0
  6
CONTINUOUS
 62
     7
 10
-4493.31922120064
 20
3351.688147415127
 30
0.0
 11
-4486.3237844436
 21
3351.688147415127
 31
0.0
  0
LINE
  5
482
  8
0
  6
CONTINUOUS
 62
     7
 10
-4493.31922120064
 20
3333.311852584872
 30
0.0
 11
-4486.3237844436
 21
3333.311852584872
 31
0.0
  0
ARC
  5
483
  8
0
  6
CONTINUOUS
 62
     7
 10
-4497.946318033411
 20
-313.5838091586605
 30
0.0
 40
7.740518377015279
 50
244.9836579133606
 51
256.6418314134983
  0
LINE
  5
484
  8
0
  6
CONTINUOUS
 62
     7
 10
-4381.676215556769
 20
3340.894815769886
 30
0.0
 11
-4375.779593456693
 21
3340.894815769886
 31
0.0
  0
ARC
  5
485
  8
0
  6
CONTINUOUS
 62
     7
 10
-4375.039119527399
 20
3350.868050863923
 30
0.0
 40
0.3633258828973246
 50
2.761484274386094
 51
43.03629308119694
  0
LINE
  5
486
  8
0
  6
CONTINUOUS
 62
     7
 10
-4383.276215556769
 20
3339.718329326111
 30
0.0
 11
-4383.276215556769
 21
3331.499999999999
 31
0.0
  0
LINE
  5
487
  8
0
  6
CONTINUOUS
 62
     7
 10
-4419.904563242417
 20
-320.5979254811094
 30
0.0
 11
-4426.899999999456
 21
-320.5979254815573
 31
0.0
  0
ARC
  5
488
  8
0
  6
CONTINUOUS
 62
     7
 10
-4500.893750205052
 20
-312.3000953889343
 30
0.0
 40
8.31022721568767
 50
221.5109942177074
 51
231.4537994753415
  0
ARC
  5
489
  8
0
  6
CONTINUOUS
 62
     7
 10
-4476.848327942723
 20
3340.128309202562
 30
0.0
 40
17.27563847188308
 50
187.823501300973
 51
197.5569974534553
  0
ARC
  5
48A
  8
0
  6
CONTINUOUS
 62
     7
 10
-4480.807465941706
 20
3339.519250603007
 30
0.0
 40
13.27060210711577
 50
169.0973415868941
 51
187.5451771594104
  0
ARC
  5
48B
  8
0
  6
CONTINUOUS
 62
     7
 10
-4475.685199542233
 20
3338.590943815601
 30
0.0
 40
18.47608094803076
 50
162.6352940686507
 51
169.2749710840245
  0
LINE
  5
48C
  8
0
  6
CONTINUOUS
 62
     7
 10
-4375.545225073807
 20
-337.0298262407953
 30
0.0
 11
-4375.660491588749
 21
-336.9273992384351
 31
0.0
  0
ARC
  5
48D
  8
0
  6
CONTINUOUS
 62
     7
 10
-4501.031686293318
 20
-312.0979254811922
 30
0.0
 40
10.82734174322297
 50
6.372728110198751
 51
9.499869669192208
  0
ARC
  5
48E
  8
0
  6
CONTINUOUS
 62
     7
 10
-4499.92921900715
 20
-311.9134383071256
 30
0.0
 40
9.709544966315597
 50
9.4998696692939
 51
20.09636269645051
  0
ARC
  5
48F
  8
0
  6
CONTINUOUS
 62
     7
 10
-4341.015698734675
 20
119.3875079265604
 30
0.0
 40
46.76482711926936
 50
173.7211262871767
 51
179.9821531631169
  0
ARC
  5
490
  8
0
  6
CONTINUOUS
 62
     7
 10
-4499.627859769629
 20
-311.8675894874217
 30
0.0
 40
9.46799880918903
 50
41.51099421771295
 51
48.25700073215103
  0
LINE
  5
491
  8
0
  6
CONTINUOUS
 62
     7
 10
-4375.545225073808
 20
-187.0298262407954
 30
0.0
 11
-4375.660491588749
 21
-186.9273992384352
 31
0.0
  0
LINE
  5
492
  8
0
  6
CONTINUOUS
 62
     7
 10
-4375.660491588749
 20
-186.9273992384352
 30
0.0
 11
-4375.779593456509
 21
-186.8294584125499
 31
0.0
  0
ARC
  5
493
  8
0
  6
CONTINUOUS
 62
     7
 10
-4496.921778264599
 20
-309.6625844738215
 30
0.0
 40
6.764658992101713
 50
76.64183141352419
 51
89.99999999266532
  0
ARC
  5
494
  8
0
  6
CONTINUOUS
 62
     7
 10
-4388.108732706388
 20
3346.54385612198
 30
0.0
 40
13.56168616131225
 50
335.383406506082
 51
345.9179159022339
  0
ARC
  5
495
  8
0
  6
CONTINUOUS
 62
     7
 10
-4384.098764322045
 20
3345.517798148759
 30
0.0
 40
9.422593111520683
 50
346.0367974623102
 51
359.8242153262688
  0
ARC
  5
496
  8
0
  6
CONTINUOUS
 62
     7
 10
-4498.638547174744
 20
-310.9919811573144
 30
0.0
 40
8.146851823364706
 50
29.30879283653002
 51
41.51099421771596
  0
ARC
  5
497
  8
0
  6
CONTINUOUS
 62
     7
 10
-4498.171778265223
 20
-314.5332664894555
 30
0.0
 40
6.764658992099104
 50
269.9999999926654
 51
283.3581685718059
  0
LINE
  5
498
  8
0
  6
CONTINUOUS
 62
     7
 10
-4375.660491588749
 20
-336.9273992384351
 30
0.0
 11
-4375.779593456509
 21
-336.8294584125499
 31
0.0
  0
LINE
  5
499
  8
0
  6
CONTINUOUS
 62
     7
 10
-4381.676215556769
 20
3350.082963185014
 30
0.0
 11
-4375.779593456693
 21
3350.082963185014
 31
0.0
  0
ARC
  5
49A
  8
0
  6
CONTINUOUS
 62
     7
 10
-4384.564344329256
 20
3338.198101154738
 30
0.0
 40
10.05222726461595
 50
330.9163406831354
 51
342.5696892263525
  0
ARC
  5
49B
  8
0
  6
CONTINUOUS
 62
     7
 10
-4381.201565028665
 20
3337.135033128305
 30
0.0
 40
6.525426465285318
 50
342.6306992196646
 51
359.7216698010616
  0
LINE
  5
49C
  8
0
  6
CONTINUOUS
 62
     7
 10
-4374.676215556769
 20
3337.103334177379
 30
0.0
 11
-4374.676215556769
 21
3333.999999999999
 31
0.0
  0
LINE
  5
49D
  8
0
  6
CONTINUOUS
 62
     7
 10
-4494.3237844436
 20
3334.424999999999
 30
0.0
 11
-4494.3237844436
 21
3350.574999999999
 31
0.0
  0
LINE
  5
49E
  8
0
  6
CONTINUOUS
 62
     7
 10
-4426.900000000017
 20
-311.8479254815572
 30
0.0
 11
-4429.400000000017
 21
-311.8479254817174
 31
0.0
  0
LINE
  5
49F
  8
0
  6
CONTINUOUS
 62
     7
 10
-4374.676215556769
 20
3345.48888947745
 30
0.0
 11
-4374.676215556769
 21
3337.103334177379
 31
0.0
  0
ARC
  5
4A0
  8
0
  6
CONTINUOUS
 62
     7
 10
-4376.368893128361
 20
3352.296092808908
 30
0.0
 40
2.290243837495723
 50
284.910429835009
 51
313.755515155523
  0
ARC
  5
4A1
  8
0
  6
CONTINUOUS
 62
     7
 10
-4375.053026113997
 20
3350.907629355745
 30
0.0
 40
0.3774565670007303
 50
315.24172251657
 51
356.6473698859073
  0
LINE
  5
4A2
  8
0
  6
CONTINUOUS
 62
     7
 10
-4426.900000000001
 20
-312.0979254815571
 30
0.0
 11
-4426.899999999923
 21
-313.2995652666349
 31
0.0
  0
LINE
  5
4A3
  8
0
  6
CONTINUOUS
 62
     9
 10
-4964.324573838251
 20
3660.807391116262
 30
0.0
 11
-4508.33957218146
 21
3397.544327663283
 31
0.0
  0
LINE
  5
4A4
  8
0
  6
CONTINUOUS
 62
     9
 10
-4444.500000000185
 20
2724.071751246946
 30
0.0
 11
-4444.500000000185
 21
3250.597878152906
 31
0.0
  0
LINE
  5
4A5
  8
0
  6
CONTINUOUS
 62
     7
 10
-4477.000000000185
 20
3245.22222569733
 30
0.0
 11
-4477.000000000185
 21
3246.982874783072
 31
0.0
  0
LINE
  5
4A6
  8
0
  6
CONTINUOUS
 62
     7
 10
-4464.500000000185
 20
2689.415148846891
 30
0.0
 11
-4449.500000000186
 21
2689.415148846891
 31
0.0
  0
ARC
  5
4A7
  8
0
  6
CONTINUOUS
 62
     7
 10
-4457.000000000185
 20
2707.0294275288
 30
0.0
 40
6.841610962753819
 50
270.0
 51
292.1604321292053
  0
ARC
  5
4A8
  8
0
  6
CONTINUOUS
 62
     7
 10
-4456.936965353666
 20
2706.874660408675
 30
0.0
 40
6.674499538447984
 50
292.1604321292027
 51
314.8829955389101
  0
ARC
  5
4A9
  8
0
  6
CONTINUOUS
 62
     7
 10
-4456.998040224382
 20
2706.935985233758
 30
0.0
 40
6.761049373828297
 50
314.8829955389077
 51
337.1576471461036
  0
ARC
  5
4AA
  8
0
  6
CONTINUOUS
 62
     7
 10
-4456.8451661725
 20
2706.871589886056
 30
0.0
 40
6.595166172315353
 50
337.1576471461062
 51
0.0000000000007958
  0
LINE
  5
4AB
  8
0
  6
CONTINUOUS
 62
     7
 10
-3876.925426162118
 20
3614.475032013796
 30
0.0
 11
-3857.631034534566
 21
3625.614654213814
 31
0.0
  0
ARC
  5
4AC
  8
0
  6
CONTINUOUS
 62
     7
 10
-4500.453328099168
 20
3418.433709834369
 30
0.0
 40
10.46614232933142
 50
47.58013153824111
 51
59.99999999999972
  0
ARC
  5
4AD
  8
0
  6
CONTINUOUS
 62
     7
 10
-4500.99865261183
 20
3417.836919030528
 30
0.0
 40
11.27455935516551
 50
36.05393533988228
 51
47.58013153822054
  0
ARC
  5
4AE
  8
0
  6
CONTINUOUS
 62
     7
 10
-4500.464686790401
 20
3418.225636412443
 30
0.0
 40
10.61408929418132
 50
23.51772666176936
 51
36.05393533987848
  0
ARC
  5
4AF
  8
0
  6
CONTINUOUS
 62
     7
 10
-4502.307217946253
 20
3417.423803139032
 30
0.0
 40
12.62353142040223
 50
12.98324067791594
 51
23.5177266617456
  0
ARC
  5
4B0
  8
0
  6
CONTINUOUS
 62
     7
 10
-4501.296008156371
 20
3417.656947785487
 30
0.0
 40
11.58579269349507
 50
1.136749113939971
 51
12.98324067791583
  0
ARC
  5
4B1
  8
0
  6
CONTINUOUS
 62
     7
 10
-4503.370765832493
 20
3417.615779160647
 30
0.0
 40
13.66095877607632
 50
354.4548901617628
 51
1.136749113935991
  0
ARC
  5
4B2
  8
0
  6
CONTINUOUS
 62
     7
 10
-4886.017879322972
 20
3739.051637772966
 30
0.0
 40
114.4148525623211
 50
237.2455807363944
 51
239.9999999999995
  0
ARC
  5
4B3
  8
0
  6
CONTINUOUS
 62
     7
 10
-4901.098224230745
 20
3715.610589794003
 30
0.0
 40
86.54193500980281
 50
233.6037719474539
 51
237.2455807364032
  0
ARC
  5
4B4
  8
0
  6
CONTINUOUS
 62
     7
 10
-4883.533313958122
 20
3739.43833853042
 30
0.0
 40
116.1440917341218
 50
232.3680951370763
 51
233.6037719474537
  0
ARC
  5
4B5
  8
0
  6
CONTINUOUS
 62
     7
 10
-4919.699270482569
 20
3692.529944074635
 30
0.0
 40
56.91256396598392
 50
229.8462378412405
 51
232.3680951370869
  0
ARC
  5
4B6
  8
0
  6
CONTINUOUS
 62
     7
 10
-4898.573365823522
 20
3717.570037217852
 30
0.0
 40
89.67397590570553
 50
228.4251892590756
 51
229.8462378412405
  0
ARC
  5
4B7
  8
0
  6
CONTINUOUS
 62
     7
 10
-4934.259760779792
 20
3677.339873304731
 30
0.0
 40
35.89679790749252
 50
224.8747834460689
 51
228.425189259092
  0
ARC
  5
4B8
  8
0
  6
CONTINUOUS
 62
     7
 10
-4915.938773207315
 20
3695.580956496236
 30
0.0
 40
61.75014781867953
 50
223.1365411580182
 51
224.8747834460699
  0
ARC
  5
4B9
  8
0
  6
CONTINUOUS
 62
     7
 10
-4945.173088310684
 20
3668.188975921682
 30
0.0
 40
21.68812366412895
 50
218.1860900777121
 51
223.1365411579978
  0
ARC
  5
4BA
  8
0
  6
CONTINUOUS
 62
     7
 10
-4932.270297869724
 20
3678.337399530748
 30
0.0
 40
38.10374131660735
 50
216.9984498587289
 51
218.1860900777106
  0
ARC
  5
4BB
  8
0
  6
CONTINUOUS
 62
     7
 10
-4952.157386689049
 20
3663.352246761925
 30
0.0
 40
13.20291592441084
 50
213.5704589561715
 51
216.9984498587853
  0
ARC
  5
4BC
  8
0
  6
CONTINUOUS
 62
     7
 10
-4944.89687064738
 20
3668.170728047395
 30
0.0
 40
21.91686193582029
 50
211.7716836100976
 51
213.5704589561704
  0
ARC
  5
4BD
  8
0
  6
CONTINUOUS
 62
     7
 10
-4956.232763742353
 20
3661.149930259765
 30
0.0
 40
8.582917514327843
 50
207.1773885863195
 51
211.7716836100603
  0
ARC
  5
4BE
  8
0
  6
CONTINUOUS
 62
     7
 10
-4950.578784309167
 20
3664.052860915345
 30
0.0
 40
14.93858347644315
 50
204.9226739022313
 51
207.1773885863201
  0
ARC
  5
4BF
  8
0
  6
CONTINUOUS
 62
     7
 10
-4959.453875203978
 20
3659.928911162255
 30
0.0
 40
5.15215409912856
 50
198.3820378654381
 51
204.9226739022256
  0
ARC
  5
4C0
  8
0
  6
CONTINUOUS
 62
     7
 10
-4953.297194991695
 20
3661.97482260627
 30
0.0
 40
11.63987055972318
 50
195.9438219441908
 51
198.3820378654389
  0
ARC
  5
4C1
  8
0
  6
CONTINUOUS
 62
     7
 10
-4962.025323518251
 20
3659.481330937592
 30
0.0
 40
2.562551116305144
 50
184.8522436147006
 51
195.9438219443225
  0
ARC
  5
4C2
  8
0
  6
CONTINUOUS
 62
     7
 10
-4960.461730242756
 20
3659.614065417443
 30
0.0
 40
4.131768237456845
 50
173.8674922048687
 51
184.8522436146968
  0
ARC
  5
4C3
  8
0
  6
CONTINUOUS
 62
     7
 10
-4962.668310725054
 20
3659.85114716201
 30
0.0
 40
1.912487908507261
 50
150.0000000000081
 51
173.8674922049042
  0
LINE
  5
4C4
  8
0
  6
CONTINUOUS
 62
     7
 10
-4381.676215556769
 20
3353.5
 30
0.0
 11
-4381.676215556769
 21
3331.5
 31
0.0
  0
LINE
  5
4C5
  8
0
  6
CONTINUOUS
 62
     7
 10
-4328.254976230463
 20
3353.899794788604
 30
0.0
 11
-4329.779743065867
 21
3353.019470245732
 31
0.0
  0
ARC
  5
4C6
  8
0
  6
CONTINUOUS
 62
   251
 10
-4405.594202967338
 20
3307.411894329093
 30
0.0
 40
1.014492948796078
 50
270.0000039022432
 51
308.9921146555154
  0
ARC
  5
4C7
  8
0
  6
CONTINUOUS
 62
   253
 10
-4406.000000344729
 20
3307.913153763715
 30
0.0
 40
6.000000974565261
 50
270.0000032945609
 51
308.9921152631953
  0
LINE
  5
4C8
  8
0
  6
CONTINUOUS
 62
     7
 10
-4512.565207799818
 20
3391.323745487195
 30
0.0
 11
-4943.225305604134
 21
3639.965468883746
 31
0.0
  0
LINE
  5
4C9
  8
0
  6
CONTINUOUS
 62
     7
 10
-3921.774694396236
 20
3634.76931646104
 30
0.0
 11
-3877.631034534566
 21
3660.255670365191
 31
0.0
  0
ARC
  5
4CA
  8
0
  6
CONTINUOUS
 62
     7
 10
-4504.104653246624
 20
3418.372182261367
 30
0.0
 40
12.86042971176023
 50
343.5926910169345
 51
351.0948360109434
  0
ARC
  5
4CB
  8
0
  6
CONTINUOUS
 62
     7
 10
-4504.895532667896
 20
3418.496103703518
 30
0.0
 40
13.66095877607612
 50
351.094836010943
 51
1.13674911393565
  0
ARC
  5
4CC
  8
0
  6
CONTINUOUS
 62
     7
 10
-4502.820774991776
 20
3418.537272328358
 30
0.0
 40
11.58579269349598
 50
1.13674911393938
 51
12.98324067791508
  0
ARC
  5
4CD
  8
0
  6
CONTINUOUS
 62
     7
 10
-4503.831984781656
 20
3418.304127681903
 30
0.0
 40
12.62353142040234
 50
12.98324067791757
 51
23.5177266617471
  0
ARC
  5
4CE
  8
0
  6
CONTINUOUS
 62
     7
 10
-4501.989453625804
 20
3419.105960955314
 30
0.0
 40
10.61408929418079
 50
23.51772666177129
 51
36.05393533988041
  0
ARC
  5
4CF
  8
0
  6
CONTINUOUS
 62
     7
 10
-4502.523419447233
 20
3418.717243573399
 30
0.0
 40
11.27455935516546
 50
36.05393533988211
 51
47.58013153822037
  0
ARC
  5
4D0
  8
0
  6
CONTINUOUS
 62
     7
 10
-4501.978094934571
 20
3419.31403437724
 30
0.0
 40
10.46614232933169
 50
47.58013153823931
 51
59.99999999999789
  0
ARC
  5
4D1
  8
0
  6
CONTINUOUS
 62
     7
 10
-3872.166340882685
 20
3640.316701948559
 30
0.0
 40
6.841610962752076
 50
29.99999999999554
 51
52.16043212920686
  0
ARC
  5
4D2
  8
0
  6
CONTINUOUS
 62
     7
 10
-3872.063825948246
 20
3640.448675113825
 30
0.0
 40
6.674499538446023
 50
52.16043212919931
 51
74.88299553891292
  0
ARC
  5
4D3
  8
0
  6
CONTINUOUS
 62
     7
 10
-3872.086397369293
 20
3640.365120311713
 30
0.0
 40
6.761049373824546
 50
74.88299553891
 51
97.15764714612216
  0
ARC
  5
4D4
  8
0
  6
CONTINUOUS
 62
     7
 10
-3872.10706638824
 20
3640.52971079807
 30
0.0
 40
6.595166172313792
 50
97.15764714610688
 51
120.0000000000055
  0
LINE
  5
4D5
  8
0
  6
CONTINUOUS
 62
     7
 10
-3876.925426162118
 20
3614.475032013796
 30
0.0
 11
-3893.175426162118
 21
3642.62085763679
 31
0.0
  0
LINE
  5
4D6
  8
0
  6
CONTINUOUS
 62
     7
 10
-4984.338071925557
 20
3695.456200391979
 30
0.0
 11
-4991.838071925557
 21
3682.465819335212
 31
0.0
  0
ARC
  5
4D7
  8
0
  6
CONTINUOUS
 62
   251
 10
-4434.000000000152
 20
3342.499999999988
 30
0.0
 40
46.1594202898464
 50
308.9921185589347
 51
231.0078814417465
  0
ARC
  5
4D8
  8
0
  6
CONTINUOUS
 62
     7
 10
-4333.240436098061
 20
3365.276319504228
 30
0.0
 40
12.8604297117554
 50
223.5926910169341
 51
231.0948360109473
  0
ARC
  5
4D9
  8
0
  6
CONTINUOUS
 62
     7
 10
-4332.737677270449
 20
3365.899280453303
 30
0.0
 40
13.66095877606991
 50
231.0948360109483
 51
241.1367491139457
  0
ARC
  5
4DA
  8
0
  6
CONTINUOUS
 62
     7
 10
-4333.739403033557
 20
3364.081903286663
 30
0.0
 40
11.58579269348898
 50
241.1367491139344
 51
252.9832406779149
  0
ARC
  5
4DB
  8
0
  6
CONTINUOUS
 62
     7
 10
-4333.435707325202
 20
3365.074208976483
 30
0.0
 40
12.62353142039566
 50
252.9832406779119
 51
263.5177266617472
  0
ARC
  5
4DC
  8
0
  6
CONTINUOUS
 62
     7
 10
-4333.662564918753
 20
3363.07761355155
 30
0.0
 40
10.61408929417905
 50
263.5177266617697
 51
276.053935339883
  0
ARC
  5
4DD
  8
0
  6
CONTINUOUS
 62
     7
 10
-4333.732221135668
 20
3363.734400208596
 30
0.0
 40
11.27455935514111
 50
276.0539353398833
 51
287.5801315382452
  0
ARC
  5
4DE
  8
0
  6
CONTINUOUS
 62
     7
 10
-4333.488047395118
 20
3362.963739925408
 30
0.0
 40
10.46614232930822
 50
287.5801315382116
 51
299.9999999999979
  0
ARC
  5
4DF
  8
0
  6
CONTINUOUS
 62
     7
 10
-4473.928238432665
 20
3306.913152789458
 30
0.0
 40
68.33621175274462
 50
359.1977113786837
 51
359.5675680837482
  0
ARC
  5
4E0
  8
0
  6
CONTINUOUS
 62
     7
 10
-4447.367144613848
 20
3306.541204691785
 30
0.0
 40
41.77251377525317
 50
357.8852187617256
 51
359.1977113786986
  0
ARC
  5
4E1
  8
0
  6
CONTINUOUS
 62
     7
 10
-4485.078662824204
 20
3307.93376532859
 30
0.0
 40
79.50973453748216
 50
357.2998433597209
 51
357.8852187617256
  0
ARC
  5
4E2
  8
0
  6
CONTINUOUS
 62
     7
 10
-4426.162616351331
 20
3305.155193678508
 30
0.0
 40
20.52820359424258
 50
355.0324322147757
 51
357.2998433597381
  0
ARC
  5
4E3
  8
0
  6
CONTINUOUS
 62
     7
 10
-4491.917225778437
 20
3310.870473210524
 30
0.0
 40
86.53072688722176
 50
354.8255403330404
 51
355.0324322147753
  0
ARC
  5
4E4
  8
0
  6
CONTINUOUS
 62
     7
 10
-4413.768878175881
 20
3303.793539169343
 30
0.0
 40
8.062598144188897
 50
352.6049638691061
 51
354.8255403329339
  0
ARC
  5
4E5
  8
0
  6
CONTINUOUS
 62
     7
 10
-3950.565994032139
 20
3243.674794677041
 30
0.0
 40
459.0253757091427
 50
172.6049638691065
 51
172.6341420532078
  0
ARC
  5
4E6
  8
0
  6
CONTINUOUS
 62
     7
 10
-4408.346532211713
 20
3302.852738434881
 30
0.0
 40
2.564323226379182
 50
347.4093059382196
 51
352.634142053291
  0
ARC
  5
4E7
  8
0
  6
CONTINUOUS
 62
     7
 10
-4404.180091725255
 20
3301.922139142351
 30
0.0
 40
1.704779884398638
 50
167.4093059382175
 51
172.3806989971011
  0
ARC
  5
4E8
  8
0
  6
CONTINUOUS
 62
     7
 10
-4406.211471899253
 20
3302.193879643477
 30
0.0
 40
0.3446952462783146
 50
327.6086013084698
 51
352.3806989969214
  0
ARC
  5
4E9
  8
0
  6
CONTINUOUS
 62
     7
 10
-4405.702057130816
 20
3301.870702463925
 30
0.0
 40
0.25858486750326
 50
147.6086013084723
 51
161.9159723906476
  0
ARC
  5
4EA
  8
0
  6
CONTINUOUS
 62
     7
 10
-4405.999999999723
 20
3301.967993281772
 30
0.0
 40
0.054840492621994
 50
269.99999999984
 51
341.9159723913902
  0
LINE
  5
4EB
  8
0
  6
CONTINUOUS
 62
     9
 10
-3893.175426162118
 20
3642.62085763679
 30
0.0
 11
-4349.160427818909
 21
3379.357794183809
 31
0.0
  0
ARC
  5
4EC
  8
0
  6
CONTINUOUS
 62
     7
 10
-3864.567268115062
 20
3535.683147571797
 30
0.0
 40
114.414852562347
 50
117.2455807363967
 51
120.0000000000006
  0
ARC
  5
4ED
  8
0
  6
CONTINUOUS
 62
     7
 10
-3877.327638702363
 20
3560.463633349395
 30
0.0
 40
86.54193500965816
 50
113.6037719474514
 51
117.2455807364072
  0
ARC
  5
4EE
  8
0
  6
CONTINUOUS
 62
     7
 10
-3865.474658118315
 20
3533.338100470742
 30
0.0
 40
116.1440917330573
 50
112.3680951370625
 51
113.6037719474512
  0
ARC
  5
4EF
  8
0
  6
CONTINUOUS
 62
     7
 10
-3888.015541105133
 20
3588.112934800052
 30
0.0
 40
56.91256396592367
 50
109.8462378412395
 51
112.3680951370886
  0
ARC
  5
4F0
  8
0
  6
CONTINUOUS
 62
     7
 10
-3876.893136659383
 20
3557.297318115448
 30
0.0
 40
89.673975905998
 50
108.4251892590787
 51
109.8462378412395
  0
ARC
  5
4F1
  8
0
  6
CONTINUOUS
 62
     7
 10
-3893.890283128491
 20
3608.317724673801
 30
0.0
 40
35.89679790759563
 50
104.8747834460744
 51
108.4251892590869
  0
ARC
  5
4F2
  8
0
  6
CONTINUOUS
 62
     7
 10
-3887.253535478319
 20
3583.330742417794
 30
0.0
 40
61.75014781885542
 50
103.1365411580284
 51
104.874783446075
  0
ARC
  5
4F3
  8
0
  6
CONTINUOUS
 62
     7
 10
-3896.358528964238
 20
3622.344392247117
 30
0.0
 40
21.68812366400667
 50
98.1860900777092
 51
103.1365411580223
  0
ARC
  5
4F4
  8
0
  6
CONTINUOUS
 62
     7
 10
-3894.021131530787
 20
3606.096036140216
 30
0.0
 40
38.10374131728381
 50
96.99844985874819
 51
98.18609007770976
  0
ARC
  5
4F5
  8
0
  6
CONTINUOUS
 62
     7
 10
-3897.055110098607
 20
3630.811336650042
 30
0.0
 40
13.20291592451786
 50
93.57045895615903
 51
96.99844985874512
  0
ARC
  5
4F6
  8
0
  6
CONTINUOUS
 62
     7
 10
-3896.512440918587
 20
3622.114304670963
 30
0.0
 40
21.91686193560121
 50
91.7716836100672
 51
93.57045895615748
  0
ARC
  5
4F7
  8
0
  6
CONTINUOUS
 62
     7
 10
-3896.924683610005
 20
3635.441874959321
 30
0.0
 40
8.58291751439774
 50
87.17738858633129
 51
91.77168361003095
  0
ARC
  5
4F8
  8
0
  6
CONTINUOUS
 62
     7
 10
-3897.237661633444
 20
3629.093919809862
 30
0.0
 40
14.9385834765682
 50
84.92267390225987
 51
87.1773885863301
  0
ARC
  5
4F9
  8
0
  6
CONTINUOUS
 62
     7
 10
-3896.37156143613
 20
3638.841948862382
 30
0.0
 40
5.1521540990806
 50
78.38203786544841
 51
84.92267390229631
  0
ARC
  5
4FA
  8
0
  6
CONTINUOUS
 62
     7
 10
-3897.678090257923
 20
3632.487151673258
 30
0.0
 40
11.63987055998334
 50
75.94382194425276
 51
78.38203786544686
  0
ARC
  5
4FB
  8
0
  6
CONTINUOUS
 62
     7
 10
-3895.473453123803
 20
3641.292678539326
 30
0.0
 40
2.562551116327391
 50
64.85224361469908
 51
75.94382194422019
  0
ARC
  5
4FC
  8
0
  6
CONTINUOUS
 62
     7
 10
-3896.140298330031
 20
3639.872199801658
 30
0.0
 40
4.131768237452848
 50
53.86749220485273
 51
64.85224361469693
  0
ARC
  5
4FD
  8
0
  6
CONTINUOUS
 62
     7
 10
-3894.831689275314
 20
3641.664613682537
 30
0.0
 40
1.912487908504888
 50
29.99999999998954
 51
53.86749220491345
  0
LINE
  5
4FE
  8
0
  6
CONTINUOUS
 62
     7
 10
-4352.434792200551
 20
3386.127593064488
 30
0.0
 11
-3921.774694396236
 21
3634.76931646104
 31
0.0
  0
ARC
  5
4FF
  8
0
  6
CONTINUOUS
 62
     7
 10
-3872.670848243471
 20
3640.204211192188
 30
0.0
 40
6.595166172313712
 50
97.15764714610303
 51
117.1710714478745
  0
ARC
  5
500
  8
0
  6
CONTINUOUS
 62
     7
 10
-3872.650179224524
 20
3640.03962070583
 30
0.0
 40
6.761049373825872
 50
74.88299553891659
 51
97.1576471461225
  0
ARC
  5
501
  8
0
  6
CONTINUOUS
 62
     7
 10
-3872.627607803478
 20
3640.123175507942
 30
0.0
 40
6.674499538447545
 50
52.16043212920187
 51
74.88299553891255
  0
ARC
  5
502
  8
0
  6
CONTINUOUS
 62
     7
 10
-3872.730122737917
 20
3639.991202342675
 30
0.0
 40
6.841610962753593
 50
30.00000000000205
 51
52.16043212920733
  0
ARC
  5
503
  8
0
  6
CONTINUOUS
 62
     7
 10
-3872.730122737919
 20
3639.991202342674
 30
0.0
 40
6.841610962755877
 50
7.839567870803536
 51
29.99999999999864
  0
ARC
  5
504
  8
0
  6
CONTINUOUS
 62
     7
 10
-3872.56457315696
 20
3640.013996297535
 30
0.0
 40
6.674499538448866
 50
345.1170044610902
 51
7.839567870796373
  0
ARC
  5
505
  8
0
  6
CONTINUOUS
 62
     7
 10
-3872.648219448726
 20
3640.036226274566
 30
0.0
 40
6.761049373832164
 50
322.8423528539008
 51
345.1170044610893
  0
ARC
  5
506
  8
0
  6
CONTINUOUS
 62
     7
 10
-3872.516014415787
 20
3639.936031135909
 30
0.0
 40
6.59516617231798
 50
302.8289285513727
 51
322.8423528538844
  0
LINE
  5
507
  8
0
  6
CONTINUOUS
 62
     7
 10
-4496.745023769906
 20
3428.377979514064
 30
0.0
 11
-4495.220256934503
 21
3427.497654971193
 31
0.0
  0
LINE
  5
508
  8
0
  6
CONTINUOUS
 62
     7
 10
-4477.000000000185
 20
2724.071751246945
 30
0.0
 11
-4444.500000000186
 21
2724.071751246946
 31
0.0
  0
LINE
  5
509
  8
0
  6
CONTINUOUS
 62
     7
 10
-4477.000000000185
 20
2724.071751246945
 30
0.0
 11
-4477.000000000185
 21
3245.22222569733
 31
0.0
  0
LINE
  5
50A
  8
0
  6
CONTINUOUS
 62
     7
 10
-3853.161928074814
 20
3642.628650761128
 30
0.0
 11
-3860.661928074814
 21
3655.619031817895
 31
0.0
  0
LINE
  5
50B
  8
0
  6
CONTINUOUS
 62
     7
 10
-4437.000000000185
 20
3250.048661448316
 30
0.0
 11
-4437.000000000185
 21
2752.765214655212
 31
0.0
  0
ARC
  5
50C
  8
0
  6
CONTINUOUS
 62
   251
 10
-4462.405797032188
 20
3307.411894328937
 30
0.0
 40
1.014492948380521
 50
231.0078853357933
 51
269.9999961056944
  0
ARC
  5
50D
  8
0
  6
CONTINUOUS
 62
     7
 10
-4972.83365911768
 20
3680.153870522638
 30
0.0
 40
6.841610962758082
 50
149.9999999999991
 51
172.16043212919
  0
ARC
  5
50E
  8
0
  6
CONTINUOUS
 62
     7
 10
-4972.999208698638
 20
3680.176664477501
 30
0.0
 40
6.674499538452643
 50
172.1604321292196
 51
194.8829955389086
  0
ARC
  5
50F
  8
0
  6
CONTINUOUS
 62
     7
 10
-4972.915562406879
 20
3680.19889445453
 30
0.0
 40
6.761049373829247
 50
194.8829955389056
 51
217.1576471461028
  0
ARC
  5
510
  8
0
  6
CONTINUOUS
 62
     7
 10
-4973.047767439816
 20
3680.098699315872
 30
0.0
 40
6.595166172314601
 50
217.1576471461087
 51
240.0000000000021
  0
ARC
  5
511
  8
0
  6
CONTINUOUS
 62
     7
 10
-4466.533857670867
 20
3246.982874783072
 30
0.0
 40
10.46614232931731
 50
167.5801315382244
 51
180.0
  0
ARC
  5
512
  8
0
  6
CONTINUOUS
 62
     7
 10
-4465.744359417665
 20
3246.809005303728
 30
0.0
 40
11.27455935515071
 50
156.0539353398824
 51
167.5801315382353
  0
ARC
  5
513
  8
0
  6
CONTINUOUS
 62
     7
 10
-4466.347981456008
 20
3247.077074578879
 30
0.0
 40
10.61408929416871
 50
143.5177266617582
 51
156.0539353398831
  0
ARC
  5
514
  8
0
  6
CONTINUOUS
 62
     7
 10
-4464.73230789371
 20
3245.882312427361
 30
0.0
 40
12.62353142038315
 50
132.9832406779137
 51
143.5177266617591
  0
ARC
  5
515
  8
0
  6
CONTINUOUS
 62
     7
 10
-4465.439821975229
 20
3246.641473470718
 30
0.0
 40
11.58579269348811
 50
121.136749113934
 51
132.9832406779151
  0
ARC
  5
516
  8
0
  6
CONTINUOUS
 62
     7
 10
-4464.366790062215
 20
3244.865264928918
 30
0.0
 40
13.66095877607338
 50
114.454890161765
 51
121.1367491139403
  0
ARC
  5
517
  8
0
  6
CONTINUOUS
 62
     7
 10
-3872.107066388238
 20
3640.529710798067
 30
0.0
 40
6.595166172317898
 50
120.0000000000029
 51
142.842352853885
  0
ARC
  5
518
  8
0
  6
CONTINUOUS
 62
     7
 10
-3871.9748613553
 20
3640.42951565941
 30
0.0
 40
6.761049373832263
 50
142.8423528539002
 51
165.1170044610887
  0
ARC
  5
519
  8
0
  6
CONTINUOUS
 62
     7
 10
-3872.058507647065
 20
3640.451745636442
 30
0.0
 40
6.674499538448904
 50
165.117004461091
 51
187.8395678707972
  0
ARC
  5
51A
  8
0
  6
CONTINUOUS
 62
     7
 10
-3871.892958066105
 20
3640.474539591302
 30
0.0
 40
6.841610962756586
 50
187.8395678708065
 51
210.0000000000011
  0
ARC
  5
51B
  8
0
  6
CONTINUOUS
 62
     7
 10
-3871.892958066109
 20
3640.4745395913
 30
0.0
 40
6.841610962752134
 50
210.0000000000038
 51
232.1604321292141
  0
ARC
  5
51C
  8
0
  6
CONTINUOUS
 62
     7
 10
-3871.995473000548
 20
3640.342566426032
 30
0.0
 40
6.674499538445049
 50
232.1604321291977
 51
254.8829955389146
  0
ARC
  5
51D
  8
0
  6
CONTINUOUS
 62
     7
 10
-3871.972901579501
 20
3640.426121228146
 30
0.0
 40
6.761049373825833
 50
254.8829955389129
 51
277.1576471461188
  0
ARC
  5
51E
  8
0
  6
CONTINUOUS
 62
     7
 10
-3871.952232560554
 20
3640.261530741788
 30
0.0
 40
6.595166172313737
 50
277.157647146103
 51
300.0
  0
ARC
  5
51F
  8
0
  6
CONTINUOUS
 62
     7
 10
-4464.65491065587
 20
3243.851498234392
 30
0.0
 40
12.86042971176828
 50
103.5926910169383
 51
111.0948360109429
  0
ARC
  5
520
  8
0
  6
CONTINUOUS
 62
     7
 10
-4464.366790062215
 20
3243.104615843175
 30
0.0
 40
13.66095877607352
 50
111.0948360109412
 51
121.1367491139366
  0
ARC
  5
521
  8
0
  6
CONTINUOUS
 62
     7
 10
-4465.439821975229
 20
3244.880824384975
 30
0.0
 40
11.58579269348831
 50
121.1367491139357
 51
132.9832406779168
  0
ARC
  5
522
  8
0
  6
CONTINUOUS
 62
     7
 10
-4464.73230789371
 20
3244.121663341619
 30
0.0
 40
12.62353142038337
 50
132.9832406779145
 51
143.5177266617599
  0
ARC
  5
523
  8
0
  6
CONTINUOUS
 62
     7
 10
-4466.347981456008
 20
3245.316425493137
 30
0.0
 40
10.61408929416826
 50
143.5177266617571
 51
156.0539353398819
  0
ARC
  5
524
  8
0
  6
CONTINUOUS
 62
     7
 10
-4465.744359417666
 20
3245.048356217985
 30
0.0
 40
11.27455935514934
 50
156.0539353398817
 51
167.5801315382344
  0
ARC
  5
525
  8
0
  6
CONTINUOUS
 62
     7
 10
-4466.533857670863
 20
3245.22222569733
 30
0.0
 40
10.46614232932169
 50
167.5801315382296
 51
180.0000000000004
  0
ARC
  5
526
  8
0
  6
CONTINUOUS
 62
     7
 10
-4464.786729310709
 20
2701.79250684691
 30
0.0
 40
12.21327068947531
 50
180.0000000000011
 51
202.8423528538886
  0
ARC
  5
527
  8
0
  6
CONTINUOUS
 62
     7
 10
-4464.503629214631
 20
2701.911757490806
 30
0.0
 40
12.52046180339152
 50
202.8423528538996
 51
225.1170044610882
  0
ARC
  5
528
  8
0
  6
CONTINUOUS
 62
     7
 10
-4464.61673082707
 20
2701.798192999909
 30
0.0
 40
12.36018433046072
 50
225.1170044610891
 51
247.8395678707932
  0
ARC
  5
529
  8
0
  6
CONTINUOUS
 62
     7
 10
-4464.500000000185
 20
2702.084798777915
 30
0.0
 40
12.66964993102387
 50
247.8395678707913
 51
269.9999999999987
  0
ARC
  5
52A
  8
0
  6
CONTINUOUS
 62
     7
 10
-4461.999999999723
 20
3301.967993282026
 30
0.0
 40
0.0548404926203894
 50
198.0840276077415
 51
270.0
  0
ARC
  5
52B
  8
0
  6
CONTINUOUS
 62
     7
 10
-4462.297942868604
 20
3301.870702464204
 30
0.0
 40
0.2585848674737911
 50
18.0840276062118
 51
32.39139868987279
  0
ARC
  5
52C
  8
0
  6
CONTINUOUS
 62
     7
 10
-4461.788528100179
 20
3302.193879643728
 30
0.0
 40
0.3446952462837261
 50
187.619301001839
 51
212.3913986899121
  0
ARC
  5
52D
  8
0
  6
CONTINUOUS
 62
     7
 10
-4463.819908274132
 20
3301.922139142653
 30
0.0
 40
1.704779884342662
 50
7.619301001674826
 51
12.59069406068734
  0
ARC
  5
52E
  8
0
  6
CONTINUOUS
 62
     7
 10
-4459.653467787539
 20
3302.852738435129
 30
0.0
 40
2.564323226555402
 50
187.3658579459799
 51
192.5906940606772
  0
ARC
  5
52F
  8
0
  6
CONTINUOUS
 62
     7
 10
-4917.434006610834
 20
3243.67479460048
 30
0.0
 40
459.0253763572238
 50
7.365857946003293
 51
7.395036130063376
  0
ARC
  5
530
  8
0
  6
CONTINUOUS
 62
     7
 10
-4454.231121823687
 20
3303.793539169465
 30
0.0
 40
8.062598144032473
 50
185.174459666197
 51
187.3950361300642
  0
ARC
  5
531
  8
0
  6
CONTINUOUS
 62
     7
 10
-4376.082774236235
 20
3310.870473208301
 30
0.0
 40
86.53072687181096
 50
184.9675677844616
 51
185.1744596662338
  0
ARC
  5
532
  8
0
  6
CONTINUOUS
 62
     7
 10
-4441.837383647039
 20
3305.155193678583
 30
0.0
 40
20.52820359527081
 50
182.7001566396127
 51
184.9675677844609
  0
ARC
  5
533
  8
0
  6
CONTINUOUS
 62
     7
 10
-4382.921337170018
 20
3307.933765328174
 30
0.0
 40
79.50973454263156
 50
182.1147812376503
 51
182.7001566396173
  0
ARC
  5
534
  8
0
  6
CONTINUOUS
 62
     7
 10
-4420.632855383048
 20
3306.541204691682
 30
0.0
 40
41.77251377774185
 50
180.8022886207558
 51
182.1147812376504
  0
ARC
  5
535
  8
0
  6
CONTINUOUS
 62
     7
 10
-4394.071761562223
 20
3306.913152789098
 30
0.0
 40
68.33621175723701
 50
180.4324319157042
 51
180.8022886207444
  0
LINE
  5
536
  8
0
  6
CONTINUOUS
 62
     7
 10
-3876.925426162118
 20
3614.475032013796
 30
0.0
 11
-4328.254976230463
 21
3353.899794788604
 31
0.0
  0
ARC
  5
537
  8
0
  6
CONTINUOUS
 62
     7
 10
-4449.500000000186
 20
2702.084798777917
 30
0.0
 40
12.66964993102526
 50
270.0
 51
292.1604321292048
  0
ARC
  5
538
  8
0
  6
CONTINUOUS
 62
     7
 10
-4449.383269173301
 20
2701.79819299991
 30
0.0
 40
12.36018433046284
 50
292.1604321292102
 51
314.8829955389114
  0
ARC
  5
539
  8
0
  6
CONTINUOUS
 62
     7
 10
-4449.496370785733
 20
2701.911757490802
 30
0.0
 40
12.52046180338505
 50
314.8829955389093
 51
337.1576471461087
  0
ARC
  5
53A
  8
0
  6
CONTINUOUS
 62
     7
 10
-4449.213270689654
 20
2701.79250684691
 30
0.0
 40
12.21327068946919
 50
337.1576471461016
 51
0.0000000000005684
  0
LINE
  5
53B
  8
0
  6
CONTINUOUS
 62
     7
 10
-4477.000000000185
 20
2724.071751246945
 30
0.0
 11
-4477.000000000185
 21
2701.792506846911
 31
0.0
  0
LINE
  5
53C
  8
0
  6
CONTINUOUS
 62
   251
 10
-4462.405797101142
 20
3306.397401380568
 30
0.0
 11
-4405.594202898243
 21
3306.397401380309
 31
0.0
  0
LINE
  5
53D
  8
0
  6
CONTINUOUS
 62
   253
 10
-4405.999999999723
 20
3301.913152789161
 30
0.0
 11
-4461.999999999723
 21
3301.913152789417
 31
0.0
  0
ARC
  5
53E
  8
0
  6
CONTINUOUS
 62
   253
 10
-4433.999999999537
 20
3342.500000000318
 30
0.0
 40
50.49999999999985
 50
90.00000000000021
 51
231.007881441406
  0
ARC
  5
53F
  8
0
  6
CONTINUOUS
 62
     7
 10
-4973.475600810538
 20
3689.515836258899
 30
0.0
 40
12.21327068946836
 50
60.00000000000043
 51
82.84235285390099
  0
ARC
  5
540
  8
0
  6
CONTINUOUS
 62
     7
 10
-4973.51387677155
 20
3689.21103906193
 30
0.0
 40
12.52046180338794
 50
82.8423528538956
 51
105.1170044610898
  0
ARC
  5
541
  8
0
  6
CONTINUOUS
 62
     7
 10
-4973.555675699414
 20
3689.365770176955
 30
0.0
 40
12.36018433046304
 50
105.1170044610908
 51
127.8395678707913
  0
ARC
  5
542
  8
0
  6
CONTINUOUS
 62
     7
 10
-4973.365833228232
 20
3689.121375426466
 30
0.0
 40
12.66964993102409
 50
127.8395678707895
 51
149.9999999999954
  0
ARC
  5
543
  8
0
  6
CONTINUOUS
 62
     7
 10
-4972.483985584581
 20
3679.773199709993
 30
0.0
 40
6.595166172319333
 50
217.1576471461071
 51
237.1710714472426
  0
ARC
  5
544
  8
0
  6
CONTINUOUS
 62
     7
 10
-4972.351780551642
 20
3679.87339484865
 30
0.0
 40
6.761049373834033
 50
194.8829955389118
 51
217.1576471460885
  0
ARC
  5
545
  8
0
  6
CONTINUOUS
 62
     7
 10
-4972.435426843405
 20
3679.851164871618
 30
0.0
 40
6.674499538452566
 50
172.1604321292196
 51
194.8829955389086
  0
ARC
  5
546
  8
0
  6
CONTINUOUS
 62
     7
 10
-4972.269877262448
 20
3679.828370916756
 30
0.0
 40
6.841610962758407
 50
150.000000000001
 51
172.1604321291918
  0
ARC
  5
547
  8
0
  6
CONTINUOUS
 62
     7
 10
-4972.269877262448
 20
3679.828370916757
 30
0.0
 40
6.841610962758629
 50
127.8395678708115
 51
150.0000000000061
  0
ARC
  5
548
  8
0
  6
CONTINUOUS
 62
     7
 10
-4972.37239219689
 20
3679.960344082021
 30
0.0
 40
6.674499538452294
 50
105.1170044610886
 51
127.839567870783
  0
ARC
  5
549
  8
0
  6
CONTINUOUS
 62
     7
 10
-4972.349820775844
 20
3679.876789279908
 30
0.0
 40
6.761049373831324
 50
82.84235285389849
 51
105.1170044610862
  0
ARC
  5
54A
  8
0
  6
CONTINUOUS
 62
     7
 10
-4972.329151756901
 20
3680.041379766268
 30
0.0
 40
6.59516617231842
 50
62.82892855345807
 51
82.84235285388264
  0
ARC
  5
54B
  8
0
  6
CONTINUOUS
 62
     7
 10
-3871.634166772134
 20
3649.284206852384
 30
0.0
 40
12.66964993102113
 50
30.00000000000152
 51
52.16043212921396
  0
ARC
  5
54C
  8
0
  6
CONTINUOUS
 62
     7
 10
-3871.444324300954
 20
3649.528601602874
 30
0.0
 40
12.36018433046024
 50
52.16043212920638
 51
74.88299553890994
  0
ARC
  5
54D
  8
0
  6
CONTINUOUS
 62
     7
 10
-3871.48612322882
 20
3649.373870487843
 30
0.0
 40
12.52046180339182
 50
74.88299553891059
 51
97.15764714609911
  0
ARC
  5
54E
  8
0
  6
CONTINUOUS
 62
     7
 10
-3871.524399189829
 20
3649.67866768481
 30
0.0
 40
12.21327068947455
 50
97.15764714611011
 51
120.0000000000007
  0
LINE
  5
54F
  8
0
  6
CONTINUOUS
 62
     7
 10
-4437.000000000185
 20
2752.765214655212
 30
0.0
 11
-4437.000000000185
 21
2701.79250684691
 31
0.0
  0
LINE
  5
550
  8
0
  6
CONTINUOUS
 62
     7
 10
-4943.225305604134
 20
3639.965468883746
 30
0.0
 11
-4987.368965465804
 21
3665.451822787897
 31
0.0
  0
LINE
  5
551
  8
0
  6
CONTINUOUS
 62
     7
 10
-4948.074573838251
 20
3688.953216739257
 30
0.0
 11
-4967.368965465804
 21
3700.092838939274
 31
0.0
  0
ARC
  5
552
  8
0
  6
CONTINUOUS
 62
     7
 10
-4457.15483382787
 20
2706.871589886056
 30
0.0
 40
6.595166172314926
 50
180.0
 51
202.8423528538945
  0
ARC
  5
553
  8
0
  6
CONTINUOUS
 62
     7
 10
-4457.001959775987
 20
2706.935985233758
 30
0.0
 40
6.76104937382861
 50
202.8423528538927
 51
225.1170044610886
  0
ARC
  5
554
  8
0
  6
CONTINUOUS
 62
     7
 10
-4457.063034646703
 20
2706.874660408675
 30
0.0
 40
6.674499538448263
 50
225.1170044610872
 51
247.8395678707945
  0
ARC
  5
555
  8
0
  6
CONTINUOUS
 62
     7
 10
-4457.000000000185
 20
2707.0294275288
 30
0.0
 40
6.841610962754031
 50
247.8395678707895
 51
269.9999999999948
  0
ARC
  5
556
  8
0
  6
CONTINUOUS
 62
     7
 10
-4335.012814230521
 20
3362.083415382537
 30
0.0
 40
10.46614232930834
 50
287.5801315382139
 51
300.0000000000002
  0
ARC
  5
557
  8
0
  6
CONTINUOUS
 62
     7
 10
-4335.25698797107
 20
3362.854075665724
 30
0.0
 40
11.27455935514061
 50
276.0539353398814
 51
287.5801315382436
  0
ARC
  5
558
  8
0
  6
CONTINUOUS
 62
     7
 10
-4335.187331754156
 20
3362.197289008679
 30
0.0
 40
10.61408929417904
 50
263.5177266617698
 51
276.0539353398818
  0
ARC
  5
559
  8
0
  6
CONTINUOUS
 62
     7
 10
-4334.960474160606
 20
3364.193884433611
 30
0.0
 40
12.62353142039493
 50
252.9832406779162
 51
263.5177266617529
  0
ARC
  5
55A
  8
0
  6
CONTINUOUS
 62
     7
 10
-4335.264169868959
 20
3363.201578743796
 30
0.0
 40
11.58579269349339
 50
241.136749113934
 51
252.9832406779112
  0
ARC
  5
55B
  8
0
  6
CONTINUOUS
 62
     7
 10
-4334.262444105847
 20
3365.018955910437
 30
0.0
 40
13.66095877607824
 50
234.4548901617654
 51
241.1367491139374
  0
LINE
  5
55C
  8
0
  6
CONTINUOUS
 62
   251
 10
-4465.775280898594
 20
3303.249757659843
 30
0.0
 11
-4463.044129620279
 21
3306.623397373144
 31
0.0
  0
ARC
  5
55D
  8
0
  6
CONTINUOUS
 62
     7
 10
-4434.000000002513
 20
3342.500000000448
 30
0.0
 40
43.49999999999038
 50
248.912327796114
 51
291.0876722033639
  0
ARC
  5
55E
  8
0
  6
CONTINUOUS
 62
   253
 10
-4433.999999999537
 20
3342.500000000318
 30
0.0
 40
50.49999999999999
 50
308.9921185580714
 51
90.0
  0
ARC
  5
55F
  8
0
  6
CONTINUOUS
 62
     7
 10
-3871.952232560556
 20
3640.26153074179
 30
0.0
 40
6.595166172317291
 50
300.0000000000015
 51
322.8423528538852
  0
ARC
  5
560
  8
0
  6
CONTINUOUS
 62
     7
 10
-3872.084437593492
 20
3640.361725880447
 30
0.0
 40
6.761049373829957
 50
322.8423528538947
 51
345.1170044610915
  0
ARC
  5
561
  8
0
  6
CONTINUOUS
 62
     7
 10
-3872.000791301731
 20
3640.339495903417
 30
0.0
 40
6.674499538451165
 50
345.1170044610921
 51
7.839567870789721
  0
ARC
  5
562
  8
0
  6
CONTINUOUS
 62
     7
 10
-3872.166340882689
 20
3640.316701948555
 30
0.0
 40
6.841610962757967
 50
7.839567870808612
 51
29.99999999999737
  0
LINE
  5
563
  8
0
  6
CONTINUOUS
 62
     7
 10
-4948.074573838251
 20
3688.953216739257
 30
0.0
 11
-4964.324573838251
 21
3660.807391116262
 31
0.0
  0
LINE
  5
564
  8
0
  6
CONTINUOUS
 62
   251
 10
-4404.955870379116
 20
3306.623397372871
 30
0.0
 11
-4402.224719100839
 21
3303.249757659554
 31
0.0
  0
LINE
  5
565
  8
0
  6
CONTINUOUS
 62
     7
 10
-4948.074573838251
 20
3688.953216739257
 30
0.0
 11
-4496.745023769906
 21
3428.377979514064
 31
0.0
  0
ARC
  5
566
  8
0
  6
CONTINUOUS
 62
     7
 10
-4980.865833228229
 20
3676.130994369697
 30
0.0
 40
12.66964993102813
 50
149.9999999999959
 51
172.1604321291955
  0
ARC
  5
567
  8
0
  6
CONTINUOUS
 62
     7
 10
-4981.172406526298
 20
3676.173205397217
 30
0.0
 40
12.36018433046366
 50
172.1604321292113
 51
194.8829955389105
  0
ARC
  5
568
  8
0
  6
CONTINUOUS
 62
     7
 10
-4981.017505986
 20
3676.214372021347
 30
0.0
 40
12.52046180338715
 50
194.8829955389107
 51
217.1576471461074
  0
ARC
  5
569
  8
0
  6
CONTINUOUS
 62
     7
 10
-4981.262330121069
 20
3676.028825468273
 30
0.0
 40
12.2132706894692
 50
217.1576471461002
 51
239.9999999999997
  0
ARC
  5
56A
  8
0
  6
CONTINUOUS
 62
     7
 10
-4972.892933612132
 20
3680.36687937215
 30
0.0
 40
6.595166172318504
 50
59.99999999999568
 51
82.84235285387926
  0
ARC
  5
56B
  8
0
  6
CONTINUOUS
 62
     7
 10
-4972.913602631076
 20
3680.20228888579
 30
0.0
 40
6.761049373831379
 50
82.84235285389852
 51
105.1170044610863
  0
ARC
  5
56C
  8
0
  6
CONTINUOUS
 62
     7
 10
-4972.936174052123
 20
3680.285843687903
 30
0.0
 40
6.674499538452064
 50
105.1170044610849
 51
127.8395678707793
  0
ARC
  5
56D
  8
0
  6
CONTINUOUS
 62
     7
 10
-4972.833659117681
 20
3680.153870522639
 30
0.0
 40
6.841610962757798
 50
127.8395678708077
 51
150.0000000000023
  0
ARC
  5
56E
  8
0
  6
CONTINUOUS
 62
     7
 10
-3863.737669879302
 20
3636.191656894193
 30
0.0
 40
12.21327068947332
 50
299.9999999999991
 51
322.8423528538906
  0
ARC
  5
56F
  8
0
  6
CONTINUOUS
 62
     7
 10
-3863.982494014369
 20
3636.377203447263
 30
0.0
 40
12.52046180338616
 50
322.8423528538917
 51
345.1170044610905
  0
ARC
  5
570
  8
0
  6
CONTINUOUS
 62
     7
 10
-3863.827593474069
 20
3636.336036823132
 30
0.0
 40
12.36018433046035
 50
345.117004461089
 51
7.83956787079461
  0
ARC
  5
571
  8
0
  6
CONTINUOUS
 62
     7
 10
-3864.134166772137
 20
3636.293825795617
 30
0.0
 40
12.66964993102422
 50
7.839567870793267
 51
30.00000000000058
  0
ARC
  5
572
  8
0
  6
CONTINUOUS
 62
     7
 10
-4973.047767439814
 20
3680.098699315875
 30
0.0
 40
6.59516617231806
 50
240.0000000000023
 51
262.8423528538859
  0
ARC
  5
573
  8
0
  6
CONTINUOUS
 62
     7
 10
-4973.027098420871
 20
3680.263289802235
 30
0.0
 40
6.761049373831379
 50
262.8423528538985
 51
285.1170044610863
  0
ARC
  5
574
  8
0
  6
CONTINUOUS
 62
     7
 10
-4973.004526999825
 20
3680.179735000122
 30
0.0
 40
6.674499538452296
 50
285.1170044610922
 51
307.8395678707867
  0
ARC
  5
575
  8
0
  6
CONTINUOUS
 62
     7
 10
-4973.107041934266
 20
3680.311708165386
 30
0.0
 40
6.841610962757798
 50
307.8395678708077
 51
330.0000000000024
  0
ARC
  5
576
  8
0
  6
CONTINUOUS
 62
     7
 10
-4973.107041934266
 20
3680.311708165386
 30
0.0
 40
6.841610962758851
 50
330.0000000000028
 51
352.1604321291937
  0
ARC
  5
577
  8
0
  6
CONTINUOUS
 62
     7
 10
-4972.941492353309
 20
3680.288914210524
 30
0.0
 40
6.674499538452643
 50
352.1604321292195
 51
14.88299553890863
  0
ARC
  5
578
  8
0
  6
CONTINUOUS
 62
     7
 10
-4973.025138645066
 20
3680.266684233495
 30
0.0
 40
6.761049373828389
 50
14.88299553890749
 51
37.15764714610471
  0
ARC
  5
579
  8
0
  6
CONTINUOUS
 62
     7
 10
-4972.892933612131
 20
3680.366879372153
 30
0.0
 40
6.595166172316016
 50
37.15764714609936
 51
59.99999999999283
  0
ARC
  5
57A
  8
0
  6
CONTINUOUS
 62
     7
 10
-4551.414852562899
 20
2752.765214655212
 30
0.0
 40
114.4148525627138
 50
357.2455807364042
 51
0.0
  0
ARC
  5
57B
  8
0
  6
CONTINUOUS
 62
     7
 10
-4523.574137067488
 20
2751.425776856735
 30
0.0
 40
86.54193500978423
 50
353.6037719474505
 51
357.2455807364006
  0
ARC
  5
57C
  8
0
  6
CONTINUOUS
 62
     7
 10
-4552.992027924578
 20
2754.72356099982
 30
0.0
 40
116.144091734153
 50
352.3680951370732
 51
353.6037719474505
  0
ARC
  5
57D
  8
0
  6
CONTINUOUS
 62
     7
 10
-4494.285188413155
 20
2746.857121125418
 30
0.0
 40
56.91256396626928
 50
349.8462378412396
 51
352.3680951370731
  0
ARC
  5
57E
  8
0
  6
CONTINUOUS
 62
     7
 10
-4526.533497518047
 20
2752.632644666512
 30
0.0
 40
89.67397590620834
 50
348.4251892590824
 51
349.8462378412397
  0
ARC
  5
57F
  8
0
  6
CONTINUOUS
 62
     7
 10
-4473.84995609228
 20
2741.842402021375
 30
0.0
 40
35.89679790753122
 50
344.8747834460736
 51
348.4251892590927
  0
ARC
  5
580
  8
0
  6
CONTINUOUS
 62
     7
 10
-4498.807691314639
 20
2748.588301085733
 30
0.0
 40
61.75014781843878
 50
343.1365411580145
 51
344.8747834460729
  0
ARC
  5
581
  8
0
  6
CONTINUOUS
 62
     7
 10
-4460.468382725585
 20
2736.966631831292
 30
0.0
 40
21.6881236640571
 50
338.1860900777147
 51
343.1365411580161
  0
ARC
  5
582
  8
0
  6
CONTINUOUS
 62
     7
 10
-4475.708570601228
 20
2743.066564328875
 30
0.0
 40
38.10374131798478
 50
336.9984498587726
 51
338.1860900777125
  0
ARC
  5
583
  8
0
  6
CONTINUOUS
 62
     7
 10
-4452.787503212999
 20
2733.336416587977
 30
0.0
 40
13.20291592452848
 50
333.5704589561619
 51
336.9984498587451
  0
ARC
  5
584
  8
0
  6
CONTINUOUS
 62
     7
 10
-4460.590688434481
 20
2737.2149672818
 30
0.0
 40
21.91686193568321
 50
331.7716836100781
 51
333.5704589561616
  0
ARC
  5
585
  8
0
  6
CONTINUOUS
 62
     7
 10
-4448.842552648263
 20
2730.908194780882
 30
0.0
 40
8.5829175144044
 50
327.1773885863269
 51
331.771683610023
  0
ARC
  5
586
  8
0
  6
CONTINUOUS
 62
     7
 10
-4454.183554057923
 20
2734.353219274648
 30
0.0
 40
14.93858347641288
 50
324.922673902233
 51
327.1773885863273
  0
ARC
  5
587
  8
0
  6
CONTINUOUS
 62
     7
 10
-4446.174563360394
 20
2728.72913997537
 30
0.0
 40
5.15215409907158
 50
318.382037865443
 51
324.9226739023014
  0
ARC
  5
588
  8
0
  6
CONTINUOUS
 62
     7
 10
-4451.024714751247
 20
2733.038025720444
 30
0.0
 40
11.63987056006899
 50
315.9438219442682
 51
318.3820378654436
  0
ARC
  5
589
  8
0
  6
CONTINUOUS
 62
     7
 10
-4444.501223358525
 20
2726.725990523082
 30
0.0
 40
2.562551116332369
 50
304.8522436147194
 51
315.9438219442195
  0
ARC
  5
58A
  8
0
  6
CONTINUOUS
 62
     7
 10
-4445.397971427771
 20
2728.013734780906
 30
0.0
 40
4.131768237464024
 50
293.8674922048906
 51
304.8522436147014
  0
ARC
  5
58B
  8
0
  6
CONTINUOUS
 62
     7
 10
-4444.500000000185
 20
2725.984239155452
 30
0.0
 40
1.91248790850684
 50
270.0
 51
293.8674922049056
  0
ARC
  5
58C
  8
0
  6
CONTINUOUS
 62
   253
 10
-4461.999999655527
 20
3307.913153761521
 30
0.0
 40
6.000000972116847
 50
231.0078847279795
 51
269.9999967131729
  0
LINE
  5
58D
  8
0
  6
CONTINUOUS
 62
     7
 10
-4484.723784443599
 20
3337.5
 30
0.0
 11
-4484.553338168896
 21
3337.5
 31
0.0
  0
LINE
  5
58E
  8
0
  6
CONTINUOUS
 62
     7
 10
-4383.276215556769
 20
3347.499999999999
 30
0.0
 11
-4383.446661831475
 21
3347.499999999999
 31
0.0
  0
LINE
  5
58F
  8
0
  6
CONTINUOUS
 62
     7
 10
-4495.176215556769
 20
3347.499999999999
 30
0.0
 11
-4495.926215556769
 21
3346.749999999999
 31
0.0
  0
LINE
  5
590
  8
0
  6
CONTINUOUS
 62
     7
 10
-4496.676215556769
 20
3339.0
 30
0.0
 11
-4495.926215556769
 21
3338.25
 31
0.0
  0
ARC
  5
591
  8
0
  6
CONTINUOUS
 62
     7
 10
-4456.8451661725
 20
2707.522589097821
 30
0.0
 40
6.595166172314926
 50
337.1576471461054
 51
357.1710714587106
  0
ARC
  5
592
  8
0
  6
CONTINUOUS
 62
     7
 10
-4456.998040224382
 20
2707.586984445523
 30
0.0
 40
6.76104937382861
 50
314.8829955389114
 51
337.1576471461074
  0
ARC
  5
593
  8
0
  6
CONTINUOUS
 62
     7
 10
-4456.936965353666
 20
2707.525659620439
 30
0.0
 40
6.67449953844795
 50
292.1604321291974
 51
314.8829955389047
  0
ARC
  5
594
  8
0
  6
CONTINUOUS
 62
     7
 10
-4457.000000000185
 20
2707.680426740565
 30
0.0
 40
6.841610962753697
 50
269.9999999999983
 51
292.1604321292036
  0
ARC
  5
595
  8
0
  6
CONTINUOUS
 62
     7
 10
-4457.000000000185
 20
2707.680426740565
 30
0.0
 40
6.841610962753819
 50
247.8395678707946
 51
270.0
  0
ARC
  5
596
  8
0
  6
CONTINUOUS
 62
     7
 10
-4457.063034646703
 20
2707.525659620439
 30
0.0
 40
6.674499538448319
 50
225.1170044610829
 51
247.8395678707902
  0
ARC
  5
597
  8
0
  6
CONTINUOUS
 62
     7
 10
-4457.001959775987
 20
2707.586984445523
 30
0.0
 40
6.761049373829239
 50
202.8423528538936
 51
225.1170044610897
  0
ARC
  5
598
  8
0
  6
CONTINUOUS
 62
     7
 10
-4457.15483382787
 20
2707.522589097821
 30
0.0
 40
6.595166172314535
 50
182.828928541309
 51
202.8423528538967
  0
CIRCLE
  5
599
  8
0
  6
CONTINUOUS
 62
     7
 10
-4434.000000000185
 20
3342.499999999999
 30
0.0
 40
92.50000000000024
  0
LINE
  5
59A
  8
0
  6
CONTINUOUS
 62
     7
 10
-4495.926215556769
 20
3346.749999999999
 30
0.0
 11
-4496.676215556769
 21
3345.999999999999
 31
0.0
  0
LINE
  5
59B
  8
0
  6
CONTINUOUS
 62
     7
 10
-4486.3237844436
 20
3331.499999999999
 30
0.0
 11
-4484.7237844436
 21
3331.499999999999
 31
0.0
  0
ARC
  5
59C
  8
0
  6
CONTINUOUS
 62
     7
 10
-4434.000000000185
 20
3342.499999999999
 30
0.0
 40
46.80000000000017
 50
270.0
 51
299.8604859433115
  0
ARC
  5
59D
  8
0
  6
CONTINUOUS
 62
     7
 10
-4456.845166172501
 20
2706.871589886056
 30
0.0
 40
6.595166172315814
 50
0.000000000003858
 51
22.84235285389451
  0
ARC
  5
59E
  8
0
  6
CONTINUOUS
 62
     7
 10
-4456.998040224383
 20
2706.807194538354
 30
0.0
 40
6.761049373829945
 50
22.84235285390016
 51
45.11700446109398
  0
ARC
  5
59F
  8
0
  6
CONTINUOUS
 62
     7
 10
-4456.936965353667
 20
2706.868519363437
 30
0.0
 40
6.674499538449206
 50
45.11700446109528
 51
67.83956787079725
  0
ARC
  5
5A0
  8
0
  6
CONTINUOUS
 62
     7
 10
-4457.000000000185
 20
2706.713752243313
 30
0.0
 40
6.841610962754519
 50
67.83956787079919
 51
90.00000000000188
  0
ARC
  5
5A1
  8
0
  6
CONTINUOUS
 62
     7
 10
-4457.000000000185
 20
2706.713752243315
 30
0.0
 40
6.841610962752487
 50
90.00000000000743
 51
112.1604321292193
  0
ARC
  5
5A2
  8
0
  6
CONTINUOUS
 62
     7
 10
-4457.063034646703
 20
2706.868519363438
 30
0.0
 40
6.674499538447908
 50
112.1604321292112
 51
134.8829955389166
  0
ARC
  5
5A3
  8
0
  6
CONTINUOUS
 62
     7
 10
-4457.001959775989
 20
2706.807194538356
 30
0.0
 40
6.761049373826411
 50
134.882995538913
 51
157.1576471461178
  0
ARC
  5
5A4
  8
0
  6
CONTINUOUS
 62
     7
 10
-4457.154833827873
 20
2706.871589886056
 30
0.0
 40
6.595166172311907
 50
157.1576471460978
 51
179.9999999999978
  0
LINE
  5
5A5
  8
0
  6
CONTINUOUS
 62
     7
 10
-4494.323804443599
 20
3347.499999999999
 30
0.0
 11
-4495.176215556769
 21
3347.499999999999
 31
0.0
  0
CIRCLE
  5
5A6
  8
0
  6
CONTINUOUS
 62
     7
 10
-4434.000000000185
 20
3342.499999999999
 30
0.0
 40
50.80000000000017
  0
ARC
  5
5A7
  8
0
  6
CONTINUOUS
 62
     7
 10
-4434.000000000185
 20
3342.499999999999
 30
0.0
 40
46.80000000000034
 50
240.139514056165
 51
269.9999999999997
  0
LINE
  5
5A8
  8
0
  6
CONTINUOUS
 62
     7
 10
-4383.446661831475
 20
3337.5
 30
0.0
 11
-4383.276215556769
 21
3337.5
 31
0.0
  0
LINE
  5
5A9
  8
0
  6
CONTINUOUS
 62
     7
 10
-4374.676215556769
 20
3351.0
 30
0.0
 11
-4374.77355973646
 21
3351.116010275864
 31
0.0
  0
LINE
  5
5AA
  8
0
  6
CONTINUOUS
 62
     7
 10
-4484.553338168896
 20
3347.499999999999
 30
0.0
 11
-4484.7237844436
 21
3347.499999999999
 31
0.0
  0
LINE
  5
5AB
  8
0
  6
CONTINUOUS
 62
     7
 10
-4383.276215556769
 20
3331.499999999999
 30
0.0
 11
-4381.676215556769
 21
3331.499999999999
 31
0.0
  0
LINE
  5
5AC
  8
0
  6
CONTINUOUS
 62
     7
 10
-4494.01143412438
 20
3351.116006622648
 30
0.0
 11
-4494.3237844436
 21
3350.574999999999
 31
0.0
  0
LINE
  5
5AD
  8
0
  6
CONTINUOUS
 62
     7
 10
-4374.77356524757
 20
3333.88398315625
 30
0.0
 11
-4374.676215556769
 21
3334.0
 31
0.0
  0
LINE
  5
5AE
  8
0
  6
CONTINUOUS
 62
     7
 10
-4495.176215556769
 20
3337.5
 30
0.0
 11
-4494.323804443599
 21
3337.5
 31
0.0
  0
LINE
  5
5AF
  8
0
  6
CONTINUOUS
 62
     7
 10
-4495.926215556769
 20
3338.25
 30
0.0
 11
-4495.176215556769
 21
3337.5
 31
0.0
  0
LINE
  5
5B0
  8
0
  6
CONTINUOUS
 62
     7
 10
-4484.723784443599
 20
3353.5
 30
0.0
 11
-4486.323784443599
 21
3353.5
 31
0.0
  0
LINE
  5
5B1
  8
0
  6
CONTINUOUS
 62
     7
 10
-4381.676215556769
 20
3353.5
 30
0.0
 11
-4383.276215556769
 21
3353.5
 31
0.0
  0
LINE
  5
5B2
  8
0
  6
CONTINUOUS
 62
     7
 10
-4494.3237844436
 20
3334.424999999999
 30
0.0
 11
-4494.01143412438
 21
3333.883993377351
 31
0.0
  0
LINE
  5
5B3
  8
0
  6
CONTINUOUS
 62
     7
 10
-4375.164632426409
 20
-189.6799980410139
 30
0.0
 11
-4374.676215556586
 21
-189.0979254817175
 31
0.0
  0
LINE
  5
5B4
  8
0
  6
CONTINUOUS
 62
     7
 10
-4486.323784443415
 20
-191.5979254817174
 30
0.0
 11
-4484.800000000001
 21
-191.5979254817174
 31
0.0
  0
LINE
  5
5B5
  8
0
  6
CONTINUOUS
 62
     7
 10
-4383.276215556585
 20
-325.5979254817175
 30
0.0
 11
-4383.338550712431
 21
-325.5979254817175
 31
0.0
  0
LINE
  5
5B6
  8
0
  6
CONTINUOUS
 62
     7
 10
-4495.176215556586
 20
-185.5979254817174
 30
0.0
 11
-4494.323804443416
 21
-185.5979254817174
 31
0.0
  0
LINE
  5
5B7
  8
0
  6
CONTINUOUS
 62
     7
 10
-4375.164632426409
 20
-339.6799980410138
 30
0.0
 11
-4374.676215556586
 21
-339.0979254817174
 31
0.0
  0
LINE
  5
5B8
  8
0
  6
CONTINUOUS
 62
     7
 10
-4383.200000000001
 20
-341.5979254817173
 30
0.0
 11
-4381.676215556586
 21
-341.5979254817173
 31
0.0
  0
LINE
  5
5B9
  8
0
  6
CONTINUOUS
 62
     7
 10
-4409.599999999679
 20
-307.0979254806406
 30
0.0
 11
-4418.900000000321
 21
-307.097925480044
 31
0.0
  0
LINE
  5
5BA
  8
0
  6
CONTINUOUS
 62
     7
 10
-4495.176215556586
 20
-175.5979254817174
 30
0.0
 11
-4495.926215556586
 21
-176.3479254817174
 31
0.0
  0
ARC
  5
5BB
  8
0
  6
CONTINUOUS
 62
     7
 10
-4367.799219188809
 20
-330.9734732979152
 30
0.0
 40
15.43695458023958
 50
308.5462005173306
 51
318.4890057749536
  0
LINE
  5
5BC
  8
0
  6
CONTINUOUS
 62
     7
 10
-4418.89999999968
 20
-317.097925480044
 30
0.0
 11
-4409.600000000321
 21
-317.0979254806406
 31
0.0
  0
LINE
  5
5BD
  8
0
  6
CONTINUOUS
 62
     7
 10
-4409.600000000321
 20
-317.0979254806406
 30
0.0
 11
-4408.850000000272
 21
-316.3479254806888
 31
0.0
  0
LINE
  5
5BE
  8
0
  6
CONTINUOUS
 62
     7
 10
-4383.200000000001
 20
-345.5979254817173
 30
0.0
 11
-4431.0
 21
-345.5979254817173
 31
0.0
  0
ARC
  5
5BF
  8
0
  6
CONTINUOUS
 62
   253
 10
-4481.499999999493
 20
-358.5979254816968
 30
0.0
 40
2.999999999999892
 50
89.99999999998622
 51
179.9999999999776
  0
ARC
  5
5C0
  8
0
  6
CONTINUOUS
 62
     7
 10
-4501.813790476563
 20
-332.4010955754526
 30
0.0
 40
13.28291058164066
 50
209.308792843917
 51
221.510994225047
  0
ARC
  5
5C1
  8
0
  6
CONTINUOUS
 62
     7
 10
-4497.911933218366
 20
-330.5979254817174
 30
0.0
 40
17.65327458127697
 50
179.9999999999998
 51
189.4998696765581
  0
ARC
  5
5C2
  8
0
  6
CONTINUOUS
 62
     7
 10
-4365.261478887884
 20
-334.1585749864709
 30
0.0
 40
11.36448621309649
 50
295.0259803103565
 51
308.5462005173132
  0
LINE
  5
5C3
  8
0
  6
CONTINUOUS
 62
     7
 10
-4495.176215556586
 20
-335.5979254817173
 30
0.0
 11
-4494.323804443416
 21
-335.5979254817173
 31
0.0
  0
ARC
  5
5C4
  8
0
  6
CONTINUOUS
 62
   253
 10
-4433.999999998725
 20
-102.5979254817101
 30
0.0
 40
349.9999999999999
 50
269.9999901509787
 51
277.5784784099599
  0
ARC
  5
5C5
  8
0
  6
CONTINUOUS
 62
     7
 10
-4502.207228539041
 20
-333.0205619117567
 30
0.0
 40
12.62041039728384
 50
244.9740196896416
 51
256.6418314208437
  0
ARC
  5
5C6
  8
0
  6
CONTINUOUS
 62
     7
 10
-4366.186209523411
 20
-332.401095575477
 30
0.0
 40
13.28291058160389
 50
318.4890057749532
 51
330.6912071561147
  0
LINE
  5
5C7
  8
0
  6
CONTINUOUS
 62
     7
 10
-4408.849999999728
 20
-307.8479254806888
 30
0.0
 11
-4409.599999999679
 21
-307.0979254806406
 31
0.0
  0
LINE
  5
5C8
  8
0
  6
CONTINUOUS
 62
     7
 10
-4484.723784443416
 20
-335.5979254817173
 30
0.0
 11
-4484.66144928757
 21
-335.5979254817173
 31
0.0
  0
LINE
  5
5C9
  8
0
  6
CONTINUOUS
 62
     7
 10
-4486.323784443415
 20
-341.5979254817173
 30
0.0
 11
-4484.800000000001
 21
-341.5979254817173
 31
0.0
  0
LINE
  5
5CA
  8
0
  6
CONTINUOUS
 62
     7
 10
-4484.661439200224
 20
-175.5979254817174
 30
0.0
 11
-4484.723784443416
 21
-175.5979254817174
 31
0.0
  0
LINE
  5
5CB
  8
0
  6
CONTINUOUS
 62
     7
 10
-4477.0
 20
-345.5979254817173
 30
0.0
 11
-4484.800000000001
 21
-345.5979254817173
 31
0.0
  0
LINE
  5
5CC
  8
0
  6
CONTINUOUS
 62
     7
 10
-4381.676215556586
 20
-169.5979254817174
 30
0.0
 11
-4383.200000000001
 21
-169.5979254817174
 31
0.0
  0
ARC
  5
5CD
  8
0
  6
CONTINUOUS
 62
     7
 10
-4535.138824649743
 20
-330.5979262976751
 30
0.0
 40
50.72475857754616
 50
353.664303043626
 51
6.335394255020673
  0
ARC
  5
5CE
  8
0
  6
CONTINUOUS
 62
   253
 10
-4433.999999998725
 20
-102.5979254817101
 30
0.0
 40
349.9999999999999
 50
269.5088873045004
 51
269.9999901509787
  0
LINE
  5
5CF
  8
0
  6
CONTINUOUS
 62
     7
 10
-4495.926215556586
 20
-326.3479254817173
 30
0.0
 11
-4496.676215556586
 21
-327.0979254817173
 31
0.0
  0
LINE
  5
5D0
  8
0
  6
CONTINUOUS
 62
     7
 10
-4374.676215556585
 20
-322.0979254817174
 30
0.0
 11
-4375.164632426408
 21
-321.515852922421
 31
0.0
  0
LINE
  5
5D1
  8
0
  6
CONTINUOUS
 62
     7
 10
-4381.676215556586
 20
-319.5979254817173
 30
0.0
 11
-4383.200000000001
 21
-319.5979254817173
 31
0.0
  0
LINE
  5
5D2
  8
0
  6
CONTINUOUS
 62
     7
 10
-4383.200000000001
 20
-345.5979254817173
 30
0.0
 11
-4365.425173257124
 21
-345.5979254817175
 31
0.0
  0
LINE
  5
5D3
  8
0
  6
CONTINUOUS
 62
     7
 10
-4484.800000000001
 20
-319.5979254817173
 30
0.0
 11
-4486.323784443415
 21
-319.5979254817173
 31
0.0
  0
LINE
  5
5D4
  8
0
  6
CONTINUOUS
 62
     7
 10
-4495.926215556586
 20
-334.8479254817175
 30
0.0
 11
-4495.176215556586
 21
-335.5979254817173
 31
0.0
  0
LINE
  5
5D5
  8
0
  6
CONTINUOUS
 62
     7
 10
-4408.099999999776
 20
-308.597925480737
 30
0.0
 11
-4408.849999999728
 21
-307.8479254806888
 31
0.0
  0
ARC
  5
5D6
  8
0
  6
CONTINUOUS
 62
     7
 10
-4502.574826742877
 20
-334.5685901685135
 30
0.0
 40
11.02933531320377
 50
256.6418314208522
 51
270.0
  0
ARC
  5
5D7
  8
0
  6
CONTINUOUS
 62
     7
 10
-4368.290565771608
 20
-330.8987197875168
 30
0.0
 40
15.8307798363061
 50
339.9036372962125
 51
341.5777530532542
  0
LINE
  5
5D8
  8
0
  6
CONTINUOUS
 62
     7
 10
-4493.742810529742
 20
-321.5166491453628
 30
0.0
 11
-4494.323784443415
 21
-322.5229254817173
 31
0.0
  0
LINE
  5
5D9
  8
0
  6
CONTINUOUS
 62
     7
 10
-4494.323804443416
 20
-325.5979254817173
 30
0.0
 11
-4495.176215556586
 21
-325.5979254817173
 31
0.0
  0
ARC
  5
5DA
  8
0
  6
CONTINUOUS
 62
     7
 10
-4499.709434228394
 20
-330.8987197875174
 30
0.0
 40
15.83077983630423
 50
189.4998696765755
 51
200.0963627037877
  0
LINE
  5
5DB
  8
0
  6
CONTINUOUS
 62
     7
 10
-4374.676215556585
 20
-172.0979254817173
 30
0.0
 11
-4375.164632426408
 21
-171.5158529224209
 31
0.0
  0
ARC
  5
5DC
  8
0
  6
CONTINUOUS
 62
     7
 10
-4498.067274966696
 20
-330.2978930423323
 30
0.0
 40
17.579402099262
 50
200.0963627037877
 51
209.3087928439162
  0
ARC
  5
5DD
  8
0
  6
CONTINUOUS
 62
     7
 10
-4498.662745281432
 20
-311.8225237496094
 30
0.0
 40
11.32043335882739
 50
41.51099421772022
 51
51.4537994753569
  0
ARC
  5
5DE
  8
0
  6
CONTINUOUS
 62
     7
 10
-4345.812779853101
 20
-309.0625838678383
 30
0.0
 40
9.467824895124918
 50
82.13956854009773
 51
86.97790503437116
  0
LINE
  5
5DF
  8
0
  6
CONTINUOUS
 62
     7
 10
-3897.489208017026
 20
-526.511276006361
 30
0.0
 11
-3968.335126208116
 21
-518.5872431636277
 31
0.0
  0
ARC
  5
5E0
  8
0
  6
CONTINUOUS
 62
     7
 10
-4369.628221736063
 20
-309.1861047082701
 30
0.0
 40
8.08817922967603
 50
90.0000000073488
 51
103.3581685865067
  0
ARC
  5
5E1
  8
0
  6
CONTINUOUS
 62
     7
 10
-4360.704665353051
 20
-378.0297330213151
 30
0.0
 40
80.12070268491479
 50
74.82980092405012
 51
76.29280586341615
  0
ARC
  5
5E2
  8
0
  6
CONTINUOUS
 62
     7
 10
-4352.835833725002
 20
-306.2707542869188
 30
0.0
 40
7.491859035443137
 50
118.1110911697773
 51
123.3087824537845
  0
ARC
  5
5E3
  8
0
  6
CONTINUOUS
 62
     7
 10
-4499.02306610884
 20
-312.3185079723858
 30
0.0
 40
11.60923854656781
 50
339.903637288876
 51
350.5001303161349
  0
ARC
  5
5E4
  8
0
  6
CONTINUOUS
 62
     7
 10
-4368.41514042358
 20
-308.894266226836
 30
0.0
 40
10.51700866441061
 50
103.3581685791608
 51
115.0259803103556
  0
LINE
  5
5E5
  8
0
  6
CONTINUOUS
 62
     7
 10
-4345.992089652654
 20
-299.5831716217389
 30
0.0
 11
-4355.992089652654
 21
-299.5831716217389
 31
0.0
  0
ARC
  5
5E6
  8
0
  6
CONTINUOUS
 62
     7
 10
-4348.421706792417
 20
-358.4792487961498
 30
0.0
 40
58.95331036724799
 50
86.97790503437257
 51
87.57626663356528
  0
ARC
  5
5E7
  8
0
  6
CONTINUOUS
 62
     7
 10
-4368.934368057858
 20
-314.716477056812
 30
0.0
 40
11.06909215136297
 50
209.3087928439154
 51
214.0838210496403
  0
ARC
  5
5E8
  8
0
  6
CONTINUOUS
 62
     7
 10
-4351.922969555077
 20
-304.8406443371977
 30
0.0
 40
7.045826004967551
 50
149.1581001468022
 51
153.8527629962166
  0
ARC
  5
5E9
  8
0
  6
CONTINUOUS
 62
     7
 10
-4497.191350280833
 20
-310.3213254330001
 30
0.0
 40
9.254967624685648
 50
64.97401968231219
 51
76.64183141350162
  0
ARC
  5
5EA
  8
0
  6
CONTINUOUS
 62
     7
 10
-4368.948264272796
 20
-314.7090684486569
 30
0.0
 40
8.333956556273622
 50
231.4537994900398
 51
244.9740196969921
  0
ARC
  5
5EB
  8
0
  6
CONTINUOUS
 62
     7
 10
-4367.526933891751
 20
-311.8773429874083
 30
0.0
 40
11.60923854663627
 50
159.9036373035677
 51
170.5001303307681
  0
ARC
  5
5EC
  8
0
  6
CONTINUOUS
 62
     7
 10
-4343.304345082134
 20
-311.8275973169944
 30
0.0
 40
18.12202387078376
 50
140.7084910999915
 51
142.3237565944428
  0
ARC
  5
5ED
  8
0
  6
CONTINUOUS
 62
     7
 10
-4369.748264272796
 20
-314.7090684487595
 30
0.0
 40
8.333956556273622
 50
231.4537994900398
 51
244.9740196969921
  0
ARC
  5
5EE
  8
0
  6
CONTINUOUS
 62
     7
 10
-4358.150564504524
 20
-364.5540578358696
 30
0.0
 40
70.88152268225768
 50
67.85151778984243
 51
69.78688607491767
  0
ARC
  5
5EF
  8
0
  6
CONTINUOUS
 62
     7
 10
-4365.682820342699
 20
-313.2138353120301
 30
0.0
 40
14.71106215105511
 50
170.5001303234355
 51
180.0
  0
ARC
  5
5F0
  8
0
  6
CONTINUOUS
 62
     7
 10
-4365.408766484409
 20
-312.097925478053
 30
0.0
 40
12.94573469290849
 50
180.0000000073506
 51
189.4998696839295
  0
ARC
  5
5F1
  8
0
  6
CONTINUOUS
 62
     7
 10
-4349.596597508593
 20
-343.9345260632777
 30
0.0
 40
44.14805740708356
 50
64.74397122578485
 51
67.85151778983688
  0
ARC
  5
5F2
  8
0
  6
CONTINUOUS
 62
     7
 10
-4369.628221735315
 20
-315.0097462489213
 30
0.0
 40
8.088179229672587
 50
256.641831428193
 51
270.0000000073551
  0
ARC
  5
5F3
  8
0
  6
CONTINUOUS
 62
     7
 10
-4364.94482685484
 20
-376.4685553894785
 30
0.0
 40
80.12070268461493
 50
63.96726863422251
 51
64.7439712257848
  0
ARC
  5
5F4
  8
0
  6
CONTINUOUS
 62
     7
 10
-4367.180737851078
 20
-313.4644972335425
 30
0.0
 40
13.19231653022023
 50
189.4998696765452
 51
200.0963627037835
  0
ARC
  5
5F5
  8
0
  6
CONTINUOUS
 62
     7
 10
-4365.812271799646
 20
-312.9638082792152
 30
0.0
 40
14.64950174936987
 50
200.0963627037844
 51
209.3087928439231
  0
ARC
  5
5F6
  8
0
  6
CONTINUOUS
 62
     7
 10
-4359.675331340095
 20
-368.695327544624
 30
0.0
 40
70.88152268274327
 50
69.7868860749176
 51
71.72225435997888
  0
ARC
  5
5F7
  8
0
  6
CONTINUOUS
 62
     7
 10
-4368.721472260113
 20
-307.6042426795297
 30
0.0
 40
9.191112761001207
 50
90.0
 51
103.3581685791479
  0
ARC
  5
5F8
  8
0
  6
CONTINUOUS
 62
     7
 10
-4367.887254719077
 20
-312.3733272102413
 30
0.0
 40
11.32043335885375
 50
221.5109942323995
 51
231.4537994900107
  0
ARC
  5
5F9
  8
0
  6
CONTINUOUS
 62
     7
 10
-4367.9328203427
 20
-313.2138353120301
 30
0.0
 40
14.71106215105422
 50
180.0
 51
189.4998696765649
  0
ARC
  5
5FA
  8
0
  6
CONTINUOUS
 62
     7
 10
-3851.400796872815
 20
-525.9599636528113
 30
0.0
 40
0.4946485720849734
 50
234.0642320614951
 51
251.8133021068831
  0
ARC
  5
5FB
  8
0
  6
CONTINUOUS
 62
     7
 10
-4368.828221735316
 20
-315.0097462488187
 30
0.0
 40
8.088179229672587
 50
256.641831428193
 51
270.0000000073551
  0
ARC
  5
5FC
  8
0
  6
CONTINUOUS
 62
     7
 10
-4500.227316234063
 20
-311.8779016924169
 30
0.0
 40
12.89156153943893
 50
330.6912071487341
 51
339.9036372888751
  0
ARC
  5
5FD
  8
0
  6
CONTINUOUS
 62
     7
 10
-4497.47987152703
 20
-313.4202502170601
 30
0.0
 40
9.740801093186526
 50
318.4890057676143
 51
330.6912071487612
  0
ARC
  5
5FE
  8
0
  6
CONTINUOUS
 62
     7
 10
-4369.358649719319
 20
-313.874525527264
 30
0.0
 40
9.254967624664822
 50
244.9740196969917
 51
256.6418314282103
  0
ARC
  5
5FF
  8
0
  6
CONTINUOUS
 62
     7
 10
-4496.801735727124
 20
-309.4867825115668
 30
0.0
 40
8.333956556252767
 50
51.45379947533377
 51
64.97401968231532
  0
ARC
  5
600
  8
0
  6
CONTINUOUS
 62
     7
 10
-4356.014853227522
 20
-300.3197526751986
 30
0.0
 40
0.74496455130529
 50
88.22987331138347
 51
118.1110911697132
  0
ARC
  5
601
  8
0
  6
CONTINUOUS
 62
     7
 10
-4369.070128473536
 20
-313.4202502139113
 30
0.0
 40
9.740801093228784
 50
209.3087928512986
 51
221.5109942323984
  0
ARC
  5
602
  8
0
  6
CONTINUOUS
 62
     7
 10
-4499.023066108857
 20
-311.8773429905378
 30
0.0
 40
11.60923854664647
 50
9.499869669266616
 51
20.09636269645512
  0
ARC
  5
603
  8
0
  6
CONTINUOUS
 62
     7
 10
-4366.322683766414
 20
-312.3179492670687
 30
0.0
 40
12.89156153950902
 50
150.6912071634769
 51
159.9036373035676
  0
LINE
  5
604
  8
0
  6
CONTINUOUS
 62
     7
 10
-4429.400000000001
 20
-312.0979254817172
 30
0.0
 11
-4429.400000000704
 21
-301.0979254817111
 31
0.0
  0
ARC
  5
605
  8
0
  6
CONTINUOUS
 62
     7
 10
-4351.291084004071
 20
-343.3106360504727
 30
0.0
 40
44.14805740708438
 50
71.72225435999752
 51
74.82980092405059
  0
ARC
  5
606
  8
0
  6
CONTINUOUS
 62
     7
 10
-4365.682820342699
 20
-313.2138353120301
 30
0.0
 40
14.71106215105511
 50
180.0
 51
189.4998696765645
  0
ARC
  5
607
  8
0
  6
CONTINUOUS
 62
     7
 10
-3674.986611775209
 20
228.678410892245
 30
0.0
 40
775.3316689053948
 50
256.6882977207217
 51
256.7313500200907
  0
ARC
  5
608
  8
0
  6
CONTINUOUS
 62
     7
 10
-4351.922969555127
 20
-304.8406443371725
 30
0.0
 40
7.045826004911047
 50
153.8527629962184
 51
158.5474258456733
  0
ARC
  5
609
  8
0
  6
CONTINUOUS
 62
     7
 10
-4356.022618548696
 20
-301.4209582302877
 30
0.0
 40
1.688746137743924
 50
123.308782453785
 51
140.7084911001162
  0
LINE
  5
60A
  8
0
  6
CONTINUOUS
 62
   253
 10
-3858.194816389613
 20
-529.6553607640276
 30
0.0
 11
-3857.631034534381
 21
-525.0423265550494
 31
0.0
  0
ARC
  5
60B
  8
0
  6
CONTINUOUS
 62
     7
 10
-4365.408766484362
 20
-312.097925478053
 30
0.0
 40
12.94573469295646
 50
170.500130330807
 51
180.0000000073506
  0
ARC
  5
60C
  8
0
  6
CONTINUOUS
 62
     7
 10
-4354.638559202784
 20
-372.9908071535624
 30
0.0
 40
74.00240565303082
 50
81.52073547155076
 51
82.13956854010797
  0
ARC
  5
60D
  8
0
  6
CONTINUOUS
 62
     7
 10
-4364.965179113311
 20
-311.1631569513427
 30
0.0
 40
14.64950174936799
 50
150.691207156076
 51
159.4577637143197
  0
LINE
  5
60E
  8
0
  6
CONTINUOUS
 62
     7
 10
-4426.900000000544
 20
-303.5979254815499
 30
0.0
 11
-4426.900000000589
 21
-302.8979254815544
 31
0.0
  0
ARC
  5
60F
  8
0
  6
CONTINUOUS
 62
     7
 10
-4353.974627052058
 20
-304.0344360580449
 30
0.0
 40
4.841450747826056
 50
158.5474258457982
 51
159.5528526284177
  0
ARC
  5
610
  8
0
  6
CONTINUOUS
 62
     7
 10
-4366.726933891751
 20
-311.8773429873057
 30
0.0
 40
11.60923854663627
 50
159.9036373035677
 51
170.5001303307681
  0
ARC
  5
611
  8
0
  6
CONTINUOUS
 62
     7
 10
-4368.857884234487
 20
-307.9459219978863
 30
0.0
 40
9.47040517756454
 50
115.025980310355
 51
128.5462005173322
  0
ARC
  5
612
  8
0
  6
CONTINUOUS
 62
     7
 10
-4366.743100650403
 20
-310.6001734050062
 30
0.0
 40
12.86412881682965
 50
128.546200517298
 51
138.4890057749519
  0
ARC
  5
613
  8
0
  6
CONTINUOUS
 62
     7
 10
-4366.208766484361
 20
-312.0979254781556
 30
0.0
 40
12.94573469295646
 50
170.500130330807
 51
180.0000000073506
  0
ARC
  5
614
  8
0
  6
CONTINUOUS
 62
     7
 10
-4369.097793751609
 20
-313.8745255272143
 30
0.0
 40
9.25496762468215
 50
283.358168586509
 51
295.0259803177041
  0
ARC
  5
615
  8
0
  6
CONTINUOUS
 62
     7
 10
-4369.748264273475
 20
-309.4867825084434
 30
0.0
 40
8.333956556255528
 50
115.0259803177028
 51
128.5462005246825
  0
ARC
  5
616
  8
0
  6
CONTINUOUS
 62
     7
 10
-4366.208766484409
 20
-312.0979254781556
 30
0.0
 40
12.94573469290849
 50
180.0000000073506
 51
189.4998696839295
  0
ARC
  5
617
  8
0
  6
CONTINUOUS
 62
     7
 10
-4367.087254719077
 20
-312.3733272101387
 30
0.0
 40
11.32043335885375
 50
221.5109942323995
 51
231.4537994900107
  0
ARC
  5
618
  8
0
  6
CONTINUOUS
 62
     7
 10
-4500.341233516148
 20
-312.0979254812788
 30
0.0
 40
12.94573469286675
 50
350.5001303160549
 51
359.9999999926624
  0
ARC
  5
619
  8
0
  6
CONTINUOUS
 62
     7
 10
-4367.526933891741
 20
-312.3185079692568
 30
0.0
 40
11.60923854658775
 50
189.4998696838945
 51
200.096362711138
  0
ARC
  5
61A
  8
0
  6
CONTINUOUS
 62
     7
 10
-4368.558649719319
 20
-313.8745255271614
 30
0.0
 40
9.254967624664822
 50
244.9740196969917
 51
256.6418314282103
  0
ARC
  5
61B
  8
0
  6
CONTINUOUS
 62
     7
 10
-4347.03390658336
 20
-321.980612736667
 30
0.0
 40
22.42847157862103
 50
76.29280586340971
 51
81.52073547155061
  0
ARC
  5
61C
  8
0
  6
CONTINUOUS
 62
     7
 10
-4498.662745281507
 20
-312.3733272133756
 30
0.0
 40
11.32043335883373
 50
311.0441305253717
 51
318.4890057676132
  0
ARC
  5
61D
  8
0
  6
CONTINUOUS
 62
     7
 10
-4353.815613559765
 20
-303.710525340835
 30
0.0
 40
4.841450747797685
 50
142.3237565944402
 51
149.1581001466448
  0
ARC
  5
61E
  8
0
  6
CONTINUOUS
 62
     7
 10
-3770.590442997635
 20
-121.9293935526375
 30
0.0
 40
418.6791013905078
 50
256.6882977207156
 51
256.7313500200657
  0
ARC
  5
61F
  8
0
  6
CONTINUOUS
 62
     7
 10
-3879.526327897928
 20
-530.6049711024926
 30
0.0
 40
2.35671769190915
 50
72.18886640976679
 51
76.99677721015708
  0
ARC
  5
620
  8
0
  6
CONTINUOUS
 62
     7
 10
-3856.34179924303
 20
-409.6643093980718
 30
0.0
 40
121.8654571140404
 50
263.7189024213848
 51
264.8435699680382
  0
ARC
  5
621
  8
0
  6
CONTINUOUS
 62
     7
 10
-4500.341233516267
 20
-312.0979254812788
 30
0.0
 40
12.94573469298488
 50
359.9999999926624
 51
9.49986966918243
  0
ARC
  5
622
  8
0
  6
CONTINUOUS
 62
     7
 10
-4367.88725471918
 20
-311.8225237464702
 30
0.0
 40
11.32043335880952
 50
128.546200524652
 51
138.4890057823073
  0
LINE
  5
623
  8
0
  6
CONTINUOUS
 62
     7
 10
-4000.252781787979
 20
-509.2048320219437
 30
0.0
 11
-4353.273603985039
 21
-335.9006749855705
 31
0.0
  0
ARC
  5
624
  8
0
  6
CONTINUOUS
 62
     7
 10
-4497.479871526697
 20
-310.7756007462368
 30
0.0
 40
9.740801093194035
 50
29.30879283658009
 51
41.51099421771868
  0
LINE
  5
625
  8
0
  6
CONTINUOUS
 62
     7
 10
-3876.925426161934
 20
-521.8982417973638
 30
0.0
 11
-4328.25497623028
 21
-300.3325938182807
 31
0.0
  0
ARC
  5
626
  8
0
  6
CONTINUOUS
 62
     7
 10
-4500.227316234105
 20
-312.3179492701663
 30
0.0
 40
12.89156153942482
 50
20.09636269645495
 51
29.30879283660641
  0
ARC
  5
627
  8
0
  6
CONTINUOUS
 62
     7
 10
-4496.921778264537
 20
-309.1861047114023
 30
0.0
 40
8.08817922968208
 50
76.64183141351674
 51
89.99999999266379
  0
ARC
  5
628
  8
0
  6
CONTINUOUS
 62
     7
 10
-3879.229123846252
 20
-528.1276109634456
 30
0.0
 40
0.0649341559255267
 50
173.0321524475415
 51
251.8133021071254
  0
ARC
  5
629
  8
0
  6
CONTINUOUS
 62
     7
 10
-3847.840098903284
 20
-332.4232481475104
 30
0.0
 40
199.5729886137592
 50
263.0321524473963
 51
263.7189024213795
  0
ARC
  5
62A
  8
0
  6
CONTINUOUS
 62
     7
 10
-3878.817129226269
 20
-560.2705393574983
 30
0.0
 40
32.27809804033548
 50
85.34357433876535
 51
87.28946722194021
  0
ARC
  5
62B
  8
0
  6
CONTINUOUS
 62
     7
 10
-4369.070128473883
 20
-310.7756007431269
 30
0.0
 40
9.740801093219527
 50
138.4890057823089
 51
150.6912071634196
  0
ARC
  5
62C
  8
0
  6
CONTINUOUS
 62
     7
 10
-3866.219466250164
 20
-529.3719887170047
 30
0.0
 40
0.4972640376662606
 50
269.0675276845566
 51
292.0000728332649
  0
ARC
  5
62D
  8
0
  6
CONTINUOUS
 62
     7
 10
-3878.884165282607
 20
-527.8241728558986
 30
0.0
 40
0.4972640376706614
 50
234.0642320615799
 51
256.9967772100425
  0
LINE
  5
62E
  8
0
  6
CONTINUOUS
 62
     7
 10
-3861.225709929862
 20
-531.4020745182971
 30
0.0
 11
-3853.725709929862
 21
-531.4020745182971
 31
0.0
  0
ARC
  5
62F
  8
0
  6
CONTINUOUS
 62
     7
 10
-3880.020595111329
 20
-593.8557871203274
 30
0.0
 40
65.80734684121688
 50
81.22073492675321
 51
82.3454024734127
  0
ARC
  5
630
  8
0
  6
CONTINUOUS
 62
     7
 10
-3866.693462434829
 20
-525.9141854176447
 30
0.0
 40
3.969154477752453
 50
269.3329548746599
 51
273.8754384850022
  0
ARC
  5
631
  8
0
  6
CONTINUOUS
 62
     7
 10
-3878.884165282607
 20
-527.8241728558986
 30
0.0
 40
0.4972640376706614
 50
234.0642320615799
 51
256.9967772100425
  0
ARC
  5
632
  8
0
  6
CONTINUOUS
 62
     7
 10
-3885.609978771889
 20
-635.4439327624077
 30
0.0
 40
107.7694138500264
 50
83.03215244739711
 51
83.71890242138933
  0
ARC
  5
633
  8
0
  6
CONTINUOUS
 62
     7
 10
-3865.957738812635
 20
-529.7495729383177
 30
0.0
 40
0.0649341559255267
 50
274.2510027877138
 51
353.0321524474443
  0
ARC
  5
634
  8
0
  6
CONTINUOUS
 62
     7
 10
-3870.130830187076
 20
-1306.683521358152
 30
0.0
 40
775.3316688375775
 50
89.34191206080061
 51
89.3760071740711
  0
ARC
  5
635
  8
0
  6
CONTINUOUS
 62
     7
 10
-3865.854102992198
 20
-529.4341159836716
 30
0.0
 40
0.267110228927574
 50
234.0642320615717
 51
251.8133021068309
  0
ARC
  5
636
  8
0
  6
CONTINUOUS
 62
     7
 10
-3881.01906058859
 20
-593.733759688404
 30
0.0
 40
65.80734684148771
 50
83.71890242138312
 51
84.84356996803801
  0
ARC
  5
637
  8
0
  6
CONTINUOUS
 62
     7
 10
-3866.30269737628
 20
-530.0530110458647
 30
0.0
 40
0.4972640376706614
 50
54.06423206157978
 51
76.99677721004264
  0
ARC
  5
638
  8
0
  6
CONTINUOUS
 62
     7
 10
-3874.098676861729
 20
-560.8472048901153
 30
0.0
 40
32.27809804059366
 50
78.77483767285804
 51
80.72073055601753
  0
ARC
  5
639
  8
0
  6
CONTINUOUS
 62
     7
 10
-3886.394081848045
 20
-653.297088345322
 30
0.0
 40
125.6127059176743
 50
84.84356996803787
 51
85.34357433878291
  0
ARC
  5
63A
  8
0
  6
CONTINUOUS
 62
     7
 10
-3875.289694274474
 20
-516.2336988284012
 30
0.0
 40
12.62328015649031
 50
256.6882977207156
 51
258.6004441429154
  0
LINE
  5
63B
  8
0
  6
CONTINUOUS
 62
   253
 10
-4328.254976230279
 20
-300.3325938182807
 30
0.0
 11
-4329.779743065682
 21
-304.4738635265795
 31
0.0
  0
ARC
  5
63C
  8
0
  6
CONTINUOUS
 62
     7
 10
-3883.835746489754
 20
-666.2759149530941
 30
0.0
 40
138.4022054542529
 50
87.28946722194033
 51
87.46386075189481
  0
LINE
  5
63D
  8
0
  6
CONTINUOUS
 62
     7
 10
-3897.489208017026
 20
-526.511276006361
 30
0.0
 11
-3893.739208017165
 21
-526.5112760063419
 31
0.0
  0
ARC
  5
63E
  8
0
  6
CONTINUOUS
 62
     7
 10
-3859.576883886951
 20
-422.4332511389675
 30
0.0
 40
107.7694138504173
 50
262.3454024734074
 51
263.032152447397
  0
ARC
  5
63F
  8
0
  6
CONTINUOUS
 62
     7
 10
-4369.358649719768
 20
-310.321325429871
 30
0.0
 40
9.25496762468215
 50
103.3581685865091
 51
115.0259803177041
  0
ARC
  5
640
  8
0
  6
CONTINUOUS
 62
     7
 10
-4368.087275371521
 20
-309.4104881737464
 30
0.0
 40
11.06909215136279
 50
138.4890057749512
 51
150.6912071560859
  0
ARC
  5
641
  8
0
  6
CONTINUOUS
 62
     7
 10
-3865.957738812635
 20
-529.7495729383177
 30
0.0
 40
0.0649341559255267
 50
353.0321524474443
 51
71.81330210712538
  0
ARC
  5
642
  8
0
  6
CONTINUOUS
 62
     7
 10
-4369.704976920813
 20
-316.1810432326511
 30
0.0
 40
9.47040517758804
 50
238.3153532905099
 51
244.35016669944
  0
ARC
  5
643
  8
0
  6
CONTINUOUS
 62
     7
 10
-3871.088185797159
 20
-497.0299790116484
 30
0.0
 40
32.27809804059323
 50
258.7748376728578
 51
260.7207305560174
  0
ARC
  5
644
  8
0
  6
CONTINUOUS
 62
     7
 10
-4366.32268376649
 20
-311.8779016892775
 30
0.0
 40
12.89156153948915
 50
200.0963627111376
 51
209.3087928512439
  0
ARC
  5
645
  8
0
  6
CONTINUOUS
 62
     7
 10
-4346.080234832848
 20
-303.1611059454486
 30
0.0
 40
3.585635507380248
 50
87.5762666335805
 51
88.58875960162722
  0
ARC
  5
646
  8
0
  6
CONTINUOUS
 62
     7
 10
-3879.526327897928
 20
-530.6049711024926
 30
0.0
 40
2.35671769190915
 50
72.18886640976679
 51
76.99677721015708
  0
ARC
  5
647
  8
0
  6
CONTINUOUS
 62
     7
 10
-3860.419449913973
 20
-471.6332359363025
 30
0.0
 40
59.77425563090901
 50
265.3435743387811
 51
267.2894672219347
  0
ARC
  5
648
  8
0
  6
CONTINUOUS
 62
     7
 10
-3865.933125709156
 20
-530.0807038318457
 30
0.0
 40
0.2671102289262453
 50
94.25100278790867
 51
112.0000728332493
  0
ARC
  5
649
  8
0
  6
CONTINUOUS
 62
     7
 10
-3856.038283624868
 20
-404.9167363610322
 30
0.0
 40
125.6127059146656
 50
260.720730555996
 51
261.2207349267532
  0
LINE
  5
64A
  8
0
  6
CONTINUOUS
 62
   253
 10
-4373.804028378124
 20
-324.7173622795269
 30
0.0
 11
-4374.676215556585
 21
-324.7173622795269
 31
0.0
  0
ARC
  5
64B
  8
0
  6
CONTINUOUS
 62
     7
 10
-3861.432488266631
 20
-508.0227738980013
 30
0.0
 40
23.37644473444044
 50
267.4638607518866
 51
269.3760071740712
  0
ARC
  5
64C
  8
0
  6
CONTINUOUS
 62
     7
 10
-3879.33275966669
 20
-528.4430679180917
 30
0.0
 40
0.267110228927574
 50
54.06423206157174
 51
71.8133021068308
  0
ARC
  5
64D
  8
0
  6
CONTINUOUS
 62
     7
 10
-4359.675331340121
 20
-368.6953275446975
 30
0.0
 40
70.8815226828215
 50
67.8515177898574
 51
69.78688607491793
  0
ENDSEC
  0
EOF
