  0
SECTION
  2
HEADER
  9
$ACADVER
  1
AC1006
  9
$DWGCODEPAGE
  3
ansi_932
  9
$INSBASE
 10
0.0
 20
0.0
 30
0.0
  9
$EXTMIN
 10
-370.0000000000001
 20
114.3333333333333
  9
$EXTMAX
 10
-139.3333333333333
 20
269.1666666666667
  9
$LIMMIN
 10
0.0
 20
0.0
  9
$LIMMAX
 10
12.0
 20
9.0
  9
$ORTHOMODE
 70
     0
  9
$REGENMODE
 70
     1
  9
$FILLMODE
 70
     1
  9
$QTEXTMODE
 70
     0
  9
$MIRRTEXT
 70
     1
  9
$DRAGMODE
 70
     2
  9
$LTSCALE
 40
1.0
  9
$OSMODE
 70
    37
  9
$ATTMODE
 70
     1
  9
$TEXTSIZE
 40
0.2
  9
$TRACEWID
 40
0.05
  9
$TEXTSTYLE
  7
STANDARD
  9
$CLAYER
  8
0
  9
$CELTYPE
  6
BYLAYER
  9
$CECOLOR
 62
   256
  9
$DIMSCALE
 40
1.0
  9
$DIMASZ
 40
3.0
  9
$DIMEXO
 40
0.0625
  9
$DIMDLI
 40
0.38
  9
$DIMRND
 40
0.0
  9
$DIMDLE
 40
0.0
  9
$DIMEXE
 40
1.5
  9
$DIMTP
 40
0.0
  9
$DIMTM
 40
0.0
  9
$DIMTXT
 40
3.0
  9
$DIMCEN
 40
0.09
  9
$DIMTSZ
 40
0.0
  9
$DIMTOL
 70
     0
  9
$DIMLIM
 70
     0
  9
$DIMTIH
 70
     1
  9
$DIMTOH
 70
     1
  9
$DIMSE1
 70
     0
  9
$DIMSE2
 70
     0
  9
$DIMTAD
 70
     1
  9
$DIMZIN
 70
     0
  9
$DIMBLK
  1

  9
$DIMASO
 70
     1
  9
$DIMSHO
 70
     1
  9
$DIMPOST
  1

  9
$DIMAPOST
  1

  9
$DIMALT
 70
     0
  9
$DIMALTD
 70
     2
  9
$DIMALTF
 40
25.4
  9
$DIMLFAC
 40
1.0
  9
$DIMTOFL
 70
     0
  9
$DIMTVP
 40
0.0
  9
$DIMTIX
 70
     0
  9
$DIMSOXD
 70
     0
  9
$DIMSAH
 70
     0
  9
$DIMBLK1
  1

  9
$DIMBLK2
  1

  9
$LUNITS
 70
     2
  9
$LUPREC
 70
     4
  9
$SKETCHINC
 40
0.1
  9
$FILLETRAD
 40
0.5
  9
$AUNITS
 70
     0
  9
$AUPREC
 70
     0
  9
$MENU
  1
.
  9
$ELEVATION
 40
0.0
  9
$THICKNESS
 40
0.0
  9
$LIMCHECK
 70
     0
  9
$CHAMFERA
 40
0.0
  9
$CHAMFERB
 40
0.0
  9
$SKPOLY
 70
     0
  9
$TDCREATE
 40
2460710.536575359
  9
$TDUPDATE
 40
2460710.536576019
  9
$TDINDWG
 40
0.0000000116
  9
$TDUSRTIMER
 40
0.0000000116
  9
$USRTIMER
 70
     1
  9
$ANGBASE
 50
0.0
  9
$ANGDIR
 70
     0
  9
$PDMODE
 70
     0
  9
$PDSIZE
 40
0.0
  9
$PLINEWID
 40
0.0
  9
$COORDS
 70
     1
  9
$SPLFRAME
 70
     0
  9
$SPLINETYPE
 70
     6
  9
$SPLINESEGS
 70
     8
  9
$ATTDIA
 70
     0
  9
$ATTREQ
 70
     1
  9
$HANDLING
 70
     1
  9
$HANDSEED
  5
98B
  9
$SURFTAB1
 70
     6
  9
$SURFTAB2
 70
     6
  9
$SURFTYPE
 70
     6
  9
$SURFU
 70
     6
  9
$SURFV
 70
     6
  9
$UCSNAME
  2

  9
$UCSORG
 10
0.0
 20
0.0
 30
0.0
  9
$UCSXDIR
 10
1.0
 20
0.0
 30
0.0
  9
$UCSYDIR
 10
0.0
 20
1.0
 30
0.0
  9
$USERI1
 70
     0
  9
$USERI2
 70
     0
  9
$USERI3
 70
     0
  9
$USERI4
 70
     0
  9
$USERI5
 70
     0
  9
$USERR1
 40
0.0
  9
$USERR2
 40
0.0
  9
$USERR3
 40
0.0
  9
$USERR4
 40
0.0
  9
$USERR5
 40
0.0
  9
$WORLDVIEW
 70
     1
  0
ENDSEC
  0
SECTION
  2
TABLES
  0
TABLE
  2
VPORT
 70
     1
  0
VPORT
  2
*ACTIVE
 70
     0
 10
0.0
 20
0.0
 11
1.0
 21
1.0
 12
-254.6666666666667
 22
191.75
 13
0.0
 23
0.0
 14
0.5
 24
0.5
 15
0.5
 25
0.5
 16
0.0
 26
0.0
 36
1.0
 17
0.0
 27
0.0
 37
0.0
 40
154.8333333333334
 41
1.6
 42
50.0
 43
0.0
 44
0.0
 50
0.0
 51
0.0
 71
     0
 72
   100
 73
     1
 74
     3
 75
     0
 76
     0
 77
     0
 78
     0
  0
ENDTAB
  0
TABLE
  2
LTYPE
 70
     2
  0
LTYPE
  2
CONTINUOUS
 70
     0
  3
Solid line
 72
    65
 73
     0
 40
0.0
  0
LTYPE
  2
CENTER
 70
     0
  3

 72
    65
 73
     0
 40
0.0
  0
ENDTAB
  0
TABLE
  2
LAYER
 70
     2
  0
LAYER
  2
0
 70
     0
 62
     7
  6
CONTINUOUS
  0
LAYER
  2
1
 70
     0
 62
     7
  6
CONTINUOUS
  0
ENDTAB
  0
TABLE
  2
STYLE
 70
     2
  0
STYLE
  2
STANDARD
 70
     0
 40
0.0
 41
1.0
 50
0.0
 71
     0
 42
0.2
  3
txt
  4

  0
STYLE
  2
ＭＳ_ゴシック
 70
     0
 40
0.0
 41
1.0
 50
0.0
 71
     0
 42
0.2
  3
ＭＳ ゴシック.shx
  4

  0
ENDTAB
  0
TABLE
  2
VIEW
 70
     0
  0
ENDTAB
  0
TABLE
  2
UCS
 70
     0
  0
ENDTAB
  0
ENDSEC
  0
SECTION
  2
BLOCKS
  0
BLOCK
  8
0
  2
D_FRAME_VIEW_1492
 70
     0
 10
0.0
 20
0.0
 30
0.0
  0
LINE
  5
78
  8
1
  6
CONTINUOUS
 62
     7
 10
-332.8713942314711
 20
204.7289911218365
 30
0.0
 11
-332.8713942314711
 21
211.7289911218365
 31
0.0
  0
LINE
  5
79
  8
1
  6
CONTINUOUS
 62
     9
 10
-331.7519790416528
 20
204.8269272607243
 30
0.0
 11
-331.7519790416528
 21
208.2289911218365
 31
0.0
  0
LINE
  5
7A
  8
1
  6
CONTINUOUS
 62
     9
 10
-331.7519790416528
 20
208.2289911218365
 30
0.0
 11
-331.7519790416528
 21
211.6310549829487
 31
0.0
  0
LINE
  5
7B
  8
1
  6
CONTINUOUS
 62
     9
 10
-330.6148988394949
 20
210.6917309636983
 30
0.0
 11
-330.6148988394949
 21
205.7662512799747
 31
0.0
  0
LINE
  5
7C
  8
1
  6
CONTINUOUS
 62
     7
 10
-330.5254541441195
 20
206.1056607216266
 30
0.0
 11
-330.5254541441195
 21
206.165370035383
 31
0.0
  0
LINE
  5
7D
  8
1
  6
CONTINUOUS
 62
     7
 10
-330.5254541441195
 20
210.29261220829
 30
0.0
 11
-330.5254541441195
 21
210.3523215220464
 31
0.0
  0
ARC
  5
7E
  8
1
  6
CONTINUOUS
 62
     7
 10
-339.2713942314711
 20
208.2289911218365
 30
0.0
 40
8.986100377805712
 50
8.318046746195945
 51
13.27622515735557
  0
LINE
  5
7F
  8
1
  6
CONTINUOUS
 62
     7
 10
-330.3798251910824
 20
208.7289911218365
 30
0.0
 11
-330.3798251910824
 21
209.5289911218365
 31
0.0
  0
LINE
  5
80
  8
1
  6
CONTINUOUS
 62
     7
 10
-330.5254541441195
 20
208.7289911218365
 30
0.0
 11
-330.3798251910824
 21
208.7289911218365
 31
0.0
  0
LINE
  5
81
  8
1
  6
CONTINUOUS
 62
     7
 10
-330.5254541441195
 20
207.7289911218365
 30
0.0
 11
-330.5254541441195
 21
208.7289911218365
 31
0.0
  0
LINE
  5
82
  8
1
  6
CONTINUOUS
 62
     7
 10
-330.3798251910824
 20
207.7289911218365
 30
0.0
 11
-330.5254541441195
 21
207.7289911218365
 31
0.0
  0
LINE
  5
83
  8
1
  6
CONTINUOUS
 62
     7
 10
-330.3798251910824
 20
206.9289911218365
 30
0.0
 11
-330.3798251910824
 21
207.7289911218365
 31
0.0
  0
ARC
  5
84
  8
1
  6
CONTINUOUS
 62
     7
 10
-339.2713942314711
 20
208.2289911218365
 30
0.0
 40
8.98610037780571
 50
346.7237748426445
 51
351.6819532538041
  0
LINE
  5
85
  8
1
  6
CONTINUOUS
 62
     7
 10
-332.9257025887925
 20
210.2145189178888
 30
0.0
 11
-332.9956135178887
 21
210.191907183681
 31
0.0
  0
LINE
  5
86
  8
1
  6
CONTINUOUS
 62
     7
 10
-333.151997228866
 20
209.6126476440683
 30
0.0
 11
-332.8713942314711
 21
208.1159535492095
 31
0.0
  0
LINE
  5
87
  8
1
  6
CONTINUOUS
 62
     9
 10
-337.6238119735814
 20
232.2289911218365
 30
0.0
 11
-337.6238119735814
 21
202.2289911218365
 31
0.0
  0
LINE
  5
88
  8
1
  6
CONTINUOUS
 62
     7
 10
-337.6238119735814
 20
232.2289911218365
 30
0.0
 11
-334.8713919890303
 21
232.2289911218365
 31
0.0
  0
LINE
  5
89
  8
1
  6
CONTINUOUS
 62
     7
 10
-337.6238119735814
 20
202.2289911218365
 30
0.0
 11
-334.8713919890303
 21
202.2289911218365
 31
0.0
  0
ARC
  5
8A
  8
1
  6
CONTINUOUS
 62
     7
 10
-341.0713919890302
 20
204.2289911218365
 30
0.0
 40
2.000000000000002
 50
180.0
 51
270.0
  0
LINE
  5
8B
  8
1
  6
CONTINUOUS
 62
     7
 10
-343.0713919890302
 20
230.2289911218365
 30
0.0
 11
-343.0713919890302
 21
204.2289911218365
 31
0.0
  0
ARC
  5
8C
  8
1
  6
CONTINUOUS
 62
     7
 10
-341.0713919890302
 20
230.2289911218365
 30
0.0
 40
2.000000000000002
 50
90.0
 51
180.0
  0
LINE
  5
8D
  8
1
  6
CONTINUOUS
 62
     7
 10
-341.0713919890302
 20
232.2289911218365
 30
0.0
 11
-337.6238119735814
 21
232.2289911218365
 31
0.0
  0
LINE
  5
8E
  8
1
  6
CONTINUOUS
 62
     7
 10
-341.0713919890302
 20
202.2289911218365
 30
0.0
 11
-337.6238119735814
 21
202.2289911218365
 31
0.0
  0
LINE
  5
8F
  8
1
  6
CONTINUOUS
 62
     7
 10
-338.6217766271758
 20
197.2289911218365
 30
0.0
 11
-341.8713919890302
 21
197.2289911218365
 31
0.0
  0
ARC
  5
90
  8
1
  6
CONTINUOUS
 62
     7
 10
-341.8713919890302
 20
201.0289911218365
 30
0.0
 40
3.800000000000002
 50
270.0
 51
320.8237997654574
  0
LINE
  5
91
  8
1
  6
CONTINUOUS
 62
     9
 10
-337.4853165533875
 20
198.6285031979236
 30
0.0
 11
-338.9256055529239
 21
198.6285031979236
 31
0.0
  0
ARC
  5
92
  8
1
  6
CONTINUOUS
 62
     7
 10
-341.8713919890303
 20
201.0289911218364
 30
0.0
 40
5.000000000000003
 50
310.5358021113177
 51
331.3082243768492
  0
LINE
  5
93
  8
1
  6
CONTINUOUS
 62
     7
 10
-347.2949787579225
 20
218.1768147933254
 30
0.0
 11
-348.2779612043701
 21
217.4885230601368
 31
0.0
  0
LINE
  5
94
  8
1
  6
CONTINUOUS
 62
     7
 10
-348.2779612043701
 20
217.4885230601368
 30
0.0
 11
-353.7842953022616
 21
225.352382469002
 31
0.0
  0
LINE
  5
95
  8
1
  6
CONTINUOUS
 62
     7
 10
-354.9314483104769
 20
226.9906869634136
 30
0.0
 11
-353.7842953022616
 21
225.352382469002
 31
0.0
  0
LINE
  5
96
  8
1
  6
CONTINUOUS
 62
     9
 10
-353.9484655120792
 20
227.6789784423191
 30
0.0
 11
-354.9314483104769
 21
226.9906869634136
 31
0.0
  0
LINE
  5
97
  8
1
  6
CONTINUOUS
 62
     7
 10
-347.2949787579225
 20
218.1768147933254
 30
0.0
 11
-353.9484655120792
 21
227.6789784423191
 31
0.0
  0
ARC
  5
98
  8
1
  6
CONTINUOUS
 62
     7
 10
-354.5039591006303
 20
200.2289911218365
 30
0.0
 40
4.199999999999975
 50
155.9999996729598
 51
270.0
  0
LINE
  5
99
  8
1
  6
CONTINUOUS
 62
     7
 10
-356.9454181092158
 20
205.0714763677121
 30
0.0
 11
-358.3408500129311
 21
201.9372850446345
 31
0.0
  0
LINE
  5
9A
  8
1
  6
CONTINUOUS
 62
     7
 10
-355.0368553842987
 20
206.4078664025289
 30
0.0
 11
-356.9454181092158
 21
205.0714763677121
 31
0.0
  0
LINE
  5
9B
  8
1
  6
CONTINUOUS
 62
     7
 10
-357.1609381051964
 20
201.6370985738849
 30
0.0
 11
-355.0368553842987
 21
206.4078664025289
 31
0.0
  0
ARC
  5
9C
  8
1
  6
CONTINUOUS
 62
     7
 10
-354.5119319890302
 20
200.2289911218365
 30
0.0
 40
3.000000000000009
 50
152.0066454684392
 51
270.0
  0
LINE
  5
9D
  8
1
  6
CONTINUOUS
 62
     7
 10
-354.5039591006303
 20
196.0289911218365
 30
0.0
 11
-341.8713919890303
 21
196.0289911218365
 31
0.0
  0
LINE
  5
9E
  8
1
  6
CONTINUOUS
 62
     7
 10
-341.8713919890302
 20
197.2289911218365
 30
0.0
 11
-354.5119319890302
 21
197.2289911218365
 31
0.0
  0
ARC
  5
9F
  8
1
  6
CONTINUOUS
 62
     7
 10
-341.8713919890303
 20
201.0289911218364
 30
0.0
 40
4.999999999999997
 50
270.0
 51
310.5358021113177
  0
ARC
  5
A0
  8
1
  6
CONTINUOUS
 62
     7
 10
-352.4841899112303
 20
220.0087454113365
 30
0.0
 40
2.000000000000009
 50
335.999999672883
 51
34.99999651152483
  0
ARC
  5
A1
  8
1
  6
CONTINUOUS
 62
     7
 10
-352.4841896050302
 20
220.0087460992365
 30
0.0
 40
3.200000000000004
 50
335.9999996728695
 51
343.6821880110447
  0
LINE
  5
A2
  8
1
  6
CONTINUOUS
 62
     7
 10
-356.9454181092158
 20
205.0714763677121
 30
0.0
 11
-350.6570990005948
 21
219.195272114756
 31
0.0
  0
LINE
  5
A3
  8
1
  6
CONTINUOUS
 62
     7
 10
-349.560844147955
 20
218.7071888246808
 30
0.0
 11
-355.0368553842987
 21
206.4078664025289
 31
0.0
  0
LINE
  5
A4
  8
1
  6
CONTINUOUS
 62
     7
 10
-356.0786010834303
 20
228.6289911218365
 30
0.0
 11
-355.0956184007271
 21
229.3172825197319
 31
0.0
  0
LINE
  5
A5
  8
1
  6
CONTINUOUS
 62
     7
 10
-355.095618400727
 20
229.3172825197318
 30
0.0
 11
-353.9484655120792
 21
227.6789784423191
 31
0.0
  0
LINE
  5
A6
  8
1
  6
CONTINUOUS
 62
     7
 10
-354.9314483104769
 20
226.9906869634136
 30
0.0
 11
-356.0786010834302
 21
228.6289911218364
 31
0.0
  0
LINE
  5
A7
  8
1
  6
CONTINUOUS
 62
     9
 10
-338.1651138119613
 20
200.1902408168097
 30
0.0
 11
-336.9422442000288
 21
200.1902408168097
 31
0.0
  0
ARC
  5
A8
  8
1
  6
CONTINUOUS
 62
     7
 10
-341.8718086485105
 20
201.029136009327
 30
0.0
 40
5.000435060648556
 50
331.3090601317231
 51
350.3421357100931
  0
ARC
  5
A9
  8
1
  6
CONTINUOUS
 62
     7
 10
-341.8718539570414
 20
201.0292160782266
 30
0.0
 40
3.800500229235352
 50
320.825570286027
 51
347.246682769657
  0
LINE
  5
AA
  8
1
  6
CONTINUOUS
 62
     7
 10
-338.0713931889464
 20
202.2289911218365
 30
0.0
 11
-338.0713931889464
 21
201.0289911218365
 31
0.0
  0
LINE
  5
AB
  8
1
  6
CONTINUOUS
 62
     7
 10
-336.8713919890303
 20
202.2289911218365
 30
0.0
 11
-336.8713919890303
 21
201.0289911218364
 31
0.0
  0
ARC
  5
AC
  8
1
  6
CONTINUOUS
 62
     7
 10
-341.8713919890303
 20
201.0289911218364
 30
0.0
 40
5.000000000000001
 50
350.3429714649666
 51
0.0000000000000568
  0
ARC
  5
AD
  8
1
  6
CONTINUOUS
 62
     7
 10
-341.8713919890302
 20
201.0289911218365
 30
0.0
 40
3.799999999999998
 50
347.2484532902268
 51
0.0
  0
LINE
  5
AE
  8
1
  6
CONTINUOUS
 62
     9
 10
-330.8657369210251
 20
261.1997767956144
 30
0.0
 11
-330.9062994601933
 21
261.1592142564462
 31
0.0
  0
LINE
  5
AF
  8
1
  6
CONTINUOUS
 62
     7
 10
-330.8701760059716
 20
260.1955280982469
 30
0.0
 11
-330.8657369210251
 21
261.1997767956144
 31
0.0
  0
LINE
  5
B0
  8
1
  6
CONTINUOUS
 62
     7
 10
-330.8713158279084
 20
245.2290292060225
 30
0.0
 11
-330.8701760059716
 21
260.1955280982469
 31
0.0
  0
LINE
  5
B1
  8
1
  6
CONTINUOUS
 62
     9
 10
-330.9062994601933
 20
245.1940455737376
 30
0.0
 11
-330.8713158279084
 21
245.2290292060225
 31
0.0
  0
LINE
  5
B2
  8
1
  6
CONTINUOUS
 62
     7
 10
-330.9062994601933
 20
261.1592142564463
 30
0.0
 11
-330.9062994601933
 21
245.1940455737377
 31
0.0
  0
LINE
  5
B3
  8
1
  6
CONTINUOUS
 62
     7
 10
-334.3713919890303
 20
242.2289911218365
 30
0.0
 11
-334.310303914495
 21
242.2900791963718
 31
0.0
  0
LINE
  5
B4
  8
1
  6
CONTINUOUS
 62
     7
 10
-340.3626651212394
 20
242.2289911218365
 30
0.0
 11
-334.3713919890302
 21
242.2289911218365
 31
0.0
  0
LINE
  5
B5
  8
1
  6
CONTINUOUS
 62
     7
 10
-340.3626651212394
 20
242.2289911218365
 30
0.0
 11
-340.3102277591734
 21
242.2814284839026
 31
0.0
  0
LINE
  5
B6
  8
1
  6
CONTINUOUS
 62
     7
 10
-339.3102658361092
 20
242.2900791963718
 30
0.0
 11
-340.3102277591734
 21
242.2814284839026
 31
0.0
  0
LINE
  5
B7
  8
1
  6
CONTINUOUS
 62
     7
 10
-334.310303914495
 20
242.2900791963718
 30
0.0
 11
-339.3102658361092
 21
242.2900791963718
 31
0.0
  0
LINE
  5
B8
  8
1
  6
CONTINUOUS
 62
     7
 10
-334.310303914495
 20
244.1679030473012
 30
0.0
 11
-334.3713919890303
 21
244.2289911218365
 31
0.0
  0
LINE
  5
B9
  8
1
  6
CONTINUOUS
 62
     7
 10
-334.3713919890303
 20
244.2289911218365
 30
0.0
 11
-334.3713919890303
 21
247.1289911218365
 31
0.0
  0
LINE
  5
BA
  8
1
  6
CONTINUOUS
 62
     7
 10
-334.3713919890303
 20
247.1289911218365
 30
0.0
 11
-334.310303914495
 21
247.1900791963718
 31
0.0
  0
LINE
  5
BB
  8
1
  6
CONTINUOUS
 62
     7
 10
-334.310303914495
 20
244.1679030473012
 30
0.0
 11
-334.310303914495
 21
247.1900791963718
 31
0.0
  0
LINE
  5
BC
  8
1
  6
CONTINUOUS
 62
     9
 10
-340.3102277591734
 20
260.2814284839026
 30
0.0
 11
-340.3102277591734
 21
262.1678268919796
 31
0.0
  0
LINE
  5
BD
  8
1
  6
CONTINUOUS
 62
     7
 10
-340.3102277591734
 20
262.1678268919796
 30
0.0
 11
-339.3102658361092
 21
262.1591761795104
 31
0.0
  0
LINE
  5
BE
  8
1
  6
CONTINUOUS
 62
     9
 10
-339.3102658361092
 20
262.1591761795104
 30
0.0
 11
-339.3102658361092
 21
260.2900791963718
 31
0.0
  0
LINE
  5
BF
  8
1
  6
CONTINUOUS
 62
     7
 10
-339.3102658361092
 20
260.2900791963718
 30
0.0
 11
-340.3102277591734
 21
260.2814284839026
 31
0.0
  0
LINE
  5
C0
  8
1
  6
CONTINUOUS
 62
     7
 10
-340.3713919890303
 20
249.9068149727659
 30
0.0
 11
-340.3713919890303
 21
232.2289911218365
 31
0.0
  0
LINE
  5
C1
  8
1
  6
CONTINUOUS
 62
     7
 10
-340.3713919890303
 20
249.9068149727659
 30
0.0
 11
-340.3102277591734
 21
249.845650742909
 31
0.0
  0
LINE
  5
C2
  8
1
  6
CONTINUOUS
 62
     9
 10
-340.3102277591734
 20
247.1814284839026
 30
0.0
 11
-340.3102277591734
 21
249.845650742909
 31
0.0
  0
LINE
  5
C3
  8
1
  6
CONTINUOUS
 62
     7
 10
-340.3626651212394
 20
247.1289911218365
 30
0.0
 11
-340.3102277591734
 21
247.1814284839026
 31
0.0
  0
LINE
  5
C4
  8
1
  6
CONTINUOUS
 62
     7
 10
-340.3626651212394
 20
244.2289911218365
 30
0.0
 11
-340.3626651212394
 21
247.1289911218365
 31
0.0
  0
LINE
  5
C5
  8
1
  6
CONTINUOUS
 62
     7
 10
-340.3102277591734
 20
244.1765537597704
 30
0.0
 11
-340.3626651212394
 21
244.2289911218365
 31
0.0
  0
LINE
  5
C6
  8
1
  6
CONTINUOUS
 62
     9
 10
-340.3102277591734
 20
242.2814284839026
 30
0.0
 11
-340.3102277591734
 21
244.1765537597704
 31
0.0
  0
LINE
  5
C7
  8
1
  6
CONTINUOUS
 62
     7
 10
-340.3626651212394
 20
233.2290291987723
 30
0.0
 11
-340.3626651212394
 21
242.2289911218365
 31
0.0
  0
LINE
  5
C8
  8
1
  6
CONTINUOUS
 62
     9
 10
-340.3015770467042
 20
233.167941124237
 30
0.0
 11
-340.3626651212394
 21
233.2290291987723
 31
0.0
  0
LINE
  5
C9
  8
1
  6
CONTINUOUS
 62
     7
 10
-340.3015770467042
 20
232.2289911218365
 30
0.0
 11
-340.3015770467042
 21
233.167941124237
 31
0.0
  0
LINE
  5
CA
  8
1
  6
CONTINUOUS
 62
     7
 10
-334.310303914495
 20
257.2679030473012
 30
0.0
 11
-334.3713919890303
 21
257.3289911218365
 31
0.0
  0
LINE
  5
CB
  8
1
  6
CONTINUOUS
 62
     7
 10
-334.3713919890303
 20
257.3289911218365
 30
0.0
 11
-334.3713919890303
 21
260.2289911218365
 31
0.0
  0
LINE
  5
CC
  8
1
  6
CONTINUOUS
 62
     7
 10
-334.3713919890303
 20
260.2289911218365
 30
0.0
 11
-334.310303914495
 21
260.2900791963718
 31
0.0
  0
LINE
  5
CD
  8
1
  6
CONTINUOUS
 62
     7
 10
-334.310303914495
 20
257.2679030473012
 30
0.0
 11
-334.310303914495
 21
260.2900791963718
 31
0.0
  0
LINE
  5
CE
  8
1
  6
CONTINUOUS
 62
     7
 10
-336.8015770467042
 20
232.2988060641626
 30
0.0
 11
-336.8713919890303
 21
232.2289911218365
 31
0.0
  0
LINE
  5
CF
  8
1
  6
CONTINUOUS
 62
     7
 10
-336.8015770467042
 20
232.2289911218365
 30
0.0
 11
-336.8015770467042
 21
232.2988060641626
 31
0.0
  0
LINE
  5
D0
  8
1
  6
CONTINUOUS
 62
     7
 10
-338.4412069313563
 20
232.2988060641626
 30
0.0
 11
-338.3713919890303
 21
232.2289911218365
 31
0.0
  0
LINE
  5
D1
  8
1
  6
CONTINUOUS
 62
     7
 10
-338.4412069313563
 20
232.2988060641626
 30
0.0
 11
-338.4412069313563
 21
232.2289911218365
 31
0.0
  0
LINE
  5
D2
  8
1
  6
CONTINUOUS
 62
     7
 10
-340.3626651212394
 20
247.1289911218365
 30
0.0
 11
-334.3713919890302
 21
247.1289911218365
 31
0.0
  0
LINE
  5
D3
  8
1
  6
CONTINUOUS
 62
     7
 10
-339.3102658361092
 20
247.1900791963718
 30
0.0
 11
-340.3102277591734
 21
247.1814284839026
 31
0.0
  0
LINE
  5
D4
  8
1
  6
CONTINUOUS
 62
     7
 10
-334.310303914495
 20
247.1900791963718
 30
0.0
 11
-339.3102658361092
 21
247.1900791963718
 31
0.0
  0
POLYLINE
  5
D5
  8
1
  6
CONTINUOUS
 62
     7
 66
     1
 10
0.0
 20
0.0
 30
0.0
  0
VERTEX
  5
42F
  8
1
  6
CONTINUOUS
 62
     7
 10
-327.9413211621638
 20
242.2988060641626
 30
0.0
  0
VERTEX
  5
430
  8
1
  6
CONTINUOUS
 62
     7
 10
-328.5265820136701
 20
242.2411652816798
 30
0.0
  0
VERTEX
  5
431
  8
1
  6
CONTINUOUS
 62
     7
 10
-329.0893450135954
 20
242.0704578230955
 30
0.0
  0
VERTEX
  5
432
  8
1
  6
CONTINUOUS
 62
     7
 10
-329.6079855855899
 20
241.7932432462912
 30
0.0
  0
VERTEX
  5
433
  8
1
  6
CONTINUOUS
 62
     7
 10
-330.0625745895917
 20
241.420173722398
 30
0.0
  0
VERTEX
  5
434
  8
1
  6
CONTINUOUS
 62
     7
 10
-330.4356441134849
 20
240.9655847183962
 30
0.0
  0
VERTEX
  5
435
  8
1
  6
CONTINUOUS
 62
     7
 10
-330.7128586902891
 20
240.4469441464017
 30
0.0
  0
VERTEX
  5
436
  8
1
  6
CONTINUOUS
 62
     7
 10
-330.8835661488735
 20
239.8841811464764
 30
0.0
  0
VERTEX
  5
437
  8
1
  6
CONTINUOUS
 62
     7
 10
-330.9412069313562
 20
239.2989202949701
 30
0.0
  0
SEQEND
  5
951
  8
1
  6
CONTINUOUS
 62
     7
  0
LINE
  5
D6
  8
1
  6
CONTINUOUS
 62
     7
 10
-330.9412069313563
 20
239.2989202949701
 30
0.0
 11
-330.9412069313563
 21
213.0206613120252
 31
0.0
  0
LINE
  5
D7
  8
1
  6
CONTINUOUS
 62
     9
 10
-333.4740814507852
 20
213.0206613120252
 30
0.0
 11
-330.9412069313563
 21
213.0206613120252
 31
0.0
  0
LINE
  5
D8
  8
1
  6
CONTINUOUS
 62
     7
 10
-333.4740814507852
 20
203.8373209316478
 30
0.0
 11
-333.4740814507852
 21
213.0206613120252
 31
0.0
  0
LINE
  5
D9
  8
1
  6
CONTINUOUS
 62
     9
 10
-330.9412069313563
 20
203.8373209316478
 30
0.0
 11
-333.4740814507852
 21
203.8373209316478
 31
0.0
  0
LINE
  5
DA
  8
1
  6
CONTINUOUS
 62
     7
 10
-330.9412069313563
 20
203.8373209316478
 30
0.0
 11
-330.9412069313563
 21
203.2901172747576
 31
0.0
  0
LINE
  5
DB
  8
1
  6
CONTINUOUS
 62
     9
 10
-334.8713919890303
 20
203.2901172747576
 30
0.0
 11
-330.9412069313563
 21
203.2901172747576
 31
0.0
  0
LINE
  5
DC
  8
1
  6
CONTINUOUS
 62
     9
 10
-332.810303914495
 20
213.5765918367062
 30
0.0
 11
-334.8713919890303
 21
213.5765918367062
 31
0.0
  0
LINE
  5
DD
  8
1
  6
CONTINUOUS
 62
     7
 10
-332.810303914495
 20
231.6813904069668
 30
0.0
 11
-332.810303914495
 21
213.5765918367062
 31
0.0
  0
LINE
  5
DE
  8
1
  6
CONTINUOUS
 62
     9
 10
-334.8713919890303
 20
231.6813904069668
 30
0.0
 11
-332.810303914495
 21
231.6813904069668
 31
0.0
  0
LINE
  5
DF
  8
1
  6
CONTINUOUS
 62
     7
 10
-336.8015770467042
 20
232.2988060641626
 30
0.0
 11
-338.4412069313563
 21
232.2988060641626
 31
0.0
  0
POLYLINE
  5
E0
  8
1
  6
CONTINUOUS
 62
     7
 66
     1
 10
0.0
 20
0.0
 30
0.0
  0
VERTEX
  5
438
  8
1
  6
CONTINUOUS
 62
     7
 10
-339.30161512364
 20
234.1679030473012
 30
0.0
  0
VERTEX
  5
439
  8
1
  6
CONTINUOUS
 62
     7
 10
-339.4967020741421
 20
234.1486894531403
 30
0.0
  0
VERTEX
  5
43A
  8
1
  6
CONTINUOUS
 62
     7
 10
-339.6842897407839
 20
234.0917869669455
 30
0.0
  0
VERTEX
  5
43B
  8
1
  6
CONTINUOUS
 62
     7
 10
-339.8571699314487
 20
233.9993821080108
 30
0.0
  0
VERTEX
  5
43C
  8
1
  6
CONTINUOUS
 62
     7
 10
-340.0086995994493
 20
233.8750256000464
 30
0.0
  0
VERTEX
  5
43D
  8
1
  6
CONTINUOUS
 62
     7
 10
-340.1330561074137
 20
233.7234959320458
 30
0.0
  0
VERTEX
  5
43E
  8
1
  6
CONTINUOUS
 62
     7
 10
-340.2254609663484
 20
233.5506157413809
 30
0.0
  0
VERTEX
  5
43F
  8
1
  6
CONTINUOUS
 62
     7
 10
-340.2823634525432
 20
233.3630280747391
 30
0.0
  0
VERTEX
  5
440
  8
1
  6
CONTINUOUS
 62
     7
 10
-340.3015770467042
 20
233.167941124237
 30
0.0
  0
SEQEND
  5
952
  8
1
  6
CONTINUOUS
 62
     7
  0
LINE
  5
E1
  8
1
  6
CONTINUOUS
 62
     7
 10
-339.30161512364
 20
234.1679030473012
 30
0.0
 11
-334.3103039144949
 21
234.1679030473012
 31
0.0
  0
LINE
  5
E2
  8
1
  6
CONTINUOUS
 62
     7
 10
-334.310303914495
 20
234.1679030473012
 30
0.0
 11
-334.310303914495
 21
242.2900791963718
 31
0.0
  0
LINE
  5
E3
  8
1
  6
CONTINUOUS
 62
     9
 10
-339.3102658361092
 20
244.1679030473012
 30
0.0
 11
-339.3102658361092
 21
242.2900791963718
 31
0.0
  0
LINE
  5
E4
  8
1
  6
CONTINUOUS
 62
     7
 10
-339.3102658361092
 20
244.1679030473012
 30
0.0
 11
-334.310303914495
 21
244.1679030473012
 31
0.0
  0
LINE
  5
E5
  8
1
  6
CONTINUOUS
 62
     9
 10
-339.3102658361092
 20
249.8370000304398
 30
0.0
 11
-339.3102658361092
 21
247.1900791963718
 31
0.0
  0
LINE
  5
E6
  8
1
  6
CONTINUOUS
 62
     7
 10
-334.3713919890303
 20
249.8370000304398
 30
0.0
 11
-339.3102658361092
 21
249.8370000304398
 31
0.0
  0
LINE
  5
E7
  8
1
  6
CONTINUOUS
 62
     7
 10
-334.3713919890303
 20
254.6209822132332
 30
0.0
 11
-334.3713919890303
 21
249.8370000304398
 31
0.0
  0
LINE
  5
E8
  8
1
  6
CONTINUOUS
 62
     7
 10
-339.3102658361092
 20
254.6209822132332
 30
0.0
 11
-334.3713919890303
 21
254.6209822132332
 31
0.0
  0
LINE
  5
E9
  8
1
  6
CONTINUOUS
 62
     9
 10
-339.3102658361092
 20
257.2679030473012
 30
0.0
 11
-339.3102658361092
 21
254.6209822132332
 31
0.0
  0
LINE
  5
EA
  8
1
  6
CONTINUOUS
 62
     7
 10
-339.3102658361092
 20
257.2679030473012
 30
0.0
 11
-334.310303914495
 21
257.2679030473012
 31
0.0
  0
LINE
  5
EB
  8
1
  6
CONTINUOUS
 62
     7
 10
-334.310303914495
 20
260.2900791963718
 30
0.0
 11
-339.3102658361092
 21
260.2900791963718
 31
0.0
  0
LINE
  5
EC
  8
1
  6
CONTINUOUS
 62
     7
 10
-339.3102658361092
 20
262.1591761795104
 30
0.0
 11
-331.9062613832575
 21
262.1591761795104
 31
0.0
  0
POLYLINE
  5
ED
  8
1
  6
CONTINUOUS
 62
     7
 66
     1
 10
0.0
 20
0.0
 30
0.0
  0
VERTEX
  5
441
  8
1
  6
CONTINUOUS
 62
     7
 10
-330.9062994601933
 20
261.1592142564463
 30
0.0
  0
VERTEX
  5
442
  8
1
  6
CONTINUOUS
 62
     7
 10
-330.9255130543542
 20
261.3543012069484
 30
0.0
  0
VERTEX
  5
443
  8
1
  6
CONTINUOUS
 62
     7
 10
-330.982415540549
 20
261.5418888735901
 30
0.0
  0
VERTEX
  5
444
  8
1
  6
CONTINUOUS
 62
     7
 10
-331.0748203994838
 20
261.7147690642549
 30
0.0
  0
VERTEX
  5
445
  8
1
  6
CONTINUOUS
 62
     7
 10
-331.1991769074481
 20
261.8662987322555
 30
0.0
  0
VERTEX
  5
446
  8
1
  6
CONTINUOUS
 62
     7
 10
-331.3507065754487
 20
261.9906552402199
 30
0.0
  0
VERTEX
  5
447
  8
1
  6
CONTINUOUS
 62
     7
 10
-331.5235867661136
 20
262.0830600991546
 30
0.0
  0
VERTEX
  5
448
  8
1
  6
CONTINUOUS
 62
     7
 10
-331.7111744327553
 20
262.1399625853495
 30
0.0
  0
VERTEX
  5
449
  8
1
  6
CONTINUOUS
 62
     7
 10
-331.9062613832574
 20
262.1591761795104
 30
0.0
  0
SEQEND
  5
953
  8
1
  6
CONTINUOUS
 62
     7
  0
POLYLINE
  5
EE
  8
1
  6
CONTINUOUS
 62
     7
 66
     1
 10
0.0
 20
0.0
 30
0.0
  0
VERTEX
  5
44A
  8
1
  6
CONTINUOUS
 62
     7
 10
-330.9062994601933
 20
245.1940455737377
 30
0.0
  0
VERTEX
  5
44B
  8
1
  6
CONTINUOUS
 62
     7
 10
-330.8870858660324
 20
244.9989586232356
 30
0.0
  0
VERTEX
  5
44C
  8
1
  6
CONTINUOUS
 62
     7
 10
-330.8301833798375
 20
244.8113709565938
 30
0.0
  0
VERTEX
  5
44D
  8
1
  6
CONTINUOUS
 62
     7
 10
-330.7377785209028
 20
244.6384907659289
 30
0.0
  0
VERTEX
  5
44E
  8
1
  6
CONTINUOUS
 62
     7
 10
-330.6134220129384
 20
244.4869610979283
 30
0.0
  0
VERTEX
  5
44F
  8
1
  6
CONTINUOUS
 62
     7
 10
-330.4618923449378
 20
244.3626045899639
 30
0.0
  0
VERTEX
  5
450
  8
1
  6
CONTINUOUS
 62
     7
 10
-330.289012154273
 20
244.2701997310292
 30
0.0
  0
VERTEX
  5
451
  8
1
  6
CONTINUOUS
 62
     7
 10
-330.1014244876313
 20
244.2132972448344
 30
0.0
  0
VERTEX
  5
452
  8
1
  6
CONTINUOUS
 62
     7
 10
-329.9063375371292
 20
244.1940836506735
 30
0.0
  0
SEQEND
  5
954
  8
1
  6
CONTINUOUS
 62
     7
  0
LINE
  5
EF
  8
1
  6
CONTINUOUS
 62
     7
 10
-294.1364845178672
 20
244.1940836506735
 30
0.0
 11
-329.9063375371291
 21
244.1940836506735
 31
0.0
  0
LINE
  5
F0
  8
1
  6
CONTINUOUS
 62
     7
 10
-294.1364845178672
 20
244.1940836506735
 30
0.0
 11
-294.1364845178672
 21
246.6679030473012
 31
0.0
  0
LINE
  5
F1
  8
1
  6
CONTINUOUS
 62
     7
 10
-294.1364845178672
 20
246.6679030473012
 30
0.0
 11
-292.6062994601933
 21
246.6679030473012
 31
0.0
  0
LINE
  5
F2
  8
1
  6
CONTINUOUS
 62
     7
 10
-292.6062994601933
 20
246.6679030473012
 30
0.0
 11
-292.6062994601933
 21
244.1940836506735
 31
0.0
  0
LINE
  5
F3
  8
1
  6
CONTINUOUS
 62
     7
 10
-284.6364845178672
 20
244.1940836506735
 30
0.0
 11
-292.6062994601933
 21
244.1940836506735
 31
0.0
  0
LINE
  5
F4
  8
1
  6
CONTINUOUS
 62
     7
 10
-284.6364845178672
 20
244.1940836506735
 30
0.0
 11
-284.6364845178672
 21
245.7027724400785
 31
0.0
  0
LINE
  5
F5
  8
1
  6
CONTINUOUS
 62
     9
 10
-283.1062994601933
 20
245.7027724400785
 30
0.0
 11
-284.6364845178672
 21
245.7027724400785
 31
0.0
  0
LINE
  5
F6
  8
1
  6
CONTINUOUS
 62
     7
 10
-283.1062994601933
 20
245.7027724400785
 30
0.0
 11
-283.1062994601933
 21
244.1940836506735
 31
0.0
  0
LINE
  5
F7
  8
1
  6
CONTINUOUS
 62
     7
 10
-244.4151405631413
 20
244.1940836506735
 30
0.0
 11
-283.1062994601933
 21
244.1940836506735
 31
0.0
  0
LINE
  5
F8
  8
1
  6
CONTINUOUS
 62
     9
 10
-244.4151405631413
 20
242.2988060641626
 30
0.0
 11
-244.4151405631413
 21
244.1940836506735
 31
0.0
  0
LINE
  5
F9
  8
1
  6
CONTINUOUS
 62
     7
 10
-327.9413211621638
 20
242.2988060641626
 30
0.0
 11
-244.4151405631412
 21
242.2988060641626
 31
0.0
  0
LINE
  5
FA
  8
1
  6
CONTINUOUS
 62
     7
 10
-333.4740814507852
 20
203.8373209316478
 30
0.0
 11
-333.4221310098484
 21
204.837282854712
 31
0.0
  0
LINE
  5
FB
  8
1
  6
CONTINUOUS
 62
     9
 10
-333.4221310098485
 20
204.837282854712
 30
0.0
 11
-330.9325562188872
 21
204.837282854712
 31
0.0
  0
LINE
  5
FC
  8
1
  6
CONTINUOUS
 62
     7
 10
-330.9325562188871
 20
204.837282854712
 30
0.0
 11
-330.9412069313563
 21
203.8373209316478
 31
0.0
  0
LINE
  5
FD
  8
1
  6
CONTINUOUS
 62
     7
 10
-330.9412069313563
 20
213.0206613120252
 30
0.0
 11
-330.9325562188871
 21
212.020699388961
 31
0.0
  0
LINE
  5
FE
  8
1
  6
CONTINUOUS
 62
     9
 10
-330.9325562188871
 20
212.020699388961
 30
0.0
 11
-333.4221310098484
 21
212.020699388961
 31
0.0
  0
LINE
  5
FF
  8
1
  6
CONTINUOUS
 62
     7
 10
-333.4221310098485
 20
212.020699388961
 30
0.0
 11
-333.4740814507853
 21
213.0206613120252
 31
0.0
  0
LINE
  5
100
  8
1
  6
CONTINUOUS
 62
     9
 10
-330.9325562188871
 20
202.2901553516934
 30
0.0
 11
-334.8713919890303
 21
202.2901553516934
 31
0.0
  0
LINE
  5
101
  8
1
  6
CONTINUOUS
 62
     7
 10
-330.9412069313563
 20
203.2901172747576
 30
0.0
 11
-330.9325562188871
 21
202.2901553516934
 31
0.0
  0
POLYLINE
  5
102
  8
1
  6
CONTINUOUS
 62
     7
 66
     1
 10
0.0
 20
0.0
 30
0.0
  0
VERTEX
  5
453
  8
1
  6
CONTINUOUS
 62
     7
 10
-330.8713158279084
 20
245.2290292060225
 30
0.0
  0
VERTEX
  5
454
  8
1
  6
CONTINUOUS
 62
     7
 10
-330.8521170923543
 20
245.0339273969136
 30
0.0
  0
VERTEX
  5
455
  8
1
  6
CONTINUOUS
 62
     7
 10
-330.7952288935907
 20
244.8463254428407
 30
0.0
  0
VERTEX
  5
456
  8
1
  6
CONTINUOUS
 62
     7
 10
-330.7028372019066
 20
244.6734320849253
 30
0.0
  0
VERTEX
  5
457
  8
1
  6
CONTINUOUS
 62
     7
 10
-330.5784922350511
 20
244.5218908758157
 30
0.0
  0
VERTEX
  5
458
  8
1
  6
CONTINUOUS
 62
     7
 10
-330.4269720385423
 20
244.3975248963595
 30
0.0
  0
VERTEX
  5
459
  8
1
  6
CONTINUOUS
 62
     7
 10
-330.2540988858032
 20
244.305112999499
 30
0.0
  0
VERTEX
  5
45A
  8
1
  6
CONTINUOUS
 62
     7
 10
-330.0665155530836
 20
244.2482061793821
 30
0.0
  0
VERTEX
  5
45B
  8
1
  6
CONTINUOUS
 62
     7
 10
-329.8714300659661
 20
244.2289911218365
 30
0.0
  0
SEQEND
  5
955
  8
1
  6
CONTINUOUS
 62
     7
  0
LINE
  5
103
  8
1
  6
CONTINUOUS
 62
     9
 10
-329.8714300659661
 20
244.2289911218365
 30
0.0
 11
-329.9063375371291
 21
244.1940836506735
 31
0.0
  0
LINE
  5
104
  8
1
  6
CONTINUOUS
 62
     7
 10
-241.3713919890303
 20
242.2289911218365
 30
0.0
 11
-244.1213949179709
 21
242.2289911218365
 31
0.0
  0
LINE
  5
105
  8
1
  6
CONTINUOUS
 62
     9
 10
-247.2786602063061
 20
242.2573038169237
 30
0.0
 11
-244.1213949179709
 21
242.2289911218365
 31
0.0
  0
LINE
  5
106
  8
1
  6
CONTINUOUS
 62
     9
 10
-247.2771764008311
 20
242.2289911218365
 30
0.0
 11
-247.2786602063061
 21
242.2573038169237
 31
0.0
  0
LINE
  5
107
  8
1
  6
CONTINUOUS
 62
     7
 10
-247.2771764008311
 20
242.2289911218365
 30
0.0
 11
-247.4656075772295
 21
242.2289911218365
 31
0.0
  0
LINE
  5
108
  8
1
  6
CONTINUOUS
 62
     9
 10
-247.4641237717544
 20
242.2573038169237
 30
0.0
 11
-247.4656075772295
 21
242.2289911218365
 31
0.0
  0
LINE
  5
109
  8
1
  6
CONTINUOUS
 62
     9
 10
-250.6213890600896
 20
242.2289911218365
 30
0.0
 11
-247.4641237717544
 21
242.2573038169237
 31
0.0
  0
LINE
  5
10A
  8
1
  6
CONTINUOUS
 62
     7
 10
-250.6213890600896
 20
242.2289911218365
 30
0.0
 11
-282.1213949179709
 21
242.2289911218365
 31
0.0
  0
LINE
  5
10B
  8
1
  6
CONTINUOUS
 62
     9
 10
-285.2786602063061
 20
242.2573038169237
 30
0.0
 11
-282.1213949179709
 21
242.2289911218365
 31
0.0
  0
LINE
  5
10C
  8
1
  6
CONTINUOUS
 62
     9
 10
-285.277176400831
 20
242.2289911218365
 30
0.0
 11
-285.2786602063061
 21
242.2573038169237
 31
0.0
  0
LINE
  5
10D
  8
1
  6
CONTINUOUS
 62
     7
 10
-285.277176400831
 20
242.2289911218365
 30
0.0
 11
-285.4656075772294
 21
242.2289911218365
 31
0.0
  0
LINE
  5
10E
  8
1
  6
CONTINUOUS
 62
     9
 10
-285.4641237717544
 20
242.2573038169237
 30
0.0
 11
-285.4656075772294
 21
242.2289911218365
 31
0.0
  0
LINE
  5
10F
  8
1
  6
CONTINUOUS
 62
     9
 10
-288.6213890600897
 20
242.2289911218365
 30
0.0
 11
-285.4641237717544
 21
242.2573038169237
 31
0.0
  0
LINE
  5
110
  8
1
  6
CONTINUOUS
 62
     7
 10
-288.6213890600897
 20
242.2289911218365
 30
0.0
 11
-327.8715062198377
 21
242.2289911218365
 31
0.0
  0
LINE
  5
111
  8
1
  6
CONTINUOUS
 62
     9
 10
-327.9413211621638
 20
242.2988060641626
 30
0.0
 11
-327.8715062198377
 21
242.2289911218365
 31
0.0
  0
LINE
  5
112
  8
1
  6
CONTINUOUS
 62
     7
 10
-241.4152547939487
 20
242.272853926755
 30
0.0
 11
-244.4151405631413
 21
242.2988060641626
 31
0.0
  0
LINE
  5
113
  8
1
  6
CONTINUOUS
 62
     7
 10
-241.4152547939487
 20
242.272853926755
 30
0.0
 11
-241.3713919890303
 21
242.2289911218365
 31
0.0
  0
LINE
  5
114
  8
1
  6
CONTINUOUS
 62
     7
 10
-292.5712035729954
 20
246.702998934499
 30
0.0
 11
-288.8453998016928
 21
246.702998934499
 31
0.0
  0
LINE
  5
115
  8
1
  6
CONTINUOUS
 62
     7
 10
-292.6062994601933
 20
246.6679030473012
 30
0.0
 11
-292.5712035729954
 21
246.702998934499
 31
0.0
  0
LINE
  5
116
  8
1
  6
CONTINUOUS
 62
     7
 10
-294.1364845178672
 20
246.6679030473012
 30
0.0
 11
-294.1715804050651
 21
246.702998934499
 31
0.0
  0
LINE
  5
117
  8
1
  6
CONTINUOUS
 62
     7
 10
-297.8973841763677
 20
246.702998934499
 30
0.0
 11
-294.1715804050651
 21
246.702998934499
 31
0.0
  0
LINE
  5
118
  8
1
  6
CONTINUOUS
 62
     7
 10
-297.8713919890302
 20
246.7289911218365
 30
0.0
 11
-297.8973841763677
 21
246.702998934499
 31
0.0
  0
LINE
  5
119
  8
1
  6
CONTINUOUS
 62
     7
 10
-297.8713919890302
 20
246.7289911218365
 30
0.0
 11
-288.8713919890302
 21
246.7289911218365
 31
0.0
  0
LINE
  5
11A
  8
1
  6
CONTINUOUS
 62
     7
 10
-288.8713919890303
 20
246.7289911218365
 30
0.0
 11
-288.8453998016928
 21
246.702998934499
 31
0.0
  0
LINE
  5
11B
  8
1
  6
CONTINUOUS
 62
     7
 10
-244.4151405631413
 20
244.1940836506735
 30
0.0
 11
-241.4152547939487
 21
244.220035788081
 31
0.0
  0
LINE
  5
11C
  8
1
  6
CONTINUOUS
 62
     9
 10
-241.4152547939487
 20
244.220035788081
 30
0.0
 11
-241.4152547939487
 21
242.272853926755
 31
0.0
  0
LINE
  5
11D
  8
1
  6
CONTINUOUS
 62
     7
 10
-340.3626651212394
 20
257.3289911218365
 30
0.0
 11
-334.3713919890302
 21
257.3289911218365
 31
0.0
  0
LINE
  5
11E
  8
1
  6
CONTINUOUS
 62
     7
 10
-340.3102277591734
 20
257.2765537597704
 30
0.0
 11
-339.3102658361092
 21
257.2679030473012
 31
0.0
  0
LINE
  5
11F
  8
1
  6
CONTINUOUS
 62
     7
 10
-340.3102277591734
 20
257.2765537597704
 30
0.0
 11
-340.3626651212394
 21
257.3289911218365
 31
0.0
  0
POLYLINE
  5
120
  8
1
  6
CONTINUOUS
 62
     7
 66
     1
 10
0.0
 20
0.0
 30
0.0
  0
VERTEX
  5
45C
  8
1
  6
CONTINUOUS
 62
     7
 10
-327.8715062198377
 20
242.2289911218365
 30
0.0
  0
VERTEX
  5
45D
  8
1
  6
CONTINUOUS
 62
     7
 10
-328.4567670713441
 20
242.1713503393537
 30
0.0
  0
VERTEX
  5
45E
  8
1
  6
CONTINUOUS
 62
     7
 10
-329.0195300712693
 20
242.0006428807694
 30
0.0
  0
VERTEX
  5
45F
  8
1
  6
CONTINUOUS
 62
     7
 10
-329.5381706432639
 20
241.7234283039651
 30
0.0
  0
VERTEX
  5
460
  8
1
  6
CONTINUOUS
 62
     7
 10
-329.9927596472657
 20
241.3503587800719
 30
0.0
  0
VERTEX
  5
461
  8
1
  6
CONTINUOUS
 62
     7
 10
-330.3658291711589
 20
240.8957697760701
 30
0.0
  0
VERTEX
  5
462
  8
1
  6
CONTINUOUS
 62
     7
 10
-330.6430437479631
 20
240.3771292040756
 30
0.0
  0
VERTEX
  5
463
  8
1
  6
CONTINUOUS
 62
     7
 10
-330.8137512065474
 20
239.8143662041503
 30
0.0
  0
VERTEX
  5
464
  8
1
  6
CONTINUOUS
 62
     7
 10
-330.8713919890302
 20
239.229105352644
 30
0.0
  0
SEQEND
  5
956
  8
1
  6
CONTINUOUS
 62
     7
  0
LINE
  5
121
  8
1
  6
CONTINUOUS
 62
     9
 10
-330.8713919890303
 20
239.229105352644
 30
0.0
 11
-330.9412069313563
 21
239.2989202949701
 31
0.0
  0
LINE
  5
122
  8
1
  6
CONTINUOUS
 62
     7
 10
-292.6062994601933
 20
244.1940836506735
 30
0.0
 11
-292.5713919890302
 21
244.2289911218365
 31
0.0
  0
LINE
  5
123
  8
1
  6
CONTINUOUS
 62
     7
 10
-292.5712035729954
 20
246.702998934499
 30
0.0
 11
-292.5713919890302
 21
244.2289911218365
 31
0.0
  0
LINE
  5
124
  8
1
  6
CONTINUOUS
 62
     7
 10
-294.1364845178672
 20
244.1940836506735
 30
0.0
 11
-294.1713919890303
 21
244.2289911218365
 31
0.0
  0
LINE
  5
125
  8
1
  6
CONTINUOUS
 62
     7
 10
-294.1713919890303
 20
244.2289911218365
 30
0.0
 11
-294.1715804050651
 21
246.702998934499
 31
0.0
  0
POLYLINE
  5
126
  8
1
  6
CONTINUOUS
 62
     7
 66
     1
 10
0.0
 20
0.0
 30
0.0
  0
VERTEX
  5
465
  8
1
  6
CONTINUOUS
 62
     7
 10
-339.3627031981753
 20
234.2289911218365
 30
0.0
  0
VERTEX
  5
466
  8
1
  6
CONTINUOUS
 62
     7
 10
-339.5577901486774
 20
234.2097775276756
 30
0.0
  0
VERTEX
  5
467
  8
1
  6
CONTINUOUS
 62
     7
 10
-339.7453778153192
 20
234.1528750414808
 30
0.0
  0
VERTEX
  5
468
  8
1
  6
CONTINUOUS
 62
     7
 10
-339.918258005984
 20
234.0604701825461
 30
0.0
  0
VERTEX
  5
469
  8
1
  6
CONTINUOUS
 62
     7
 10
-340.0697876739846
 20
233.9361136745817
 30
0.0
  0
VERTEX
  5
46A
  8
1
  6
CONTINUOUS
 62
     7
 10
-340.194144181949
 20
233.7845840065811
 30
0.0
  0
VERTEX
  5
46B
  8
1
  6
CONTINUOUS
 62
     7
 10
-340.2865490408837
 20
233.6117038159162
 30
0.0
  0
VERTEX
  5
46C
  8
1
  6
CONTINUOUS
 62
     7
 10
-340.3434515270785
 20
233.4241161492745
 30
0.0
  0
VERTEX
  5
46D
  8
1
  6
CONTINUOUS
 62
     7
 10
-340.3626651212394
 20
233.2290291987723
 30
0.0
  0
SEQEND
  5
957
  8
1
  6
CONTINUOUS
 62
     7
  0
LINE
  5
127
  8
1
  6
CONTINUOUS
 62
     9
 10
-339.3627031981753
 20
234.2289911218365
 30
0.0
 11
-339.30161512364
 21
234.1679030473012
 31
0.0
  0
LINE
  5
128
  8
1
  6
CONTINUOUS
 62
     7
 10
-340.3626651212394
 20
244.2289911218365
 30
0.0
 11
-334.3713919890302
 21
244.2289911218365
 31
0.0
  0
LINE
  5
129
  8
1
  6
CONTINUOUS
 62
     7
 10
-340.3102277591734
 20
244.1765537597704
 30
0.0
 11
-339.3102658361092
 21
244.1679030473012
 31
0.0
  0
LINE
  5
12A
  8
1
  6
CONTINUOUS
 62
     7
 10
-340.3102277591734
 20
249.845650742909
 30
0.0
 11
-339.3102658361092
 21
249.8370000304398
 31
0.0
  0
LINE
  5
12B
  8
1
  6
CONTINUOUS
 62
     7
 10
-334.310303914495
 20
234.1679030473012
 30
0.0
 11
-334.3713919890303
 21
234.2289911218365
 31
0.0
  0
LINE
  5
12C
  8
1
  6
CONTINUOUS
 62
     7
 10
-339.3627031981753
 20
234.2289911218365
 30
0.0
 11
-334.3713919890302
 21
234.2289911218365
 31
0.0
  0
LINE
  5
12D
  8
1
  6
CONTINUOUS
 62
     9
 10
-340.3102277591734
 20
254.612331500764
 30
0.0
 11
-340.3102277591734
 21
257.2765537597704
 31
0.0
  0
LINE
  5
12E
  8
1
  6
CONTINUOUS
 62
     7
 10
-339.3102658361092
 20
254.6209822132332
 30
0.0
 11
-340.3102277591734
 21
254.612331500764
 31
0.0
  0
LINE
  5
12F
  8
1
  6
CONTINUOUS
 62
     7
 10
-294.1713919890303
 20
244.2289911218365
 30
0.0
 11
-329.8714300659661
 21
244.2289911218365
 31
0.0
  0
LINE
  5
130
  8
1
  6
CONTINUOUS
 62
     7
 10
-283.0713919890302
 20
244.2289911218365
 30
0.0
 11
-283.0712015789754
 21
246.7291815318914
 31
0.0
  0
LINE
  5
131
  8
1
  6
CONTINUOUS
 62
     7
 10
-283.0713919890302
 20
244.2289911218365
 30
0.0
 11
-283.1062994601933
 21
244.1940836506735
 31
0.0
  0
LINE
  5
132
  8
1
  6
CONTINUOUS
 62
     7
 10
-283.0976487477241
 20
246.7027343631427
 30
0.0
 11
-283.1062994601933
 21
245.7027724400785
 31
0.0
  0
LINE
  5
133
  8
1
  6
CONTINUOUS
 62
     7
 10
-283.0712015789754
 20
246.7291815318914
 30
0.0
 11
-283.0976487477241
 21
246.7027343631427
 31
0.0
  0
LINE
  5
134
  8
1
  6
CONTINUOUS
 62
     7
 10
-334.3713919890303
 20
254.4374743303625
 30
0.0
 11
-334.8713919890303
 21
254.4374743303625
 31
0.0
  0
LINE
  5
135
  8
1
  6
CONTINUOUS
 62
     7
 10
-334.8713919890303
 20
254.4374743303625
 30
0.0
 11
-334.8713919890303
 21
254.4289911218365
 31
0.0
  0
LINE
  5
136
  8
1
  6
CONTINUOUS
 62
     7
 10
-340.2492158399596
 20
254.4289911218365
 30
0.0
 11
-334.8713919890303
 21
254.4289911218365
 31
0.0
  0
LINE
  5
137
  8
1
  6
CONTINUOUS
 62
     7
 10
-340.3713919890303
 20
254.5511672709071
 30
0.0
 11
-340.2492158399596
 21
254.4289911218365
 31
0.0
  0
LINE
  5
138
  8
1
  6
CONTINUOUS
 62
     7
 10
-340.3102277591734
 20
254.612331500764
 30
0.0
 11
-340.3713919890303
 21
254.5511672709071
 31
0.0
  0
LINE
  5
139
  8
1
  6
CONTINUOUS
 62
     7
 10
-334.3713919890303
 20
234.2289911218365
 30
0.0
 11
-334.3713919890303
 21
242.2289911218365
 31
0.0
  0
LINE
  5
13A
  8
1
  6
CONTINUOUS
 62
     7
 10
-340.2492158399596
 20
250.0289911218365
 30
0.0
 11
-340.3713919890303
 21
249.9068149727659
 31
0.0
  0
LINE
  5
13B
  8
1
  6
CONTINUOUS
 62
     7
 10
-340.2492158399596
 20
250.0289911218365
 30
0.0
 11
-334.8713919890303
 21
250.0289911218365
 31
0.0
  0
LINE
  5
13C
  8
1
  6
CONTINUOUS
 62
     7
 10
-334.8713919890303
 20
250.0289911218365
 30
0.0
 11
-334.8713919890303
 21
250.0205079133105
 31
0.0
  0
LINE
  5
13D
  8
1
  6
CONTINUOUS
 62
     7
 10
-334.8713919890303
 20
250.0205079133105
 30
0.0
 11
-334.3713919890303
 21
250.0205079133105
 31
0.0
  0
LINE
  5
13E
  8
1
  6
CONTINUOUS
 62
     7
 10
-332.8189546269641
 20
214.5765537597704
 30
0.0
 11
-332.810303914495
 21
213.5765918367062
 31
0.0
  0
LINE
  5
13F
  8
1
  6
CONTINUOUS
 62
     7
 10
-332.8713919890303
 20
214.6289911218365
 30
0.0
 11
-332.8189546269641
 21
214.5765537597704
 31
0.0
  0
LINE
  5
140
  8
1
  6
CONTINUOUS
 62
     7
 10
-332.8713919890303
 20
230.6289911218365
 30
0.0
 11
-332.8713919890303
 21
214.6289911218365
 31
0.0
  0
LINE
  5
141
  8
1
  6
CONTINUOUS
 62
     7
 10
-332.8189546269641
 20
230.6814284839026
 30
0.0
 11
-332.8713919890303
 21
230.6289911218365
 31
0.0
  0
LINE
  5
142
  8
1
  6
CONTINUOUS
 62
     7
 10
-332.810303914495
 20
231.6813904069668
 30
0.0
 11
-332.8189546269641
 21
230.6814284839026
 31
0.0
  0
LINE
  5
143
  8
1
  6
CONTINUOUS
 62
     9
 10
-331.9062613832575
 20
262.1591761795104
 30
0.0
 11
-331.8612590828943
 21
262.2041784798736
 31
0.0
  0
POLYLINE
  5
144
  8
1
  6
CONTINUOUS
 62
     7
 66
     1
 10
0.0
 20
0.0
 30
0.0
  0
VERTEX
  5
46E
  8
1
  6
CONTINUOUS
 62
     7
 10
-330.8657369210252
 20
261.1997767956144
 30
0.0
  0
VERTEX
  5
46F
  8
1
  6
CONTINUOUS
 62
     7
 10
-330.8840843427324
 20
261.3957299185701
 30
0.0
  0
VERTEX
  5
470
  8
1
  6
CONTINUOUS
 62
     7
 10
-330.9401539527708
 20
261.5841504613683
 30
0.0
  0
VERTEX
  5
471
  8
1
  6
CONTINUOUS
 62
     7
 10
-331.0317912357166
 20
261.757798228022
 30
0.0
  0
VERTEX
  5
472
  8
1
  6
CONTINUOUS
 62
     7
 10
-331.1554749625237
 20
261.9100006771799
 30
0.0
  0
VERTEX
  5
473
  8
1
  6
CONTINUOUS
 62
     7
 10
-331.3064524963023
 20
262.0349093193664
 30
0.0
  0
VERTEX
  5
474
  8
1
  6
CONTINUOUS
 62
     7
 10
-331.4789224158384
 20
262.1277244494299
 30
0.0
  0
VERTEX
  5
475
  8
1
  6
CONTINUOUS
 62
     7
 10
-331.6662574394102
 20
262.1848795786947
 30
0.0
  0
VERTEX
  5
476
  8
1
  6
CONTINUOUS
 62
     7
 10
-331.8612590828943
 20
262.2041784798736
 30
0.0
  0
SEQEND
  5
958
  8
1
  6
CONTINUOUS
 62
     7
  0
LINE
  5
145
  8
1
  6
CONTINUOUS
 62
     7
 10
-284.6713919890302
 20
244.2289911218365
 30
0.0
 11
-292.5713919890302
 21
244.2289911218365
 31
0.0
  0
LINE
  5
146
  8
1
  6
CONTINUOUS
 62
     7
 10
-284.6713919890302
 20
244.2289911218365
 30
0.0
 11
-284.6364845178672
 21
244.1940836506735
 31
0.0
  0
LINE
  5
147
  8
1
  6
CONTINUOUS
 62
     9
 10
-332.8189546269641
 20
230.6814284839026
 30
0.0
 11
-334.8713919890303
 21
230.6814284839026
 31
0.0
  0
LINE
  5
148
  8
1
  6
CONTINUOUS
 62
     7
 10
-330.8713919890303
 20
211.9595351591042
 30
0.0
 11
-330.9325562188871
 21
212.020699388961
 31
0.0
  0
LINE
  5
149
  8
1
  6
CONTINUOUS
 62
     7
 10
-330.8713919890303
 20
211.9595351591042
 30
0.0
 11
-330.8713919890303
 21
239.229105352644
 31
0.0
  0
LINE
  5
14A
  8
1
  6
CONTINUOUS
 62
     7
 10
-330.8713919890303
 20
202.2289911218365
 30
0.0
 11
-330.8713919890303
 21
204.8984470845688
 31
0.0
  0
LINE
  5
14B
  8
1
  6
CONTINUOUS
 62
     7
 10
-330.9325562188871
 20
202.2901553516934
 30
0.0
 11
-330.8713919890303
 21
202.2289911218365
 31
0.0
  0
LINE
  5
14C
  8
1
  6
CONTINUOUS
 62
     7
 10
-330.9325562188871
 20
204.837282854712
 30
0.0
 11
-330.8713919890303
 21
204.8984470845688
 31
0.0
  0
LINE
  5
14D
  8
1
  6
CONTINUOUS
 62
     7
 10
-333.0548192165209
 20
210.6289911218365
 30
0.0
 11
-332.8713942314711
 21
210.6595347856961
 31
0.0
  0
LINE
  5
14E
  8
1
  6
CONTINUOUS
 62
     7
 10
-333.0548192165209
 20
206.2289911218365
 30
0.0
 11
-333.0936616444953
 21
206.3575941784339
 31
0.0
  0
ARC
  5
14F
  8
1
  6
CONTINUOUS
 62
     7
 10
-307.2628407846011
 20
208.3481120416499
 30
0.0
 40
25.90740179291879
 50
175.0020234094645
 51
184.4064927909575
  0
LINE
  5
150
  8
1
  6
CONTINUOUS
 62
     7
 10
-333.0717368168234
 20
210.605179443759
 30
0.0
 11
-333.0548192165209
 21
210.6289911218365
 31
0.0
  0
LINE
  5
151
  8
1
  6
CONTINUOUS
 62
     7
 10
-333.0548192165209
 20
206.2289911218365
 30
0.0
 11
-332.8713942314711
 21
206.1984474579769
 31
0.0
  0
LINE
  5
152
  8
1
  6
CONTINUOUS
 62
     7
 10
-332.923342429967
 20
204.9203404093673
 30
0.0
 11
-332.8713919890303
 21
205.9203023324315
 31
0.0
  0
LINE
  5
153
  8
1
  6
CONTINUOUS
 62
     7
 10
-333.4221310098485
 20
204.837282854712
 30
0.0
 11
-332.923342429967
 21
204.9203404093673
 31
0.0
  0
LINE
  5
154
  8
1
  6
CONTINUOUS
 62
     7
 10
-332.923342429967
 20
211.9376418343057
 30
0.0
 11
-333.4221310098485
 21
212.020699388961
 31
0.0
  0
LINE
  5
155
  8
1
  6
CONTINUOUS
 62
     7
 10
-332.8713919890303
 20
210.9376799112415
 30
0.0
 11
-332.923342429967
 21
211.9376418343057
 31
0.0
  0
LINE
  5
156
  8
1
  6
CONTINUOUS
 62
     7
 10
-340.3102277591734
 20
262.1678268919796
 30
0.0
 11
-340.3713919890303
 21
262.2289911218365
 31
0.0
  0
LINE
  5
157
  8
1
  6
CONTINUOUS
 62
     7
 10
-308.3713919890303
 20
262.2289911218365
 30
0.0
 11
-340.3713919890303
 21
262.2289911218365
 31
0.0
  0
LINE
  5
158
  8
1
  6
CONTINUOUS
 62
     7
 10
-308.3837983100117
 20
262.2041784798736
 30
0.0
 11
-308.3713919890303
 21
262.2289911218365
 31
0.0
  0
LINE
  5
159
  8
1
  6
CONTINUOUS
 62
     7
 10
-331.8612590828943
 20
262.2041784798736
 30
0.0
 11
-308.3837983100117
 21
262.2041784798736
 31
0.0
  0
LINE
  5
15A
  8
1
  6
CONTINUOUS
 62
     9
 10
-284.6451352303364
 20
246.7027343631427
 30
0.0
 11
-283.0976487477241
 21
246.7027343631427
 31
0.0
  0
LINE
  5
15B
  8
1
  6
CONTINUOUS
 62
     7
 10
-284.6364845178672
 20
245.7027724400785
 30
0.0
 11
-284.6451352303364
 21
246.7027343631427
 31
0.0
  0
LINE
  5
15C
  8
1
  6
CONTINUOUS
 62
     9
 10
-334.8713919890303
 20
214.5765537597704
 30
0.0
 11
-332.8189546269641
 21
214.5765537597704
 31
0.0
  0
LINE
  5
15D
  8
1
  6
CONTINUOUS
 62
     7
 10
-243.4151035049604
 20
244.2289911218365
 30
0.0
 11
-283.0713919890302
 21
244.2289911218365
 31
0.0
  0
LINE
  5
15E
  8
1
  6
CONTINUOUS
 62
     7
 10
-241.3974192498509
 20
244.2378713321789
 30
0.0
 11
-243.4151035049604
 21
244.2289911218365
 31
0.0
  0
LINE
  5
15F
  8
1
  6
CONTINUOUS
 62
     7
 10
-241.4152547939487
 20
244.220035788081
 30
0.0
 11
-241.3974192498509
 21
244.2378713321789
 31
0.0
  0
LINE
  5
160
  8
1
  6
CONTINUOUS
 62
     7
 10
-284.6715823990851
 20
246.7291815318914
 30
0.0
 11
-284.6713919890302
 21
244.2289911218365
 31
0.0
  0
LINE
  5
161
  8
1
  6
CONTINUOUS
 62
     7
 10
-284.6715823990851
 20
246.7291815318914
 30
0.0
 11
-284.6451352303364
 21
246.7027343631427
 31
0.0
  0
LINE
  5
162
  8
1
  6
CONTINUOUS
 62
     7
 10
-340.3626651212394
 20
260.2289911218365
 30
0.0
 11
-334.3713919890302
 21
260.2289911218365
 31
0.0
  0
LINE
  5
163
  8
1
  6
CONTINUOUS
 62
     7
 10
-340.3626651212394
 20
260.2289911218365
 30
0.0
 11
-340.3102277591734
 21
260.2814284839026
 31
0.0
  0
LINE
  5
164
  8
1
  6
CONTINUOUS
 62
     7
 10
-330.8932853138287
 20
211.9376418343057
 30
0.0
 11
-330.8713919890303
 21
211.9595351591041
 31
0.0
  0
LINE
  5
165
  8
1
  6
CONTINUOUS
 62
     9
 10
-332.923342429967
 20
211.9376418343057
 30
0.0
 11
-330.8932853138288
 21
211.9376418343057
 31
0.0
  0
LINE
  5
166
  8
1
  6
CONTINUOUS
 62
     9
 10
-330.8932853138287
 20
204.9203404093673
 30
0.0
 11
-331.3692357339015
 21
204.9203404093673
 31
0.0
  0
LINE
  5
167
  8
1
  6
CONTINUOUS
 62
     9
 10
-332.8713942314711
 20
204.9203404093673
 30
0.0
 11
-332.923342429967
 21
204.9203404093673
 31
0.0
  0
LINE
  5
168
  8
1
  6
CONTINUOUS
 62
     7
 10
-330.8713919890303
 20
204.8984470845688
 30
0.0
 11
-330.8932853138287
 21
204.9203404093673
 31
0.0
  0
LINE
  5
169
  8
1
  6
CONTINUOUS
 62
     7
 10
-334.8713919890303
 20
230.6289911218365
 30
0.0
 11
-332.8713919890303
 21
230.6289911218365
 31
0.0
  0
LINE
  5
16A
  8
1
  6
CONTINUOUS
 62
     7
 10
-283.0712015789754
 20
246.7291815318914
 30
0.0
 11
-284.6715823990851
 21
246.7291815318914
 31
0.0
  0
LINE
  5
16B
  8
1
  6
CONTINUOUS
 62
     7
 10
-334.8713919890303
 20
202.2289911218365
 30
0.0
 11
-330.8713919890303
 21
202.2289911218365
 31
0.0
  0
LINE
  5
16C
  8
1
  6
CONTINUOUS
 62
     7
 10
-340.3713919890303
 20
262.2289911218365
 30
0.0
 11
-340.3713919890303
 21
254.5511672709071
 31
0.0
  0
LINE
  5
16D
  8
1
  6
CONTINUOUS
 62
     7
 10
-340.3626651212394
 20
257.3289911218365
 30
0.0
 11
-340.3626651212394
 21
260.2289911218365
 31
0.0
  0
LINE
  5
16E
  8
1
  6
CONTINUOUS
 62
     7
 10
-334.8713919890303
 20
214.6289911218365
 30
0.0
 11
-332.8713919890303
 21
214.6289911218365
 31
0.0
  0
LINE
  5
16F
  8
1
  6
CONTINUOUS
 62
     7
 10
-241.3713919890303
 20
242.2289911218365
 30
0.0
 11
-241.3713919890303
 21
254.2292957373232
 31
0.0
  0
LINE
  5
170
  8
1
  6
CONTINUOUS
 62
     7
 10
-241.3966602451241
 20
254.2040274812293
 30
0.0
 11
-241.3974192498509
 21
244.2378713321789
 31
0.0
  0
LINE
  5
171
  8
1
  6
CONTINUOUS
 62
     9
 10
-241.3713919890303
 20
254.2292957373231
 30
0.0
 11
-241.3966602451241
 21
254.2040274812293
 31
0.0
  0
LINE
  5
172
  8
1
  6
CONTINUOUS
 62
     7
 10
-243.4151035049604
 20
244.2289911218365
 30
0.0
 11
-243.4143431360327
 21
254.2130599905113
 31
0.0
  0
LINE
  5
173
  8
1
  6
CONTINUOUS
 62
     7
 10
-241.3966602451241
 20
254.2040274812293
 30
0.0
 11
-243.4143431360327
 21
254.2130599905113
 31
0.0
  0
LINE
  5
174
  8
1
  6
CONTINUOUS
 62
     7
 10
-288.8453998016928
 20
246.702998934499
 30
0.0
 11
-288.8459322851731
 21
253.6948045501886
 31
0.0
  0
LINE
  5
175
  8
1
  6
CONTINUOUS
 62
     7
 10
-288.8459322851731
 20
253.6948045501886
 30
0.0
 11
-287.8744354385144
 21
253.6948045501886
 31
0.0
  0
LINE
  5
176
  8
1
  6
CONTINUOUS
 62
     7
 10
-287.9184334736908
 20
246.7029989344975
 30
0.0
 11
-287.8744354385145
 21
253.6948045501803
 31
0.0
  0
LINE
  5
177
  8
1
  6
CONTINUOUS
 62
     7
 10
-284.8453998016928
 20
246.702998934499
 30
0.0
 11
-287.9184334736908
 21
246.702998934499
 31
0.0
  0
LINE
  5
178
  8
1
  6
CONTINUOUS
 62
     7
 10
-284.8455527914592
 20
248.7118400490857
 30
0.0
 11
-284.8453998016927
 21
246.702998934499
 31
0.0
  0
LINE
  5
179
  8
1
  6
CONTINUOUS
 62
     9
 10
-282.8972311866012
 20
248.7118400490857
 30
0.0
 11
-284.8455527914593
 21
248.7118400490857
 31
0.0
  0
LINE
  5
17A
  8
1
  6
CONTINUOUS
 62
     7
 10
-282.8973841763677
 20
246.702998934499
 30
0.0
 11
-282.8972311866012
 21
248.7118400490857
 31
0.0
  0
LINE
  5
17B
  8
1
  6
CONTINUOUS
 62
     7
 10
-278.3366729339021
 20
246.702998934499
 30
0.0
 11
-282.8973841763677
 21
246.702998934499
 31
0.0
  0
LINE
  5
17C
  8
1
  6
CONTINUOUS
 62
     7
 10
-278.3366729339021
 20
246.702998934499
 30
0.0
 11
-278.3376294624828
 21
259.262753648384
 31
0.0
  0
LINE
  5
17D
  8
1
  6
CONTINUOUS
 62
     7
 10
-278.3376294624828
 20
259.262753648384
 30
0.0
 11
-279.8376294624828
 21
259.262753648384
 31
0.0
  0
LINE
  5
17E
  8
1
  6
CONTINUOUS
 62
     7
 10
-279.8376294624828
 20
259.262753648384
 30
0.0
 11
-279.8377005009258
 21
260.1955280982469
 31
0.0
  0
LINE
  5
17F
  8
1
  6
CONTINUOUS
 62
     7
 10
-249.3959000155065
 20
260.1955280982469
 30
0.0
 11
-279.8377005009258
 21
260.1955280982469
 31
0.0
  0
ARC
  5
180
  8
1
  6
CONTINUOUS
 62
     7
 10
-249.3959391357169
 20
254.2139320351238
 30
0.0
 40
5.981596063251083
 50
359.9916469658781
 51
89.99962528012121
  0
CIRCLE
  5
181
  8
1
  6
CONTINUOUS
 62
     7
 10
-249.3713919890302
 20
255.2289911218365
 30
0.0
 40
2.649999999999999
  0
CIRCLE
  5
182
  8
1
  6
CONTINUOUS
 62
     7
 10
-266.3713919890303
 20
255.2289911218365
 30
0.0
 40
2.649999999999999
  0
POLYLINE
  5
183
  8
1
  6
CONTINUOUS
 62
     7
 66
     1
 10
0.0
 20
0.0
 30
0.0
  0
VERTEX
  5
477
  8
1
  6
CONTINUOUS
 62
     7
 10
-275.8702497012533
 20
259.2278678725276
 30
0.0
  0
VERTEX
  5
478
  8
1
  6
CONTINUOUS
 62
     7
 10
-275.8696455965197
 20
259.2523995411854
 30
0.0
  0
VERTEX
  5
479
  8
1
  6
CONTINUOUS
 62
     7
 10
-275.8678384741023
 20
259.2768720249171
 30
0.0
  0
VERTEX
  5
47A
  8
1
  6
CONTINUOUS
 62
     7
 10
-275.8648326870953
 20
259.301226373081
 30
0.0
  0
VERTEX
  5
47B
  8
1
  6
CONTINUOUS
 62
     7
 10
-275.8606354760011
 20
259.3254039196067
 30
0.0
  0
VERTEX
  5
47C
  8
1
  6
CONTINUOUS
 62
     7
 10
-275.8552569512884
 20
259.3493464243132
 30
0.0
  0
VERTEX
  5
47D
  8
1
  6
CONTINUOUS
 62
     7
 10
-275.8487100690384
 20
259.372996213201
 30
0.0
  0
VERTEX
  5
47E
  8
1
  6
CONTINUOUS
 62
     7
 10
-275.8410105997351
 20
259.3962963173801
 30
0.0
  0
VERTEX
  5
47F
  8
1
  6
CONTINUOUS
 62
     7
 10
-275.832177090276
 20
259.4191906103001
 30
0.0
  0
VERTEX
  5
480
  8
1
  6
CONTINUOUS
 62
     7
 10
-275.8222308192967
 20
259.4416239429505
 30
0.0
  0
VERTEX
  5
481
  8
1
  6
CONTINUOUS
 62
     7
 10
-275.811195745912
 20
259.463542276707
 30
0.0
  0
VERTEX
  5
482
  8
1
  6
CONTINUOUS
 62
     7
 10
-275.7990984520033
 20
259.4848928135025
 30
0.0
  0
VERTEX
  5
483
  8
1
  6
CONTINUOUS
 62
     7
 10
-275.7859680781861
 20
259.5056241230099
 30
0.0
  0
VERTEX
  5
484
  8
1
  6
CONTINUOUS
 62
     7
 10
-275.7718362536147
 20
259.5256862665299
 30
0.0
  0
VERTEX
  5
485
  8
1
  6
CONTINUOUS
 62
     7
 10
-275.7567370197919
 20
259.545030917287
 30
0.0
  0
VERTEX
  5
486
  8
1
  6
CONTINUOUS
 62
     7
 10
-275.7407067485685
 20
259.5636114768407
 30
0.0
  0
VERTEX
  5
487
  8
1
  6
CONTINUOUS
 62
     7
 10
-275.7237840545283
 20
259.5813831873346
 30
0.0
  0
VERTEX
  5
488
  8
1
  6
CONTINUOUS
 62
     7
 10
-275.7060097019714
 20
259.5983032393119
 30
0.0
  0
VERTEX
  5
489
  8
1
  6
CONTINUOUS
 62
     7
 10
-275.6874265067193
 20
259.6143308748367
 30
0.0
  0
VERTEX
  5
48A
  8
1
  6
CONTINUOUS
 62
     7
 10
-275.668079232977
 20
259.6294274856742
 30
0.0
  0
VERTEX
  5
48B
  8
1
  6
CONTINUOUS
 62
     7
 10
-275.6480144855033
 20
259.6435567062921
 30
0.0
  0
VERTEX
  5
48C
  8
1
  6
CONTINUOUS
 62
     7
 10
-275.6272805973468
 20
259.6566845014601
 30
0.0
  0
VERTEX
  5
48D
  8
1
  6
CONTINUOUS
 62
     7
 10
-275.6059275134181
 20
259.6687792482355
 30
0.0
  0
VERTEX
  5
48E
  8
1
  6
CONTINUOUS
 62
     7
 10
-275.5840066701797
 20
259.6798118121384
 30
0.0
  0
VERTEX
  5
48F
  8
1
  6
CONTINUOUS
 62
     7
 10
-275.561570871744
 20
259.6897556173326
 30
0.0
  0
VERTEX
  5
490
  8
1
  6
CONTINUOUS
 62
     7
 10
-275.5386741626751
 20
259.6985867106425
 30
0.0
  0
VERTEX
  5
491
  8
1
  6
CONTINUOUS
 62
     7
 10
-275.5153716978034
 20
259.7062838192534
 30
0.0
  0
VERTEX
  5
492
  8
1
  6
CONTINUOUS
 62
     7
 10
-275.4917196093661
 20
259.7128284019537
 30
0.0
  0
VERTEX
  5
493
  8
1
  6
CONTINUOUS
 62
     7
 10
-275.4677748717921
 20
259.7182046937989
 30
0.0
  0
VERTEX
  5
494
  8
1
  6
CONTINUOUS
 62
     7
 10
-275.4435951644599
 20
259.7223997440867
 30
0.0
  0
VERTEX
  5
495
  8
1
  6
CONTINUOUS
 62
     7
 10
-275.4192387327554
 20
259.7254034475531
 30
0.0
  0
VERTEX
  5
496
  8
1
  6
CONTINUOUS
 62
     7
 10
-275.394764247768
 20
259.7272085687149
 30
0.0
  0
VERTEX
  5
497
  8
1
  6
CONTINUOUS
 62
     7
 10
-275.3702306649602
 20
259.7278107592985
 30
0.0
  0
SEQEND
  5
959
  8
1
  6
CONTINUOUS
 62
     7
  0
LINE
  5
184
  8
1
  6
CONTINUOUS
 62
     7
 10
-275.8702497012533
 20
259.2278678725276
 30
0.0
 11
-275.8711634984144
 21
247.2292005739844
 31
0.0
  0
POLYLINE
  5
185
  8
1
  6
CONTINUOUS
 62
     7
 66
     1
 10
0.0
 20
0.0
 30
0.0
  0
VERTEX
  5
498
  8
1
  6
CONTINUOUS
 62
     7
 10
-275.3712206174433
 20
246.7291815318914
 30
0.0
  0
VERTEX
  5
499
  8
1
  6
CONTINUOUS
 62
     7
 10
-275.3957541085206
 20
246.7297838142056
 30
0.0
  0
VERTEX
  5
49A
  8
1
  6
CONTINUOUS
 62
     7
 10
-275.4202283185374
 20
246.7315892103379
 30
0.0
  0
VERTEX
  5
49B
  8
1
  6
CONTINUOUS
 62
     7
 10
-275.4445842926936
 20
246.7345933713526
 30
0.0
  0
VERTEX
  5
49C
  8
1
  6
CONTINUOUS
 62
     7
 10
-275.468763361002
 20
246.7387890606641
 30
0.0
  0
VERTEX
  5
49D
  8
1
  6
CONTINUOUS
 62
     7
 10
-275.492707279616
 20
246.7441661714694
 30
0.0
  0
VERTEX
  5
49E
  8
1
  6
CONTINUOUS
 62
     7
 10
-275.5163583711299
 20
246.7507117510933
 30
0.0
  0
VERTEX
  5
49F
  8
1
  6
CONTINUOUS
 62
     7
 10
-275.5396596635161
 20
246.7584100321895
 30
0.0
  0
VERTEX
  5
4A0
  8
1
  6
CONTINUOUS
 62
     7
 10
-275.5625550273618
 20
246.7672424707226
 30
0.0
  0
VERTEX
  5
4A1
  8
1
  6
CONTINUOUS
 62
     7
 10
-275.5849893110771
 20
246.7771877906372
 30
0.0
  0
VERTEX
  5
4A2
  8
1
  6
CONTINUOUS
 62
     7
 10
-275.6069084737465
 20
246.788222035109
 30
0.0
  0
VERTEX
  5
4A3
  8
1
  6
CONTINUOUS
 62
     7
 10
-275.6282597153062
 20
246.8003186242535
 30
0.0
  0
VERTEX
  5
4A4
  8
1
  6
CONTINUOUS
 62
     7
 10
-275.6489916037314
 20
246.8134484191529
 30
0.0
  0
VERTEX
  5
4A5
  8
1
  6
CONTINUOUS
 62
     7
 10
-275.6690541989284
 20
246.8275797920473
 30
0.0
  0
VERTEX
  5
4A6
  8
1
  6
CONTINUOUS
 62
     7
 10
-275.6883991730335
 20
246.8426787025221
 30
0.0
  0
VERTEX
  5
4A7
  8
1
  6
CONTINUOUS
 62
     7
 10
-275.7069799268273
 20
246.8587087795053
 30
0.0
  0
VERTEX
  5
4A8
  8
1
  6
CONTINUOUS
 62
     7
 10
-275.7247517019858
 20
246.875631408881
 30
0.0
  0
VERTEX
  5
4A9
  8
1
  6
CONTINUOUS
 62
     7
 10
-275.7416716888961
 20
246.8934058265048
 30
0.0
  0
VERTEX
  5
4AA
  8
1
  6
CONTINUOUS
 62
     7
 10
-275.7576991297792
 20
246.9119892163987
 30
0.0
  0
VERTEX
  5
4AB
  8
1
  6
CONTINUOUS
 62
     7
 10
-275.7727954168691
 20
246.9313368138886
 30
0.0
  0
VERTEX
  5
4AC
  8
1
  6
CONTINUOUS
 62
     7
 10
-275.7869241854135
 20
246.9514020134358
 30
0.0
  0
VERTEX
  5
4AD
  8
1
  6
CONTINUOUS
 62
     7
 10
-275.8000514012708
 20
246.9721364809029
 30
0.0
  0
VERTEX
  5
4AE
  8
1
  6
CONTINUOUS
 62
     7
 10
-275.812145442894
 20
246.9934902699839
 30
0.0
  0
VERTEX
  5
4AF
  8
1
  6
CONTINUOUS
 62
     7
 10
-275.8231771775018
 20
247.0154119425174
 30
0.0
  0
VERTEX
  5
4B0
  8
1
  6
CONTINUOUS
 62
     7
 10
-275.8331200312555
 20
247.0378486923935
 30
0.0
  0
VERTEX
  5
4B1
  8
1
  6
CONTINUOUS
 62
     7
 10
-275.8419500532717
 20
247.0607464727563
 30
0.0
  0
VERTEX
  5
4B2
  8
1
  6
CONTINUOUS
 62
     7
 10
-275.8496459733157
 20
247.0840501261947
 30
0.0
  0
VERTEX
  5
4B3
  8
1
  6
CONTINUOUS
 62
     7
 10
-275.8561892530396
 20
247.1077035176085
 30
0.0
  0
VERTEX
  5
4B4
  8
1
  6
CONTINUOUS
 62
     7
 10
-275.8615641306373
 20
247.1316496694299
 30
0.0
  0
VERTEX
  5
4B5
  8
1
  6
CONTINUOUS
 62
     7
 10
-275.8657576588133
 20
247.1558308988741
 30
0.0
  0
VERTEX
  5
4B6
  8
1
  6
CONTINUOUS
 62
     7
 10
-275.86875973597
 20
247.1801889568882
 30
0.0
  0
VERTEX
  5
4B7
  8
1
  6
CONTINUOUS
 62
     7
 10
-275.8705631305419
 20
247.2046651684655
 30
0.0
  0
VERTEX
  5
4B8
  8
1
  6
CONTINUOUS
 62
     7
 10
-275.8711634984144
 20
247.2292005739844
 30
0.0
  0
SEQEND
  5
95A
  8
1
  6
CONTINUOUS
 62
     7
  0
LINE
  5
186
  8
1
  6
CONTINUOUS
 62
     7
 10
-275.3712206174433
 20
246.7291815318914
 30
0.0
 11
-244.2215633606172
 21
246.7291815318914
 31
0.0
  0
POLYLINE
  5
187
  8
1
  6
CONTINUOUS
 62
     7
 66
     1
 10
0.0
 20
0.0
 30
0.0
  0
VERTEX
  5
4B9
  8
1
  6
CONTINUOUS
 62
     7
 10
-243.7216204796461
 20
247.2292005739844
 30
0.0
  0
VERTEX
  5
4BA
  8
1
  6
CONTINUOUS
 62
     7
 10
-243.7222208475187
 20
247.2046651684655
 30
0.0
  0
VERTEX
  5
4BB
  8
1
  6
CONTINUOUS
 62
     7
 10
-243.7240242420905
 20
247.1801889568882
 30
0.0
  0
VERTEX
  5
4BC
  8
1
  6
CONTINUOUS
 62
     7
 10
-243.7270263192472
 20
247.1558308988741
 30
0.0
  0
VERTEX
  5
4BD
  8
1
  6
CONTINUOUS
 62
     7
 10
-243.7312198474231
 20
247.1316496694299
 30
0.0
  0
VERTEX
  5
4BE
  8
1
  6
CONTINUOUS
 62
     7
 10
-243.7365947250209
 20
247.1077035176085
 30
0.0
  0
VERTEX
  5
4BF
  8
1
  6
CONTINUOUS
 62
     7
 10
-243.7431380047448
 20
247.0840501261947
 30
0.0
  0
VERTEX
  5
4C0
  8
1
  6
CONTINUOUS
 62
     7
 10
-243.7508339247889
 20
247.0607464727563
 30
0.0
  0
VERTEX
  5
4C1
  8
1
  6
CONTINUOUS
 62
     7
 10
-243.7596639468049
 20
247.0378486923935
 30
0.0
  0
VERTEX
  5
4C2
  8
1
  6
CONTINUOUS
 62
     7
 10
-243.7696068005587
 20
247.0154119425174
 30
0.0
  0
VERTEX
  5
4C3
  8
1
  6
CONTINUOUS
 62
     7
 10
-243.7806385351665
 20
246.9934902699839
 30
0.0
  0
VERTEX
  5
4C4
  8
1
  6
CONTINUOUS
 62
     7
 10
-243.7927325767897
 20
246.9721364809029
 30
0.0
  0
VERTEX
  5
4C5
  8
1
  6
CONTINUOUS
 62
     7
 10
-243.805859792647
 20
246.9514020134358
 30
0.0
  0
VERTEX
  5
4C6
  8
1
  6
CONTINUOUS
 62
     7
 10
-243.8199885611914
 20
246.9313368138886
 30
0.0
  0
VERTEX
  5
4C7
  8
1
  6
CONTINUOUS
 62
     7
 10
-243.8350848482813
 20
246.9119892163987
 30
0.0
  0
VERTEX
  5
4C8
  8
1
  6
CONTINUOUS
 62
     7
 10
-243.8511122891644
 20
246.8934058265048
 30
0.0
  0
VERTEX
  5
4C9
  8
1
  6
CONTINUOUS
 62
     7
 10
-243.8680322760747
 20
246.875631408881
 30
0.0
  0
VERTEX
  5
4CA
  8
1
  6
CONTINUOUS
 62
     7
 10
-243.8858040512331
 20
246.8587087795053
 30
0.0
  0
VERTEX
  5
4CB
  8
1
  6
CONTINUOUS
 62
     7
 10
-243.904384805027
 20
246.8426787025221
 30
0.0
  0
VERTEX
  5
4CC
  8
1
  6
CONTINUOUS
 62
     7
 10
-243.9237297791321
 20
246.8275797920473
 30
0.0
  0
VERTEX
  5
4CD
  8
1
  6
CONTINUOUS
 62
     7
 10
-243.9437923743291
 20
246.8134484191529
 30
0.0
  0
VERTEX
  5
4CE
  8
1
  6
CONTINUOUS
 62
     7
 10
-243.9645242627543
 20
246.8003186242535
 30
0.0
  0
VERTEX
  5
4CF
  8
1
  6
CONTINUOUS
 62
     7
 10
-243.985875504314
 20
246.788222035109
 30
0.0
  0
VERTEX
  5
4D0
  8
1
  6
CONTINUOUS
 62
     7
 10
-244.0077946669834
 20
246.7771877906372
 30
0.0
  0
VERTEX
  5
4D1
  8
1
  6
CONTINUOUS
 62
     7
 10
-244.0302289506987
 20
246.7672424707226
 30
0.0
  0
VERTEX
  5
4D2
  8
1
  6
CONTINUOUS
 62
     7
 10
-244.0531243145444
 20
246.7584100321895
 30
0.0
  0
VERTEX
  5
4D3
  8
1
  6
CONTINUOUS
 62
     7
 10
-244.0764256069307
 20
246.7507117510933
 30
0.0
  0
VERTEX
  5
4D4
  8
1
  6
CONTINUOUS
 62
     7
 10
-244.1000766984446
 20
246.7441661714694
 30
0.0
  0
VERTEX
  5
4D5
  8
1
  6
CONTINUOUS
 62
     7
 10
-244.1240206170585
 20
246.7387890606641
 30
0.0
  0
VERTEX
  5
4D6
  8
1
  6
CONTINUOUS
 62
     7
 10
-244.1481996853669
 20
246.7345933713526
 30
0.0
  0
VERTEX
  5
4D7
  8
1
  6
CONTINUOUS
 62
     7
 10
-244.1725556595231
 20
246.7315892103379
 30
0.0
  0
VERTEX
  5
4D8
  8
1
  6
CONTINUOUS
 62
     7
 10
-244.1970298695399
 20
246.7297838142056
 30
0.0
  0
VERTEX
  5
4D9
  8
1
  6
CONTINUOUS
 62
     7
 10
-244.2215633606172
 20
246.7291815318914
 30
0.0
  0
SEQEND
  5
95B
  8
1
  6
CONTINUOUS
 62
     7
  0
LINE
  5
188
  8
1
  6
CONTINUOUS
 62
     7
 10
-243.7216204796461
 20
247.2292005739844
 30
0.0
 11
-243.721973576028
 21
251.8655533571715
 31
0.0
  0
POLYLINE
  5
189
  8
1
  6
CONTINUOUS
 62
     7
 66
     1
 10
0.0
 20
0.0
 30
0.0
  0
VERTEX
  5
4DA
  8
1
  6
CONTINUOUS
 62
     7
 10
-244.6405714667528
 20
252.1389029801578
 30
0.0
  0
VERTEX
  5
4DB
  8
1
  6
CONTINUOUS
 62
     7
 10
-244.6269384175453
 20
252.1586942359407
 30
0.0
  0
VERTEX
  5
4DC
  8
1
  6
CONTINUOUS
 62
     7
 10
-244.6123196217039
 20
252.1778563072107
 30
0.0
  0
VERTEX
  5
4DD
  8
1
  6
CONTINUOUS
 62
     7
 10
-244.5967717366103
 20
252.1963280134712
 30
0.0
  0
VERTEX
  5
4DE
  8
1
  6
CONTINUOUS
 62
     7
 10
-244.5803514196467
 20
252.2140481742258
 30
0.0
  0
VERTEX
  5
4DF
  8
1
  6
CONTINUOUS
 62
     7
 10
-244.563115328195
 20
252.2309556089779
 30
0.0
  0
VERTEX
  5
4E0
  8
1
  6
CONTINUOUS
 62
     7
 10
-244.5451201196371
 20
252.246989137231
 30
0.0
  0
VERTEX
  5
4E1
  8
1
  6
CONTINUOUS
 62
     7
 10
-244.5264224513551
 20
252.2620875784886
 30
0.0
  0
VERTEX
  5
4E2
  8
1
  6
CONTINUOUS
 62
     7
 10
-244.5070067110478
 20
252.2762510921882
 30
0.0
  0
VERTEX
  5
4E3
  8
1
  6
CONTINUOUS
 62
     7
 10
-244.4868688974282
 20
252.2894944503387
 30
0.0
  0
VERTEX
  5
4E4
  8
1
  6
CONTINUOUS
 62
     7
 10
-244.4660827523253
 20
252.3017786462541
 30
0.0
  0
VERTEX
  5
4E5
  8
1
  6
CONTINUOUS
 62
     7
 10
-244.4447220175682
 20
252.3130646732485
 30
0.0
  0
VERTEX
  5
4E6
  8
1
  6
CONTINUOUS
 62
     7
 10
-244.4228604349858
 20
252.3233135246359
 30
0.0
  0
VERTEX
  5
4E7
  8
1
  6
CONTINUOUS
 62
     7
 10
-244.4005717464073
 20
252.3324861937302
 30
0.0
  0
VERTEX
  5
4E8
  8
1
  6
CONTINUOUS
 62
     7
 10
-244.3779296936616
 20
252.3405436738456
 30
0.0
  0
VERTEX
  5
4E9
  8
1
  6
CONTINUOUS
 62
     7
 10
-244.3549231988803
 20
252.3474799123059
 30
0.0
  0
VERTEX
  5
4EA
  8
1
  6
CONTINUOUS
 62
     7
 10
-244.331540005869
 20
252.3533089052666
 30
0.0
  0
VERTEX
  5
4EB
  8
1
  6
CONTINUOUS
 62
     7
 10
-244.3078626147073
 20
252.358018262043
 30
0.0
  0
VERTEX
  5
4EC
  8
1
  6
CONTINUOUS
 62
     7
 10
-244.283973525475
 20
252.3615955919505
 30
0.0
  0
VERTEX
  5
4ED
  8
1
  6
CONTINUOUS
 62
     7
 10
-244.2599552382516
 20
252.3640285043045
 30
0.0
  0
VERTEX
  5
4EE
  8
1
  6
CONTINUOUS
 62
     7
 10
-244.2358902531169
 20
252.3653046084206
 30
0.0
  0
VERTEX
  5
4EF
  8
1
  6
CONTINUOUS
 62
     7
 10
-244.2118610701505
 20
252.3654115136141
 30
0.0
  0
VERTEX
  5
4F0
  8
1
  6
CONTINUOUS
 62
     7
 10
-244.1878613936496
 20
252.364340001831
 30
0.0
  0
VERTEX
  5
4F1
  8
1
  6
CONTINUOUS
 62
     7
 10
-244.1638728777529
 20
252.3620993038857
 30
0.0
  0
VERTEX
  5
4F2
  8
1
  6
CONTINUOUS
 62
     7
 10
-244.1399774363055
 20
252.3587050537431
 30
0.0
  0
VERTEX
  5
4F3
  8
1
  6
CONTINUOUS
 62
     7
 10
-244.1162569831529
 20
252.3541728853683
 30
0.0
  0
VERTEX
  5
4F4
  8
1
  6
CONTINUOUS
 62
     7
 10
-244.0927934321403
 20
252.348518432726
 30
0.0
  0
VERTEX
  5
4F5
  8
1
  6
CONTINUOUS
 62
     7
 10
-244.0696686971128
 20
252.3417573297813
 30
0.0
  0
VERTEX
  5
4F6
  8
1
  6
CONTINUOUS
 62
     7
 10
-244.0469646919158
 20
252.3339052104992
 30
0.0
  0
VERTEX
  5
4F7
  8
1
  6
CONTINUOUS
 62
     7
 10
-244.0246769633651
 20
252.3249506536761
 30
0.0
  0
VERTEX
  5
4F8
  8
1
  6
CONTINUOUS
 62
     7
 10
-244.0027867582584
 20
252.3148968390971
 30
0.0
  0
VERTEX
  5
4F9
  8
1
  6
CONTINUOUS
 62
     7
 10
-243.981366148254
 20
252.3037856383784
 30
0.0
  0
VERTEX
  5
4FA
  8
1
  6
CONTINUOUS
 62
     7
 10
-243.9604872050102
 20
252.2916589231364
 30
0.0
  0
VERTEX
  5
4FB
  8
1
  6
CONTINUOUS
 62
     7
 10
-243.9402220001855
 20
252.2785585649874
 30
0.0
  0
VERTEX
  5
4FC
  8
1
  6
CONTINUOUS
 62
     7
 10
-243.9206426054382
 20
252.2645264355477
 30
0.0
  0
VERTEX
  5
4FD
  8
1
  6
CONTINUOUS
 62
     7
 10
-243.9018210924265
 20
252.2496044064338
 30
0.0
  0
VERTEX
  5
4FE
  8
1
  6
CONTINUOUS
 62
     7
 10
-243.8837544321112
 20
252.2337778775103
 30
0.0
  0
VERTEX
  5
4FF
  8
1
  6
CONTINUOUS
 62
     7
 10
-243.8664266701248
 20
252.2170457782825
 30
0.0
  0
VERTEX
  5
500
  8
1
  6
CONTINUOUS
 62
     7
 10
-243.8498919200746
 20
252.1994714667732
 30
0.0
  0
VERTEX
  5
501
  8
1
  6
CONTINUOUS
 62
     7
 10
-243.8342042955679
 20
252.1811183010053
 30
0.0
  0
VERTEX
  5
502
  8
1
  6
CONTINUOUS
 62
     7
 10
-243.8194179102122
 20
252.1620496390016
 30
0.0
  0
VERTEX
  5
503
  8
1
  6
CONTINUOUS
 62
     7
 10
-243.8055868776148
 20
252.1423288387852
 30
0.0
  0
VERTEX
  5
504
  8
1
  6
CONTINUOUS
 62
     7
 10
-243.7927653113831
 20
252.1220192583789
 30
0.0
  0
VERTEX
  5
505
  8
1
  6
CONTINUOUS
 62
     7
 10
-243.78095337969
 20
252.1011027857883
 30
0.0
  0
VERTEX
  5
506
  8
1
  6
CONTINUOUS
 62
     7
 10
-243.7701384732189
 20
252.0795762901551
 30
0.0
  0
VERTEX
  5
507
  8
1
  6
CONTINUOUS
 62
     7
 10
-243.7603506776105
 20
252.0575174647738
 30
0.0
  0
VERTEX
  5
508
  8
1
  6
CONTINUOUS
 62
     7
 10
-243.7516200785052
 20
252.0350040029391
 30
0.0
  0
VERTEX
  5
509
  8
1
  6
CONTINUOUS
 62
     7
 10
-243.7439767615437
 20
252.0121135979455
 30
0.0
  0
VERTEX
  5
50A
  8
1
  6
CONTINUOUS
 62
     7
 10
-243.7374508123665
 20
251.9889239430877
 30
0.0
  0
VERTEX
  5
50B
  8
1
  6
CONTINUOUS
 62
     7
 10
-243.7320723166144
 20
251.9655127316605
 30
0.0
  0
VERTEX
  5
50C
  8
1
  6
CONTINUOUS
 62
     7
 10
-243.7276698555288
 20
251.9407604584547
 30
0.0
  0
VERTEX
  5
50D
  8
1
  6
CONTINUOUS
 62
     7
 10
-243.7245128880607
 20
251.9157866177876
 30
0.0
  0
VERTEX
  5
50E
  8
1
  6
CONTINUOUS
 62
     7
 10
-243.7226109497229
 20
251.8906859904347
 30
0.0
  0
VERTEX
  5
50F
  8
1
  6
CONTINUOUS
 62
     7
 10
-243.721973576028
 20
251.8655533571716
 30
0.0
  0
SEQEND
  5
95C
  8
1
  6
CONTINUOUS
 62
     7
  0
ARC
  5
18A
  8
1
  6
CONTINUOUS
 62
     7
 10
-249.3713919890302
 20
255.2294214795909
 30
0.0
 40
5.650837773211095
 50
180.0043635446805
 51
326.8444888491164
  0
LINE
  5
18B
  8
1
  6
CONTINUOUS
 62
     7
 10
-255.0222297294661
 20
255.2289911218365
 30
0.0
 11
-255.0225342768072
 21
259.2278678725276
 31
0.0
  0
POLYLINE
  5
18C
  8
1
  6
CONTINUOUS
 62
     7
 66
     1
 10
0.0
 20
0.0
 30
0.0
  0
VERTEX
  5
510
  8
1
  6
CONTINUOUS
 62
     7
 10
-255.5225533131003
 20
259.7278107592985
 30
0.0
  0
VERTEX
  5
511
  8
1
  6
CONTINUOUS
 62
     7
 10
-255.4980197302924
 20
259.7272085687149
 30
0.0
  0
VERTEX
  5
512
  8
1
  6
CONTINUOUS
 62
     7
 10
-255.4735452453051
 20
259.7254034475531
 30
0.0
  0
VERTEX
  5
513
  8
1
  6
CONTINUOUS
 62
     7
 10
-255.4491888136006
 20
259.7223997440867
 30
0.0
  0
VERTEX
  5
514
  8
1
  6
CONTINUOUS
 62
     7
 10
-255.4250091062684
 20
259.7182046937989
 30
0.0
  0
VERTEX
  5
515
  8
1
  6
CONTINUOUS
 62
     7
 10
-255.4010643686945
 20
259.7128284019537
 30
0.0
  0
VERTEX
  5
516
  8
1
  6
CONTINUOUS
 62
     7
 10
-255.3774122802571
 20
259.7062838192534
 30
0.0
  0
VERTEX
  5
517
  8
1
  6
CONTINUOUS
 62
     7
 10
-255.3541098153854
 20
259.6985867106425
 30
0.0
  0
VERTEX
  5
518
  8
1
  6
CONTINUOUS
 62
     7
 10
-255.3312131063165
 20
259.6897556173326
 30
0.0
  0
VERTEX
  5
519
  8
1
  6
CONTINUOUS
 62
     7
 10
-255.3087773078807
 20
259.6798118121384
 30
0.0
  0
VERTEX
  5
51A
  8
1
  6
CONTINUOUS
 62
     7
 10
-255.2868564646424
 20
259.6687792482355
 30
0.0
  0
VERTEX
  5
51B
  8
1
  6
CONTINUOUS
 62
     7
 10
-255.2655033807136
 20
259.6566845014601
 30
0.0
  0
VERTEX
  5
51C
  8
1
  6
CONTINUOUS
 62
     7
 10
-255.2447694925571
 20
259.6435567062921
 30
0.0
  0
VERTEX
  5
51D
  8
1
  6
CONTINUOUS
 62
     7
 10
-255.2247047450836
 20
259.6294274856742
 30
0.0
  0
VERTEX
  5
51E
  8
1
  6
CONTINUOUS
 62
     7
 10
-255.2053574713413
 20
259.6143308748366
 30
0.0
  0
VERTEX
  5
51F
  8
1
  6
CONTINUOUS
 62
     7
 10
-255.186774276089
 20
259.5983032393119
 30
0.0
  0
VERTEX
  5
520
  8
1
  6
CONTINUOUS
 62
     7
 10
-255.1689999235322
 20
259.5813831873346
 30
0.0
  0
VERTEX
  5
521
  8
1
  6
CONTINUOUS
 62
     7
 10
-255.152077229492
 20
259.5636114768407
 30
0.0
  0
VERTEX
  5
522
  8
1
  6
CONTINUOUS
 62
     7
 10
-255.1360469582686
 20
259.545030917287
 30
0.0
  0
VERTEX
  5
523
  8
1
  6
CONTINUOUS
 62
     7
 10
-255.1209477244458
 20
259.5256862665299
 30
0.0
  0
VERTEX
  5
524
  8
1
  6
CONTINUOUS
 62
     7
 10
-255.1068158998744
 20
259.5056241230099
 30
0.0
  0
VERTEX
  5
525
  8
1
  6
CONTINUOUS
 62
     7
 10
-255.0936855260572
 20
259.4848928135025
 30
0.0
  0
VERTEX
  5
526
  8
1
  6
CONTINUOUS
 62
     7
 10
-255.0815882321485
 20
259.463542276707
 30
0.0
  0
VERTEX
  5
527
  8
1
  6
CONTINUOUS
 62
     7
 10
-255.0705531587639
 20
259.4416239429505
 30
0.0
  0
VERTEX
  5
528
  8
1
  6
CONTINUOUS
 62
     7
 10
-255.0606068877844
 20
259.4191906103001
 30
0.0
  0
VERTEX
  5
529
  8
1
  6
CONTINUOUS
 62
     7
 10
-255.0517733783255
 20
259.3962963173801
 30
0.0
  0
VERTEX
  5
52A
  8
1
  6
CONTINUOUS
 62
     7
 10
-255.0440739090221
 20
259.372996213201
 30
0.0
  0
VERTEX
  5
52B
  8
1
  6
CONTINUOUS
 62
     7
 10
-255.0375270267722
 20
259.3493464243132
 30
0.0
  0
VERTEX
  5
52C
  8
1
  6
CONTINUOUS
 62
     7
 10
-255.0321485020595
 20
259.3254039196067
 30
0.0
  0
VERTEX
  5
52D
  8
1
  6
CONTINUOUS
 62
     7
 10
-255.0279512909652
 20
259.301226373081
 30
0.0
  0
VERTEX
  5
52E
  8
1
  6
CONTINUOUS
 62
     7
 10
-255.0249455039582
 20
259.2768720249171
 30
0.0
  0
VERTEX
  5
52F
  8
1
  6
CONTINUOUS
 62
     7
 10
-255.0231383815408
 20
259.2523995411854
 30
0.0
  0
VERTEX
  5
530
  8
1
  6
CONTINUOUS
 62
     7
 10
-255.0225342768072
 20
259.2278678725276
 30
0.0
  0
SEQEND
  5
95D
  8
1
  6
CONTINUOUS
 62
     7
  0
LINE
  5
18D
  8
1
  6
CONTINUOUS
 62
     7
 10
-255.5225533131003
 20
259.7278107592985
 30
0.0
 11
-260.2202306649602
 21
259.7278107592985
 31
0.0
  0
POLYLINE
  5
18E
  8
1
  6
CONTINUOUS
 62
     7
 66
     1
 10
0.0
 20
0.0
 30
0.0
  0
VERTEX
  5
531
  8
1
  6
CONTINUOUS
 62
     7
 10
-260.7202497012534
 20
259.2278678725276
 30
0.0
  0
VERTEX
  5
532
  8
1
  6
CONTINUOUS
 62
     7
 10
-260.7196455965197
 20
259.2523995411854
 30
0.0
  0
VERTEX
  5
533
  8
1
  6
CONTINUOUS
 62
     7
 10
-260.7178384741023
 20
259.2768720249171
 30
0.0
  0
VERTEX
  5
534
  8
1
  6
CONTINUOUS
 62
     7
 10
-260.7148326870953
 20
259.301226373081
 30
0.0
  0
VERTEX
  5
535
  8
1
  6
CONTINUOUS
 62
     7
 10
-260.710635476001
 20
259.3254039196067
 30
0.0
  0
VERTEX
  5
536
  8
1
  6
CONTINUOUS
 62
     7
 10
-260.7052569512884
 20
259.3493464243132
 30
0.0
  0
VERTEX
  5
537
  8
1
  6
CONTINUOUS
 62
     7
 10
-260.6987100690384
 20
259.372996213201
 30
0.0
  0
VERTEX
  5
538
  8
1
  6
CONTINUOUS
 62
     7
 10
-260.691010599735
 20
259.3962963173801
 30
0.0
  0
VERTEX
  5
539
  8
1
  6
CONTINUOUS
 62
     7
 10
-260.6821770902761
 20
259.4191906103001
 30
0.0
  0
VERTEX
  5
53A
  8
1
  6
CONTINUOUS
 62
     7
 10
-260.6722308192967
 20
259.4416239429505
 30
0.0
  0
VERTEX
  5
53B
  8
1
  6
CONTINUOUS
 62
     7
 10
-260.6611957459119
 20
259.463542276707
 30
0.0
  0
VERTEX
  5
53C
  8
1
  6
CONTINUOUS
 62
     7
 10
-260.6490984520033
 20
259.4848928135025
 30
0.0
  0
VERTEX
  5
53D
  8
1
  6
CONTINUOUS
 62
     7
 10
-260.6359680781861
 20
259.5056241230099
 30
0.0
  0
VERTEX
  5
53E
  8
1
  6
CONTINUOUS
 62
     7
 10
-260.6218362536147
 20
259.5256862665299
 30
0.0
  0
VERTEX
  5
53F
  8
1
  6
CONTINUOUS
 62
     7
 10
-260.606737019792
 20
259.545030917287
 30
0.0
  0
VERTEX
  5
540
  8
1
  6
CONTINUOUS
 62
     7
 10
-260.5907067485686
 20
259.5636114768407
 30
0.0
  0
VERTEX
  5
541
  8
1
  6
CONTINUOUS
 62
     7
 10
-260.5737840545283
 20
259.5813831873346
 30
0.0
  0
VERTEX
  5
542
  8
1
  6
CONTINUOUS
 62
     7
 10
-260.5560097019714
 20
259.5983032393119
 30
0.0
  0
VERTEX
  5
543
  8
1
  6
CONTINUOUS
 62
     7
 10
-260.5374265067193
 20
259.6143308748367
 30
0.0
  0
VERTEX
  5
544
  8
1
  6
CONTINUOUS
 62
     7
 10
-260.518079232977
 20
259.6294274856742
 30
0.0
  0
VERTEX
  5
545
  8
1
  6
CONTINUOUS
 62
     7
 10
-260.4980144855033
 20
259.6435567062921
 30
0.0
  0
VERTEX
  5
546
  8
1
  6
CONTINUOUS
 62
     7
 10
-260.4772805973469
 20
259.6566845014601
 30
0.0
  0
VERTEX
  5
547
  8
1
  6
CONTINUOUS
 62
     7
 10
-260.455927513418
 20
259.6687792482355
 30
0.0
  0
VERTEX
  5
548
  8
1
  6
CONTINUOUS
 62
     7
 10
-260.4340066701797
 20
259.6798118121384
 30
0.0
  0
VERTEX
  5
549
  8
1
  6
CONTINUOUS
 62
     7
 10
-260.4115708717441
 20
259.6897556173326
 30
0.0
  0
VERTEX
  5
54A
  8
1
  6
CONTINUOUS
 62
     7
 10
-260.3886741626752
 20
259.6985867106425
 30
0.0
  0
VERTEX
  5
54B
  8
1
  6
CONTINUOUS
 62
     7
 10
-260.3653716978035
 20
259.7062838192534
 30
0.0
  0
VERTEX
  5
54C
  8
1
  6
CONTINUOUS
 62
     7
 10
-260.3417196093661
 20
259.7128284019537
 30
0.0
  0
VERTEX
  5
54D
  8
1
  6
CONTINUOUS
 62
     7
 10
-260.3177748717922
 20
259.7182046937989
 30
0.0
  0
VERTEX
  5
54E
  8
1
  6
CONTINUOUS
 62
     7
 10
-260.2935951644599
 20
259.7223997440867
 30
0.0
  0
VERTEX
  5
54F
  8
1
  6
CONTINUOUS
 62
     7
 10
-260.2692387327554
 20
259.7254034475531
 30
0.0
  0
VERTEX
  5
550
  8
1
  6
CONTINUOUS
 62
     7
 10
-260.244764247768
 20
259.7272085687149
 30
0.0
  0
VERTEX
  5
551
  8
1
  6
CONTINUOUS
 62
     7
 10
-260.2202306649602
 20
259.7278107592985
 30
0.0
  0
SEQEND
  5
95E
  8
1
  6
CONTINUOUS
 62
     7
  0
LINE
  5
18F
  8
1
  6
CONTINUOUS
 62
     7
 10
-260.7202497012534
 20
259.2278678725276
 30
0.0
 11
-260.7205542485944
 21
255.2289911218365
 31
0.0
  0
ARC
  5
190
  8
1
  6
CONTINUOUS
 62
     7
 10
-266.3713919890303
 20
255.2294214795909
 30
0.0
 40
5.650837773211095
 50
180.0043635446805
 51
359.9956364553195
  0
LINE
  5
191
  8
1
  6
CONTINUOUS
 62
     7
 10
-272.0222297294661
 20
255.2289911218365
 30
0.0
 11
-272.0225342768071
 21
259.2278678725276
 31
0.0
  0
POLYLINE
  5
192
  8
1
  6
CONTINUOUS
 62
     7
 66
     1
 10
0.0
 20
0.0
 30
0.0
  0
VERTEX
  5
552
  8
1
  6
CONTINUOUS
 62
     7
 10
-272.5225533131003
 20
259.7278107592985
 30
0.0
  0
VERTEX
  5
553
  8
1
  6
CONTINUOUS
 62
     7
 10
-272.4980197302925
 20
259.7272085687149
 30
0.0
  0
VERTEX
  5
554
  8
1
  6
CONTINUOUS
 62
     7
 10
-272.4735452453051
 20
259.7254034475531
 30
0.0
  0
VERTEX
  5
555
  8
1
  6
CONTINUOUS
 62
     7
 10
-272.4491888136006
 20
259.7223997440867
 30
0.0
  0
VERTEX
  5
556
  8
1
  6
CONTINUOUS
 62
     7
 10
-272.4250091062684
 20
259.7182046937989
 30
0.0
  0
VERTEX
  5
557
  8
1
  6
CONTINUOUS
 62
     7
 10
-272.4010643686944
 20
259.7128284019537
 30
0.0
  0
VERTEX
  5
558
  8
1
  6
CONTINUOUS
 62
     7
 10
-272.377412280257
 20
259.7062838192534
 30
0.0
  0
VERTEX
  5
559
  8
1
  6
CONTINUOUS
 62
     7
 10
-272.3541098153854
 20
259.6985867106425
 30
0.0
  0
VERTEX
  5
55A
  8
1
  6
CONTINUOUS
 62
     7
 10
-272.3312131063164
 20
259.6897556173326
 30
0.0
  0
VERTEX
  5
55B
  8
1
  6
CONTINUOUS
 62
     7
 10
-272.3087773078807
 20
259.6798118121384
 30
0.0
  0
VERTEX
  5
55C
  8
1
  6
CONTINUOUS
 62
     7
 10
-272.2868564646424
 20
259.6687792482355
 30
0.0
  0
VERTEX
  5
55D
  8
1
  6
CONTINUOUS
 62
     7
 10
-272.2655033807137
 20
259.6566845014601
 30
0.0
  0
VERTEX
  5
55E
  8
1
  6
CONTINUOUS
 62
     7
 10
-272.2447694925571
 20
259.6435567062921
 30
0.0
  0
VERTEX
  5
55F
  8
1
  6
CONTINUOUS
 62
     7
 10
-272.2247047450836
 20
259.6294274856742
 30
0.0
  0
VERTEX
  5
560
  8
1
  6
CONTINUOUS
 62
     7
 10
-272.2053574713412
 20
259.6143308748366
 30
0.0
  0
VERTEX
  5
561
  8
1
  6
CONTINUOUS
 62
     7
 10
-272.1867742760891
 20
259.5983032393119
 30
0.0
  0
VERTEX
  5
562
  8
1
  6
CONTINUOUS
 62
     7
 10
-272.1689999235322
 20
259.5813831873346
 30
0.0
  0
VERTEX
  5
563
  8
1
  6
CONTINUOUS
 62
     7
 10
-272.152077229492
 20
259.5636114768407
 30
0.0
  0
VERTEX
  5
564
  8
1
  6
CONTINUOUS
 62
     7
 10
-272.1360469582685
 20
259.545030917287
 30
0.0
  0
VERTEX
  5
565
  8
1
  6
CONTINUOUS
 62
     7
 10
-272.1209477244458
 20
259.5256862665299
 30
0.0
  0
VERTEX
  5
566
  8
1
  6
CONTINUOUS
 62
     7
 10
-272.1068158998744
 20
259.5056241230099
 30
0.0
  0
VERTEX
  5
567
  8
1
  6
CONTINUOUS
 62
     7
 10
-272.0936855260572
 20
259.4848928135025
 30
0.0
  0
VERTEX
  5
568
  8
1
  6
CONTINUOUS
 62
     7
 10
-272.0815882321485
 20
259.463542276707
 30
0.0
  0
VERTEX
  5
569
  8
1
  6
CONTINUOUS
 62
     7
 10
-272.0705531587638
 20
259.4416239429505
 30
0.0
  0
VERTEX
  5
56A
  8
1
  6
CONTINUOUS
 62
     7
 10
-272.0606068877844
 20
259.4191906103001
 30
0.0
  0
VERTEX
  5
56B
  8
1
  6
CONTINUOUS
 62
     7
 10
-272.0517733783255
 20
259.3962963173801
 30
0.0
  0
VERTEX
  5
56C
  8
1
  6
CONTINUOUS
 62
     7
 10
-272.0440739090221
 20
259.372996213201
 30
0.0
  0
VERTEX
  5
56D
  8
1
  6
CONTINUOUS
 62
     7
 10
-272.0375270267721
 20
259.3493464243132
 30
0.0
  0
VERTEX
  5
56E
  8
1
  6
CONTINUOUS
 62
     7
 10
-272.0321485020595
 20
259.3254039196067
 30
0.0
  0
VERTEX
  5
56F
  8
1
  6
CONTINUOUS
 62
     7
 10
-272.0279512909652
 20
259.301226373081
 30
0.0
  0
VERTEX
  5
570
  8
1
  6
CONTINUOUS
 62
     7
 10
-272.0249455039582
 20
259.2768720249171
 30
0.0
  0
VERTEX
  5
571
  8
1
  6
CONTINUOUS
 62
     7
 10
-272.0231383815408
 20
259.2523995411854
 30
0.0
  0
VERTEX
  5
572
  8
1
  6
CONTINUOUS
 62
     7
 10
-272.0225342768072
 20
259.2278678725276
 30
0.0
  0
SEQEND
  5
95F
  8
1
  6
CONTINUOUS
 62
     7
  0
LINE
  5
193
  8
1
  6
CONTINUOUS
 62
     7
 10
-272.5225533131003
 20
259.7278107592985
 30
0.0
 11
-275.3702306649602
 21
259.7278107592985
 31
0.0
  0
ARC
  5
194
  8
1
  6
CONTINUOUS
 62
     7
 10
-249.3961694509427
 20
254.204669252849
 30
0.0
 40
7.999509231562124
 50
359.9954033673578
 51
89.99807019244567
  0
LINE
  5
195
  8
1
  6
CONTINUOUS
 62
     7
 10
-249.3959000155065
 20
262.2041784798736
 30
0.0
 11
-249.3959000155065
 21
260.1955280982469
 31
0.0
  0
LINE
  5
196
  8
1
  6
CONTINUOUS
 62
     7
 10
-306.9051545155777
 20
259.262753648384
 30
0.0
 11
-308.4051545155777
 21
259.262753648384
 31
0.0
  0
LINE
  5
197
  8
1
  6
CONTINUOUS
 62
     7
 10
-308.4051545155777
 20
259.262753648384
 30
0.0
 11
-308.4061110441584
 21
246.702998934499
 31
0.0
  0
LINE
  5
198
  8
1
  6
CONTINUOUS
 62
     7
 10
-303.8453998016928
 20
246.702998934499
 30
0.0
 11
-308.4061110441584
 21
246.702998934499
 31
0.0
  0
LINE
  5
199
  8
1
  6
CONTINUOUS
 62
     7
 10
-303.8455527914592
 20
248.7118400490857
 30
0.0
 11
-303.8453998016928
 21
246.702998934499
 31
0.0
  0
LINE
  5
19A
  8
1
  6
CONTINUOUS
 62
     9
 10
-301.8972311866013
 20
248.7118400490857
 30
0.0
 11
-303.8455527914592
 21
248.7118400490857
 31
0.0
  0
LINE
  5
19B
  8
1
  6
CONTINUOUS
 62
     7
 10
-301.8973841763677
 20
246.702998934499
 30
0.0
 11
-301.8972311866012
 21
248.7118400490857
 31
0.0
  0
LINE
  5
19C
  8
1
  6
CONTINUOUS
 62
     7
 10
-298.8243505043696
 20
246.702998934499
 30
0.0
 11
-301.8973841763677
 21
246.702998934499
 31
0.0
  0
LINE
  5
19D
  8
1
  6
CONTINUOUS
 62
     7
 10
-298.868348539546
 20
253.6948045501866
 30
0.0
 11
-298.8243505043697
 21
246.7029989345037
 31
0.0
  0
LINE
  5
19E
  8
1
  6
CONTINUOUS
 62
     7
 10
-298.868348539546
 20
253.6948045501886
 30
0.0
 11
-297.8968516928874
 21
253.6948045501886
 31
0.0
  0
LINE
  5
19F
  8
1
  6
CONTINUOUS
 62
     7
 10
-297.8968516928874
 20
253.6948045501886
 30
0.0
 11
-297.8973841763677
 21
246.702998934499
 31
0.0
  0
LINE
  5
1A0
  8
1
  6
CONTINUOUS
 62
     7
 10
-306.9050834771346
 20
260.1955280982469
 30
0.0
 11
-330.8701760059716
 21
260.1955280982469
 31
0.0
  0
LINE
  5
1A1
  8
1
  6
CONTINUOUS
 62
     7
 10
-306.9050834771346
 20
260.1955280982469
 30
0.0
 11
-306.9051545155777
 21
259.262753648384
 31
0.0
  0
POLYLINE
  5
1A2
  8
1
  6
CONTINUOUS
 62
     7
 66
     1
 10
0.0
 20
0.0
 30
0.0
  0
VERTEX
  5
573
  8
1
  6
CONTINUOUS
 62
     7
 10
-311.3725533131003
 20
259.7278107592985
 30
0.0
  0
VERTEX
  5
574
  8
1
  6
CONTINUOUS
 62
     7
 10
-311.3480197302924
 20
259.7272085687149
 30
0.0
  0
VERTEX
  5
575
  8
1
  6
CONTINUOUS
 62
     7
 10
-311.3235452453051
 20
259.7254034475531
 30
0.0
  0
VERTEX
  5
576
  8
1
  6
CONTINUOUS
 62
     7
 10
-311.2991888136006
 20
259.7223997440867
 30
0.0
  0
VERTEX
  5
577
  8
1
  6
CONTINUOUS
 62
     7
 10
-311.2750091062684
 20
259.7182046937989
 30
0.0
  0
VERTEX
  5
578
  8
1
  6
CONTINUOUS
 62
     7
 10
-311.2510643686944
 20
259.7128284019537
 30
0.0
  0
VERTEX
  5
579
  8
1
  6
CONTINUOUS
 62
     7
 10
-311.2274122802571
 20
259.7062838192534
 30
0.0
  0
VERTEX
  5
57A
  8
1
  6
CONTINUOUS
 62
     7
 10
-311.2041098153854
 20
259.6985867106425
 30
0.0
  0
VERTEX
  5
57B
  8
1
  6
CONTINUOUS
 62
     7
 10
-311.1812131063164
 20
259.6897556173326
 30
0.0
  0
VERTEX
  5
57C
  8
1
  6
CONTINUOUS
 62
     7
 10
-311.1587773078808
 20
259.6798118121384
 30
0.0
  0
VERTEX
  5
57D
  8
1
  6
CONTINUOUS
 62
     7
 10
-311.1368564646424
 20
259.6687792482355
 30
0.0
  0
VERTEX
  5
57E
  8
1
  6
CONTINUOUS
 62
     7
 10
-311.1155033807136
 20
259.6566845014601
 30
0.0
  0
VERTEX
  5
57F
  8
1
  6
CONTINUOUS
 62
     7
 10
-311.0947694925571
 20
259.6435567062921
 30
0.0
  0
VERTEX
  5
580
  8
1
  6
CONTINUOUS
 62
     7
 10
-311.0747047450835
 20
259.6294274856742
 30
0.0
  0
VERTEX
  5
581
  8
1
  6
CONTINUOUS
 62
     7
 10
-311.0553574713413
 20
259.6143308748366
 30
0.0
  0
VERTEX
  5
582
  8
1
  6
CONTINUOUS
 62
     7
 10
-311.036774276089
 20
259.5983032393119
 30
0.0
  0
VERTEX
  5
583
  8
1
  6
CONTINUOUS
 62
     7
 10
-311.0189999235322
 20
259.5813831873346
 30
0.0
  0
VERTEX
  5
584
  8
1
  6
CONTINUOUS
 62
     7
 10
-311.002077229492
 20
259.5636114768407
 30
0.0
  0
VERTEX
  5
585
  8
1
  6
CONTINUOUS
 62
     7
 10
-310.9860469582686
 20
259.545030917287
 30
0.0
  0
VERTEX
  5
586
  8
1
  6
CONTINUOUS
 62
     7
 10
-310.9709477244458
 20
259.5256862665299
 30
0.0
  0
VERTEX
  5
587
  8
1
  6
CONTINUOUS
 62
     7
 10
-310.9568158998744
 20
259.5056241230099
 30
0.0
  0
VERTEX
  5
588
  8
1
  6
CONTINUOUS
 62
     7
 10
-310.9436855260572
 20
259.4848928135025
 30
0.0
  0
VERTEX
  5
589
  8
1
  6
CONTINUOUS
 62
     7
 10
-310.9315882321486
 20
259.463542276707
 30
0.0
  0
VERTEX
  5
58A
  8
1
  6
CONTINUOUS
 62
     7
 10
-310.9205531587639
 20
259.4416239429505
 30
0.0
  0
VERTEX
  5
58B
  8
1
  6
CONTINUOUS
 62
     7
 10
-310.9106068877844
 20
259.4191906103001
 30
0.0
  0
VERTEX
  5
58C
  8
1
  6
CONTINUOUS
 62
     7
 10
-310.9017733783255
 20
259.3962963173801
 30
0.0
  0
VERTEX
  5
58D
  8
1
  6
CONTINUOUS
 62
     7
 10
-310.8940739090221
 20
259.372996213201
 30
0.0
  0
VERTEX
  5
58E
  8
1
  6
CONTINUOUS
 62
     7
 10
-310.8875270267721
 20
259.3493464243132
 30
0.0
  0
VERTEX
  5
58F
  8
1
  6
CONTINUOUS
 62
     7
 10
-310.8821485020595
 20
259.3254039196067
 30
0.0
  0
VERTEX
  5
590
  8
1
  6
CONTINUOUS
 62
     7
 10
-310.8779512909652
 20
259.301226373081
 30
0.0
  0
VERTEX
  5
591
  8
1
  6
CONTINUOUS
 62
     7
 10
-310.8749455039582
 20
259.2768720249171
 30
0.0
  0
VERTEX
  5
592
  8
1
  6
CONTINUOUS
 62
     7
 10
-310.8731383815409
 20
259.2523995411854
 30
0.0
  0
VERTEX
  5
593
  8
1
  6
CONTINUOUS
 62
     7
 10
-310.8725342768072
 20
259.2278678725276
 30
0.0
  0
SEQEND
  5
960
  8
1
  6
CONTINUOUS
 62
     7
  0
LINE
  5
1A3
  8
1
  6
CONTINUOUS
 62
     7
 10
-327.8702306649602
 20
259.7278107592985
 30
0.0
 11
-311.3725533131002
 21
259.7278107592985
 31
0.0
  0
POLYLINE
  5
1A4
  8
1
  6
CONTINUOUS
 62
     7
 66
     1
 10
0.0
 20
0.0
 30
0.0
  0
VERTEX
  5
594
  8
1
  6
CONTINUOUS
 62
     7
 10
-328.3702497012533
 20
259.2278678725276
 30
0.0
  0
VERTEX
  5
595
  8
1
  6
CONTINUOUS
 62
     7
 10
-328.3696455965197
 20
259.2523995411854
 30
0.0
  0
VERTEX
  5
596
  8
1
  6
CONTINUOUS
 62
     7
 10
-328.3678384741023
 20
259.2768720249171
 30
0.0
  0
VERTEX
  5
597
  8
1
  6
CONTINUOUS
 62
     7
 10
-328.3648326870953
 20
259.301226373081
 30
0.0
  0
VERTEX
  5
598
  8
1
  6
CONTINUOUS
 62
     7
 10
-328.360635476001
 20
259.3254039196067
 30
0.0
  0
VERTEX
  5
599
  8
1
  6
CONTINUOUS
 62
     7
 10
-328.3552569512884
 20
259.3493464243132
 30
0.0
  0
VERTEX
  5
59A
  8
1
  6
CONTINUOUS
 62
     7
 10
-328.3487100690384
 20
259.372996213201
 30
0.0
  0
VERTEX
  5
59B
  8
1
  6
CONTINUOUS
 62
     7
 10
-328.341010599735
 20
259.3962963173801
 30
0.0
  0
VERTEX
  5
59C
  8
1
  6
CONTINUOUS
 62
     7
 10
-328.332177090276
 20
259.4191906103001
 30
0.0
  0
VERTEX
  5
59D
  8
1
  6
CONTINUOUS
 62
     7
 10
-328.3222308192967
 20
259.4416239429505
 30
0.0
  0
VERTEX
  5
59E
  8
1
  6
CONTINUOUS
 62
     7
 10
-328.311195745912
 20
259.463542276707
 30
0.0
  0
VERTEX
  5
59F
  8
1
  6
CONTINUOUS
 62
     7
 10
-328.2990984520032
 20
259.4848928135025
 30
0.0
  0
VERTEX
  5
5A0
  8
1
  6
CONTINUOUS
 62
     7
 10
-328.2859680781861
 20
259.5056241230099
 30
0.0
  0
VERTEX
  5
5A1
  8
1
  6
CONTINUOUS
 62
     7
 10
-328.2718362536147
 20
259.5256862665299
 30
0.0
  0
VERTEX
  5
5A2
  8
1
  6
CONTINUOUS
 62
     7
 10
-328.256737019792
 20
259.545030917287
 30
0.0
  0
VERTEX
  5
5A3
  8
1
  6
CONTINUOUS
 62
     7
 10
-328.2407067485685
 20
259.5636114768407
 30
0.0
  0
VERTEX
  5
5A4
  8
1
  6
CONTINUOUS
 62
     7
 10
-328.2237840545283
 20
259.5813831873346
 30
0.0
  0
VERTEX
  5
5A5
  8
1
  6
CONTINUOUS
 62
     7
 10
-328.2060097019714
 20
259.5983032393119
 30
0.0
  0
VERTEX
  5
5A6
  8
1
  6
CONTINUOUS
 62
     7
 10
-328.1874265067192
 20
259.6143308748366
 30
0.0
  0
VERTEX
  5
5A7
  8
1
  6
CONTINUOUS
 62
     7
 10
-328.168079232977
 20
259.6294274856742
 30
0.0
  0
VERTEX
  5
5A8
  8
1
  6
CONTINUOUS
 62
     7
 10
-328.1480144855034
 20
259.6435567062921
 30
0.0
  0
VERTEX
  5
5A9
  8
1
  6
CONTINUOUS
 62
     7
 10
-328.1272805973468
 20
259.6566845014601
 30
0.0
  0
VERTEX
  5
5AA
  8
1
  6
CONTINUOUS
 62
     7
 10
-328.1059275134181
 20
259.6687792482355
 30
0.0
  0
VERTEX
  5
5AB
  8
1
  6
CONTINUOUS
 62
     7
 10
-328.0840066701797
 20
259.6798118121384
 30
0.0
  0
VERTEX
  5
5AC
  8
1
  6
CONTINUOUS
 62
     7
 10
-328.0615708717441
 20
259.6897556173326
 30
0.0
  0
VERTEX
  5
5AD
  8
1
  6
CONTINUOUS
 62
     7
 10
-328.0386741626751
 20
259.6985867106425
 30
0.0
  0
VERTEX
  5
5AE
  8
1
  6
CONTINUOUS
 62
     7
 10
-328.0153716978035
 20
259.7062838192534
 30
0.0
  0
VERTEX
  5
5AF
  8
1
  6
CONTINUOUS
 62
     7
 10
-327.991719609366
 20
259.7128284019537
 30
0.0
  0
VERTEX
  5
5B0
  8
1
  6
CONTINUOUS
 62
     7
 10
-327.9677748717921
 20
259.7182046937989
 30
0.0
  0
VERTEX
  5
5B1
  8
1
  6
CONTINUOUS
 62
     7
 10
-327.9435951644599
 20
259.7223997440867
 30
0.0
  0
VERTEX
  5
5B2
  8
1
  6
CONTINUOUS
 62
     7
 10
-327.9192387327554
 20
259.7254034475531
 30
0.0
  0
VERTEX
  5
5B3
  8
1
  6
CONTINUOUS
 62
     7
 10
-327.894764247768
 20
259.7272085687149
 30
0.0
  0
VERTEX
  5
5B4
  8
1
  6
CONTINUOUS
 62
     7
 10
-327.8702306649602
 20
259.7278107592985
 30
0.0
  0
SEQEND
  5
961
  8
1
  6
CONTINUOUS
 62
     7
  0
LINE
  5
1A5
  8
1
  6
CONTINUOUS
 62
     7
 10
-328.3711634984144
 20
247.2292005739844
 30
0.0
 11
-328.3702497012534
 21
259.2278678725275
 31
0.0
  0
POLYLINE
  5
1A6
  8
1
  6
CONTINUOUS
 62
     7
 66
     1
 10
0.0
 20
0.0
 30
0.0
  0
VERTEX
  5
5B5
  8
1
  6
CONTINUOUS
 62
     7
 10
-327.8712206174433
 20
246.7291815318914
 30
0.0
  0
VERTEX
  5
5B6
  8
1
  6
CONTINUOUS
 62
     7
 10
-327.8957541085206
 20
246.7297838142056
 30
0.0
  0
VERTEX
  5
5B7
  8
1
  6
CONTINUOUS
 62
     7
 10
-327.9202283185374
 20
246.7315892103379
 30
0.0
  0
VERTEX
  5
5B8
  8
1
  6
CONTINUOUS
 62
     7
 10
-327.9445842926935
 20
246.7345933713526
 30
0.0
  0
VERTEX
  5
5B9
  8
1
  6
CONTINUOUS
 62
     7
 10
-327.968763361002
 20
246.7387890606641
 30
0.0
  0
VERTEX
  5
5BA
  8
1
  6
CONTINUOUS
 62
     7
 10
-327.992707279616
 20
246.7441661714694
 30
0.0
  0
VERTEX
  5
5BB
  8
1
  6
CONTINUOUS
 62
     7
 10
-328.0163583711299
 20
246.7507117510933
 30
0.0
  0
VERTEX
  5
5BC
  8
1
  6
CONTINUOUS
 62
     7
 10
-328.039659663516
 20
246.7584100321895
 30
0.0
  0
VERTEX
  5
5BD
  8
1
  6
CONTINUOUS
 62
     7
 10
-328.0625550273618
 20
246.7672424707226
 30
0.0
  0
VERTEX
  5
5BE
  8
1
  6
CONTINUOUS
 62
     7
 10
-328.0849893110771
 20
246.7771877906372
 30
0.0
  0
VERTEX
  5
5BF
  8
1
  6
CONTINUOUS
 62
     7
 10
-328.1069084737465
 20
246.788222035109
 30
0.0
  0
VERTEX
  5
5C0
  8
1
  6
CONTINUOUS
 62
     7
 10
-328.1282597153062
 20
246.8003186242535
 30
0.0
  0
VERTEX
  5
5C1
  8
1
  6
CONTINUOUS
 62
     7
 10
-328.1489916037314
 20
246.8134484191529
 30
0.0
  0
VERTEX
  5
5C2
  8
1
  6
CONTINUOUS
 62
     7
 10
-328.1690541989284
 20
246.8275797920473
 30
0.0
  0
VERTEX
  5
5C3
  8
1
  6
CONTINUOUS
 62
     7
 10
-328.1883991730335
 20
246.8426787025221
 30
0.0
  0
VERTEX
  5
5C4
  8
1
  6
CONTINUOUS
 62
     7
 10
-328.2069799268273
 20
246.8587087795053
 30
0.0
  0
VERTEX
  5
5C5
  8
1
  6
CONTINUOUS
 62
     7
 10
-328.2247517019858
 20
246.875631408881
 30
0.0
  0
VERTEX
  5
5C6
  8
1
  6
CONTINUOUS
 62
     7
 10
-328.2416716888961
 20
246.8934058265048
 30
0.0
  0
VERTEX
  5
5C7
  8
1
  6
CONTINUOUS
 62
     7
 10
-328.2576991297792
 20
246.9119892163987
 30
0.0
  0
VERTEX
  5
5C8
  8
1
  6
CONTINUOUS
 62
     7
 10
-328.2727954168691
 20
246.9313368138886
 30
0.0
  0
VERTEX
  5
5C9
  8
1
  6
CONTINUOUS
 62
     7
 10
-328.2869241854135
 20
246.9514020134358
 30
0.0
  0
VERTEX
  5
5CA
  8
1
  6
CONTINUOUS
 62
     7
 10
-328.3000514012708
 20
246.9721364809029
 30
0.0
  0
VERTEX
  5
5CB
  8
1
  6
CONTINUOUS
 62
     7
 10
-328.312145442894
 20
246.9934902699839
 30
0.0
  0
VERTEX
  5
5CC
  8
1
  6
CONTINUOUS
 62
     7
 10
-328.3231771775018
 20
247.0154119425174
 30
0.0
  0
VERTEX
  5
5CD
  8
1
  6
CONTINUOUS
 62
     7
 10
-328.3331200312555
 20
247.0378486923935
 30
0.0
  0
VERTEX
  5
5CE
  8
1
  6
CONTINUOUS
 62
     7
 10
-328.3419500532717
 20
247.0607464727563
 30
0.0
  0
VERTEX
  5
5CF
  8
1
  6
CONTINUOUS
 62
     7
 10
-328.3496459733157
 20
247.0840501261947
 30
0.0
  0
VERTEX
  5
5D0
  8
1
  6
CONTINUOUS
 62
     7
 10
-328.3561892530396
 20
247.1077035176085
 30
0.0
  0
VERTEX
  5
5D1
  8
1
  6
CONTINUOUS
 62
     7
 10
-328.3615641306374
 20
247.1316496694299
 30
0.0
  0
VERTEX
  5
5D2
  8
1
  6
CONTINUOUS
 62
     7
 10
-328.3657576588133
 20
247.1558308988741
 30
0.0
  0
VERTEX
  5
5D3
  8
1
  6
CONTINUOUS
 62
     7
 10
-328.36875973597
 20
247.1801889568882
 30
0.0
  0
VERTEX
  5
5D4
  8
1
  6
CONTINUOUS
 62
     7
 10
-328.3705631305418
 20
247.2046651684655
 30
0.0
  0
VERTEX
  5
5D5
  8
1
  6
CONTINUOUS
 62
     7
 10
-328.3711634984144
 20
247.2292005739844
 30
0.0
  0
SEQEND
  5
962
  8
1
  6
CONTINUOUS
 62
     7
  0
LINE
  5
1A7
  8
1
  6
CONTINUOUS
 62
     7
 10
-311.3715633606172
 20
246.7291815318914
 30
0.0
 11
-327.8712206174433
 21
246.7291815318914
 31
0.0
  0
POLYLINE
  5
1A8
  8
1
  6
CONTINUOUS
 62
     7
 66
     1
 10
0.0
 20
0.0
 30
0.0
  0
VERTEX
  5
5D6
  8
1
  6
CONTINUOUS
 62
     7
 10
-310.871620479646
 20
247.2292005739844
 30
0.0
  0
VERTEX
  5
5D7
  8
1
  6
CONTINUOUS
 62
     7
 10
-310.8722208475186
 20
247.2046651684655
 30
0.0
  0
VERTEX
  5
5D8
  8
1
  6
CONTINUOUS
 62
     7
 10
-310.8740242420905
 20
247.1801889568882
 30
0.0
  0
VERTEX
  5
5D9
  8
1
  6
CONTINUOUS
 62
     7
 10
-310.8770263192472
 20
247.1558308988741
 30
0.0
  0
VERTEX
  5
5DA
  8
1
  6
CONTINUOUS
 62
     7
 10
-310.8812198474232
 20
247.1316496694299
 30
0.0
  0
VERTEX
  5
5DB
  8
1
  6
CONTINUOUS
 62
     7
 10
-310.8865947250209
 20
247.1077035176085
 30
0.0
  0
VERTEX
  5
5DC
  8
1
  6
CONTINUOUS
 62
     7
 10
-310.8931380047447
 20
247.0840501261947
 30
0.0
  0
VERTEX
  5
5DD
  8
1
  6
CONTINUOUS
 62
     7
 10
-310.9008339247889
 20
247.0607464727563
 30
0.0
  0
VERTEX
  5
5DE
  8
1
  6
CONTINUOUS
 62
     7
 10
-310.909663946805
 20
247.0378486923935
 30
0.0
  0
VERTEX
  5
5DF
  8
1
  6
CONTINUOUS
 62
     7
 10
-310.9196068005587
 20
247.0154119425174
 30
0.0
  0
VERTEX
  5
5E0
  8
1
  6
CONTINUOUS
 62
     7
 10
-310.9306385351665
 20
246.9934902699839
 30
0.0
  0
VERTEX
  5
5E1
  8
1
  6
CONTINUOUS
 62
     7
 10
-310.9427325767896
 20
246.9721364809029
 30
0.0
  0
VERTEX
  5
5E2
  8
1
  6
CONTINUOUS
 62
     7
 10
-310.955859792647
 20
246.9514020134358
 30
0.0
  0
VERTEX
  5
5E3
  8
1
  6
CONTINUOUS
 62
     7
 10
-310.9699885611913
 20
246.9313368138886
 30
0.0
  0
VERTEX
  5
5E4
  8
1
  6
CONTINUOUS
 62
     7
 10
-310.9850848482813
 20
246.9119892163987
 30
0.0
  0
VERTEX
  5
5E5
  8
1
  6
CONTINUOUS
 62
     7
 10
-311.0011122891644
 20
246.8934058265048
 30
0.0
  0
VERTEX
  5
5E6
  8
1
  6
CONTINUOUS
 62
     7
 10
-311.0180322760747
 20
246.875631408881
 30
0.0
  0
VERTEX
  5
5E7
  8
1
  6
CONTINUOUS
 62
     7
 10
-311.0358040512331
 20
246.8587087795053
 30
0.0
  0
VERTEX
  5
5E8
  8
1
  6
CONTINUOUS
 62
     7
 10
-311.054384805027
 20
246.8426787025221
 30
0.0
  0
VERTEX
  5
5E9
  8
1
  6
CONTINUOUS
 62
     7
 10
-311.0737297791321
 20
246.8275797920473
 30
0.0
  0
VERTEX
  5
5EA
  8
1
  6
CONTINUOUS
 62
     7
 10
-311.0937923743291
 20
246.8134484191529
 30
0.0
  0
VERTEX
  5
5EB
  8
1
  6
CONTINUOUS
 62
     7
 10
-311.1145242627543
 20
246.8003186242535
 30
0.0
  0
VERTEX
  5
5EC
  8
1
  6
CONTINUOUS
 62
     7
 10
-311.135875504314
 20
246.788222035109
 30
0.0
  0
VERTEX
  5
5ED
  8
1
  6
CONTINUOUS
 62
     7
 10
-311.1577946669835
 20
246.7771877906372
 30
0.0
  0
VERTEX
  5
5EE
  8
1
  6
CONTINUOUS
 62
     7
 10
-311.1802289506987
 20
246.7672424707226
 30
0.0
  0
VERTEX
  5
5EF
  8
1
  6
CONTINUOUS
 62
     7
 10
-311.2031243145444
 20
246.7584100321895
 30
0.0
  0
VERTEX
  5
5F0
  8
1
  6
CONTINUOUS
 62
     7
 10
-311.2264256069307
 20
246.7507117510933
 30
0.0
  0
VERTEX
  5
5F1
  8
1
  6
CONTINUOUS
 62
     7
 10
-311.2500766984446
 20
246.7441661714694
 30
0.0
  0
VERTEX
  5
5F2
  8
1
  6
CONTINUOUS
 62
     7
 10
-311.2740206170585
 20
246.7387890606641
 30
0.0
  0
VERTEX
  5
5F3
  8
1
  6
CONTINUOUS
 62
     7
 10
-311.2981996853669
 20
246.7345933713526
 30
0.0
  0
VERTEX
  5
5F4
  8
1
  6
CONTINUOUS
 62
     7
 10
-311.3225556595231
 20
246.7315892103379
 30
0.0
  0
VERTEX
  5
5F5
  8
1
  6
CONTINUOUS
 62
     7
 10
-311.3470298695399
 20
246.7297838142056
 30
0.0
  0
VERTEX
  5
5F6
  8
1
  6
CONTINUOUS
 62
     7
 10
-311.3715633606172
 20
246.7291815318914
 30
0.0
  0
SEQEND
  5
963
  8
1
  6
CONTINUOUS
 62
     7
  0
LINE
  5
1A9
  8
1
  6
CONTINUOUS
 62
     7
 10
-310.8725342768072
 20
259.2278678725276
 30
0.0
 11
-310.8716204796461
 21
247.2292005739844
 31
0.0
  0
LINE
  5
1AA
  8
1
  6
CONTINUOUS
 62
     7
 10
-288.8713919890303
 20
253.7202642540458
 30
0.0
 11
-288.8459322851732
 21
253.6948045501886
 31
0.0
  0
LINE
  5
1AB
  8
1
  6
CONTINUOUS
 62
     7
 10
-288.8713919890303
 20
246.7289911218365
 30
0.0
 11
-288.8713919890303
 21
253.7202642540458
 31
0.0
  0
LINE
  5
1AC
  8
1
  6
CONTINUOUS
 62
     7
 10
-278.3366729339021
 20
246.702998934499
 30
0.0
 11
-278.3626651212395
 21
246.7289911218365
 31
0.0
  0
LINE
  5
1AD
  8
1
  6
CONTINUOUS
 62
     7
 10
-278.3626651212395
 20
249.7202642540458
 30
0.0
 11
-278.3626651212395
 21
246.7289911218365
 31
0.0
  0
LINE
  5
1AE
  8
1
  6
CONTINUOUS
 62
     7
 10
-278.3713919890303
 20
249.7289911218365
 30
0.0
 11
-278.3626651212395
 21
249.7202642540458
 31
0.0
  0
LINE
  5
1AF
  8
1
  6
CONTINUOUS
 62
     7
 10
-278.3713919890303
 20
259.2289911218365
 30
0.0
 11
-278.3713919890303
 21
249.7289911218365
 31
0.0
  0
LINE
  5
1B0
  8
1
  6
CONTINUOUS
 62
     7
 10
-278.3713919890303
 20
259.2289911218365
 30
0.0
 11
-278.3376294624828
 21
259.262753648384
 31
0.0
  0
LINE
  5
1B1
  8
1
  6
CONTINUOUS
 62
     7
 10
-282.8973841763677
 20
246.702998934499
 30
0.0
 11
-282.8713919890302
 21
246.7289911218365
 31
0.0
  0
LINE
  5
1B2
  8
1
  6
CONTINUOUS
 62
     7
 10
-278.3626651212395
 20
246.7289911218365
 30
0.0
 11
-282.8713919890303
 21
246.7289911218365
 31
0.0
  0
LINE
  5
1B3
  8
1
  6
CONTINUOUS
 62
     7
 10
-287.8744354385144
 20
253.6948045501886
 30
0.0
 11
-286.6213919890303
 21
253.7289911218365
 31
0.0
  0
LINE
  5
1B4
  8
1
  6
CONTINUOUS
 62
     7
 10
-286.6958770276209
 20
249.7202642540458
 30
0.0
 11
-286.6213919890303
 21
249.7289911218365
 31
0.0
  0
LINE
  5
1B5
  8
1
  6
CONTINUOUS
 62
     7
 10
-286.6958770276209
 20
249.7202642540458
 30
0.0
 11
-286.6958770276209
 21
246.7289911218365
 31
0.0
  0
LINE
  5
1B6
  8
1
  6
CONTINUOUS
 62
     7
 10
-286.6958770276209
 20
246.7289911218365
 30
0.0
 11
-287.9184334736908
 21
246.702998934499
 31
0.0
  0
LINE
  5
1B7
  8
1
  6
CONTINUOUS
 62
     7
 10
-282.8713919890303
 20
246.7289911218365
 30
0.0
 11
-282.8713919890303
 21
249.7202642540458
 31
0.0
  0
LINE
  5
1B8
  8
1
  6
CONTINUOUS
 62
     7
 10
-282.8885808064244
 20
249.7030754366516
 30
0.0
 11
-282.8972311866012
 21
248.7118400490858
 31
0.0
  0
LINE
  5
1B9
  8
1
  6
CONTINUOUS
 62
     7
 10
-282.8885808064244
 20
249.7030754366516
 30
0.0
 11
-282.8713919890302
 21
249.7202642540458
 31
0.0
  0
LINE
  5
1BA
  8
1
  6
CONTINUOUS
 62
     7
 10
-300.0469069504396
 20
246.7289911218365
 30
0.0
 11
-300.0469069504396
 21
249.7202642540458
 31
0.0
  0
LINE
  5
1BB
  8
1
  6
CONTINUOUS
 62
     7
 10
-300.1213919890303
 20
249.7289911218365
 30
0.0
 11
-300.0469069504396
 21
249.7202642540458
 31
0.0
  0
LINE
  5
1BC
  8
1
  6
CONTINUOUS
 62
     7
 10
-300.1213919890303
 20
253.7289911218365
 30
0.0
 11
-298.868348539546
 21
253.6948045501886
 31
0.0
  0
LINE
  5
1BD
  8
1
  6
CONTINUOUS
 62
     7
 10
-298.8243505043696
 20
246.702998934499
 30
0.0
 11
-300.0469069504396
 21
246.7289911218365
 31
0.0
  0
LINE
  5
1BE
  8
1
  6
CONTINUOUS
 62
     7
 10
-284.8453998016928
 20
246.702998934499
 30
0.0
 11
-284.8713919890303
 21
246.7289911218365
 31
0.0
  0
LINE
  5
1BF
  8
1
  6
CONTINUOUS
 62
     7
 10
-284.8713919890303
 20
246.7289911218365
 30
0.0
 11
-286.6958770276209
 21
246.7289911218365
 31
0.0
  0
LINE
  5
1C0
  8
1
  6
CONTINUOUS
 62
     7
 10
-303.8453998016928
 20
246.702998934499
 30
0.0
 11
-303.8713919890303
 21
246.7289911218365
 31
0.0
  0
LINE
  5
1C1
  8
1
  6
CONTINUOUS
 62
     7
 10
-303.8713919890303
 20
249.7202642540458
 30
0.0
 11
-303.8713919890303
 21
246.7289911218365
 31
0.0
  0
LINE
  5
1C2
  8
1
  6
CONTINUOUS
 62
     7
 10
-303.8542031716361
 20
249.7030754366516
 30
0.0
 11
-303.8713919890303
 21
249.7202642540458
 31
0.0
  0
LINE
  5
1C3
  8
1
  6
CONTINUOUS
 62
     7
 10
-303.8455527914592
 20
248.7118400490857
 30
0.0
 11
-303.8542031716361
 21
249.7030754366515
 31
0.0
  0
LINE
  5
1C4
  8
1
  6
CONTINUOUS
 62
     7
 10
-297.8968516928874
 20
253.6948045501886
 30
0.0
 11
-297.8713919890303
 21
253.7202642540457
 31
0.0
  0
LINE
  5
1C5
  8
1
  6
CONTINUOUS
 62
     7
 10
-297.8713919890302
 20
253.7202642540458
 30
0.0
 11
-297.8713919890302
 21
246.7289911218365
 31
0.0
  0
LINE
  5
1C6
  8
1
  6
CONTINUOUS
 62
     7
 10
-308.380118856821
 20
246.7289911218365
 30
0.0
 11
-308.380118856821
 21
249.7202642540458
 31
0.0
  0
LINE
  5
1C7
  8
1
  6
CONTINUOUS
 62
     7
 10
-308.4061110441584
 20
246.702998934499
 30
0.0
 11
-308.380118856821
 21
246.7289911218365
 31
0.0
  0
LINE
  5
1C8
  8
1
  6
CONTINUOUS
 62
     7
 10
-308.3713919890303
 20
259.2289911218365
 30
0.0
 11
-308.4051545155777
 21
259.262753648384
 31
0.0
  0
LINE
  5
1C9
  8
1
  6
CONTINUOUS
 62
     7
 10
-308.3713919890303
 20
249.7289911218365
 30
0.0
 11
-308.3713919890303
 21
259.2289911218365
 31
0.0
  0
LINE
  5
1CA
  8
1
  6
CONTINUOUS
 62
     7
 10
-308.3713919890303
 20
249.7289911218365
 30
0.0
 11
-308.380118856821
 21
249.7202642540458
 31
0.0
  0
LINE
  5
1CB
  8
1
  6
CONTINUOUS
 62
     7
 10
-301.8713919890302
 20
246.7289911218365
 30
0.0
 11
-301.8713919890302
 21
249.7202642540458
 31
0.0
  0
LINE
  5
1CC
  8
1
  6
CONTINUOUS
 62
     7
 10
-301.8973841763677
 20
246.702998934499
 30
0.0
 11
-301.8713919890302
 21
246.7289911218365
 31
0.0
  0
LINE
  5
1CD
  8
1
  6
CONTINUOUS
 62
     7
 10
-301.8885808064244
 20
249.7030754366516
 30
0.0
 11
-301.8972311866013
 21
248.7118400490858
 31
0.0
  0
LINE
  5
1CE
  8
1
  6
CONTINUOUS
 62
     7
 10
-301.8885808064244
 20
249.7030754366516
 30
0.0
 11
-301.8713919890302
 21
249.7202642540458
 31
0.0
  0
LINE
  5
1CF
  8
1
  6
CONTINUOUS
 62
     7
 10
-284.8713919890303
 20
249.7202642540458
 30
0.0
 11
-284.8713919890303
 21
246.7289911218365
 31
0.0
  0
LINE
  5
1D0
  8
1
  6
CONTINUOUS
 62
     7
 10
-284.8542031716361
 20
249.7030754366516
 30
0.0
 11
-284.8713919890303
 21
249.7202642540458
 31
0.0
  0
LINE
  5
1D1
  8
1
  6
CONTINUOUS
 62
     7
 10
-284.8455527914592
 20
248.7118400490857
 30
0.0
 11
-284.8542031716361
 21
249.7030754366515
 31
0.0
  0
LINE
  5
1D2
  8
1
  6
CONTINUOUS
 62
     7
 10
-300.0469069504396
 20
246.7289911218365
 30
0.0
 11
-301.8713919890302
 21
246.7289911218365
 31
0.0
  0
LINE
  5
1D3
  8
1
  6
CONTINUOUS
 62
     7
 10
-303.8713919890303
 20
246.7289911218365
 30
0.0
 11
-308.380118856821
 21
246.7289911218365
 31
0.0
  0
LINE
  5
1D4
  8
1
  6
CONTINUOUS
 62
     9
 10
-244.2215633606172
 20
246.7291815318914
 30
0.0
 11
-244.2475535539346
 21
246.7551717252088
 31
0.0
  0
POLYLINE
  5
1D5
  8
1
  6
CONTINUOUS
 62
     7
 66
     1
 10
0.0
 20
0.0
 30
0.0
  0
VERTEX
  5
5F7
  8
1
  6
CONTINUOUS
 62
     7
 10
-244.2475535539346
 20
246.7551717252088
 30
0.0
  0
VERTEX
  5
5F8
  8
1
  6
CONTINUOUS
 62
     7
 10
-244.1500100786835
 20
246.7647785222893
 30
0.0
  0
VERTEX
  5
5F9
  8
1
  6
CONTINUOUS
 62
     7
 10
-244.0562162453627
 20
246.7932297653867
 30
0.0
  0
VERTEX
  5
5FA
  8
1
  6
CONTINUOUS
 62
     7
 10
-243.9697761500302
 20
246.8394321948541
 30
0.0
  0
VERTEX
  5
5FB
  8
1
  6
CONTINUOUS
 62
     7
 10
-243.8940113160299
 20
246.9016104488362
 30
0.0
  0
VERTEX
  5
5FC
  8
1
  6
CONTINUOUS
 62
     7
 10
-243.8318330620477
 20
246.9773752828366
 30
0.0
  0
VERTEX
  5
5FD
  8
1
  6
CONTINUOUS
 62
     7
 10
-243.7856306325804
 20
247.063815378169
 30
0.0
  0
VERTEX
  5
5FE
  8
1
  6
CONTINUOUS
 62
     7
 10
-243.757179389483
 20
247.1576092114898
 30
0.0
  0
VERTEX
  5
5FF
  8
1
  6
CONTINUOUS
 62
     7
 10
-243.7475725924025
 20
247.2551526867409
 30
0.0
  0
SEQEND
  5
964
  8
1
  6
CONTINUOUS
 62
     7
  0
LINE
  5
1D6
  8
1
  6
CONTINUOUS
 62
     9
 10
-243.7475725924025
 20
247.2551526867409
 30
0.0
 11
-243.7216204796461
 21
247.2292005739844
 31
0.0
  0
LINE
  5
1D7
  8
1
  6
CONTINUOUS
 62
     9
 10
-275.8711634984144
 20
247.2292005739844
 30
0.0
 11
-275.845211385658
 21
247.2551526867409
 31
0.0
  0
POLYLINE
  5
1D8
  8
1
  6
CONTINUOUS
 62
     7
 66
     1
 10
0.0
 20
0.0
 30
0.0
  0
VERTEX
  5
600
  8
1
  6
CONTINUOUS
 62
     7
 10
-275.8452113856579
 20
247.2551526867409
 30
0.0
  0
VERTEX
  5
601
  8
1
  6
CONTINUOUS
 62
     7
 10
-275.8356045885774
 20
247.1576092114898
 30
0.0
  0
VERTEX
  5
602
  8
1
  6
CONTINUOUS
 62
     7
 10
-275.8071533454801
 20
247.063815378169
 30
0.0
  0
VERTEX
  5
603
  8
1
  6
CONTINUOUS
 62
     7
 10
-275.7609509160127
 20
246.9773752828365
 30
0.0
  0
VERTEX
  5
604
  8
1
  6
CONTINUOUS
 62
     7
 10
-275.6987726620305
 20
246.9016104488362
 30
0.0
  0
VERTEX
  5
605
  8
1
  6
CONTINUOUS
 62
     7
 10
-275.6230078280302
 20
246.8394321948541
 30
0.0
  0
VERTEX
  5
606
  8
1
  6
CONTINUOUS
 62
     7
 10
-275.5365677326978
 20
246.7932297653867
 30
0.0
  0
VERTEX
  5
607
  8
1
  6
CONTINUOUS
 62
     7
 10
-275.4427738993769
 20
246.7647785222893
 30
0.0
  0
VERTEX
  5
608
  8
1
  6
CONTINUOUS
 62
     7
 10
-275.3452304241259
 20
246.7551717252088
 30
0.0
  0
SEQEND
  5
965
  8
1
  6
CONTINUOUS
 62
     7
  0
LINE
  5
1D9
  8
1
  6
CONTINUOUS
 62
     9
 10
-275.3452304241259
 20
246.7551717252088
 30
0.0
 11
-275.3712206174433
 21
246.7291815318914
 31
0.0
  0
LINE
  5
1DA
  8
1
  6
CONTINUOUS
 62
     9
 10
-328.3711634984144
 20
247.2292005739844
 30
0.0
 11
-328.345211385658
 21
247.2551526867409
 31
0.0
  0
POLYLINE
  5
1DB
  8
1
  6
CONTINUOUS
 62
     7
 66
     1
 10
0.0
 20
0.0
 30
0.0
  0
VERTEX
  5
609
  8
1
  6
CONTINUOUS
 62
     7
 10
-328.3452113856579
 20
247.2551526867409
 30
0.0
  0
VERTEX
  5
60A
  8
1
  6
CONTINUOUS
 62
     7
 10
-328.3356045885774
 20
247.1576092114898
 30
0.0
  0
VERTEX
  5
60B
  8
1
  6
CONTINUOUS
 62
     7
 10
-328.3071533454801
 20
247.063815378169
 30
0.0
  0
VERTEX
  5
60C
  8
1
  6
CONTINUOUS
 62
     7
 10
-328.2609509160127
 20
246.9773752828365
 30
0.0
  0
VERTEX
  5
60D
  8
1
  6
CONTINUOUS
 62
     7
 10
-328.1987726620305
 20
246.9016104488362
 30
0.0
  0
VERTEX
  5
60E
  8
1
  6
CONTINUOUS
 62
     7
 10
-328.1230078280302
 20
246.8394321948541
 30
0.0
  0
VERTEX
  5
60F
  8
1
  6
CONTINUOUS
 62
     7
 10
-328.0365677326978
 20
246.7932297653867
 30
0.0
  0
VERTEX
  5
610
  8
1
  6
CONTINUOUS
 62
     7
 10
-327.9427738993769
 20
246.7647785222893
 30
0.0
  0
VERTEX
  5
611
  8
1
  6
CONTINUOUS
 62
     7
 10
-327.8452304241259
 20
246.7551717252088
 30
0.0
  0
SEQEND
  5
966
  8
1
  6
CONTINUOUS
 62
     7
  0
LINE
  5
1DC
  8
1
  6
CONTINUOUS
 62
     9
 10
-327.8452304241259
 20
246.7551717252088
 30
0.0
 11
-327.8712206174433
 21
246.7291815318914
 31
0.0
  0
LINE
  5
1DD
  8
1
  6
CONTINUOUS
 62
     9
 10
-311.3715633606172
 20
246.7291815318914
 30
0.0
 11
-311.3975535539346
 21
246.7551717252088
 31
0.0
  0
POLYLINE
  5
1DE
  8
1
  6
CONTINUOUS
 62
     7
 66
     1
 10
0.0
 20
0.0
 30
0.0
  0
VERTEX
  5
612
  8
1
  6
CONTINUOUS
 62
     7
 10
-311.3975535539346
 20
246.7551717252088
 30
0.0
  0
VERTEX
  5
613
  8
1
  6
CONTINUOUS
 62
     7
 10
-311.3000100786836
 20
246.7647785222893
 30
0.0
  0
VERTEX
  5
614
  8
1
  6
CONTINUOUS
 62
     7
 10
-311.2062162453627
 20
246.7932297653867
 30
0.0
  0
VERTEX
  5
615
  8
1
  6
CONTINUOUS
 62
     7
 10
-311.1197761500302
 20
246.8394321948541
 30
0.0
  0
VERTEX
  5
616
  8
1
  6
CONTINUOUS
 62
     7
 10
-311.0440113160299
 20
246.9016104488362
 30
0.0
  0
VERTEX
  5
617
  8
1
  6
CONTINUOUS
 62
     7
 10
-310.9818330620477
 20
246.9773752828366
 30
0.0
  0
VERTEX
  5
618
  8
1
  6
CONTINUOUS
 62
     7
 10
-310.9356306325804
 20
247.063815378169
 30
0.0
  0
VERTEX
  5
619
  8
1
  6
CONTINUOUS
 62
     7
 10
-310.907179389483
 20
247.1576092114898
 30
0.0
  0
VERTEX
  5
61A
  8
1
  6
CONTINUOUS
 62
     7
 10
-310.8975725924025
 20
247.2551526867409
 30
0.0
  0
SEQEND
  5
967
  8
1
  6
CONTINUOUS
 62
     7
  0
LINE
  5
1DF
  8
1
  6
CONTINUOUS
 62
     9
 10
-310.8975725924025
 20
247.2551526867409
 30
0.0
 11
-310.871620479646
 21
247.2292005739844
 31
0.0
  0
LINE
  5
1E0
  8
1
  6
CONTINUOUS
 62
     7
 10
-311.3975535539346
 20
246.7551717252088
 30
0.0
 11
-327.8452304241259
 21
246.7551717252088
 31
0.0
  0
LINE
  5
1E1
  8
1
  6
CONTINUOUS
 62
     7
 10
-275.3452304241259
 20
246.7551717252088
 30
0.0
 11
-244.2475535539346
 21
246.7551717252088
 31
0.0
  0
LINE
  5
1E2
  8
1
  6
CONTINUOUS
 62
     9
 10
-310.8725342768072
 20
259.2278678725276
 30
0.0
 11
-310.8975725924026
 21
259.2028295569322
 31
0.0
  0
LINE
  5
1E3
  8
1
  6
CONTINUOUS
 62
     7
 10
-310.8975725924025
 20
259.2028295569321
 30
0.0
 11
-310.8975725924025
 21
247.2551526867409
 31
0.0
  0
LINE
  5
1E4
  8
1
  6
CONTINUOUS
 62
     9
 10
-275.845211385658
 20
259.2028295569321
 30
0.0
 11
-275.8702497012533
 21
259.2278678725275
 31
0.0
  0
LINE
  5
1E5
  8
1
  6
CONTINUOUS
 62
     7
 10
-275.845211385658
 20
259.2028295569321
 30
0.0
 11
-275.845211385658
 21
247.2551526867409
 31
0.0
  0
LINE
  5
1E6
  8
1
  6
CONTINUOUS
 62
     7
 10
-243.7475725924025
 20
247.2551526867409
 30
0.0
 11
-243.7475725924025
 21
251.7806217438785
 31
0.0
  0
LINE
  5
1E7
  8
1
  6
CONTINUOUS
 62
     9
 10
-243.721973576028
 20
251.8655533571716
 30
0.0
 11
-243.7475725924025
 21
251.7806217438785
 31
0.0
  0
LINE
  5
1E8
  8
1
  6
CONTINUOUS
 62
     9
 10
-328.345211385658
 20
259.2028295569321
 30
0.0
 11
-328.3702497012534
 21
259.2278678725275
 31
0.0
  0
LINE
  5
1E9
  8
1
  6
CONTINUOUS
 62
     7
 10
-328.345211385658
 20
247.2551526867409
 30
0.0
 11
-328.345211385658
 21
259.2028295569321
 31
0.0
  0
POLYLINE
  5
1EA
  8
1
  6
CONTINUOUS
 62
     7
 66
     1
 10
0.0
 20
0.0
 30
0.0
  0
VERTEX
  5
61B
  8
1
  6
CONTINUOUS
 62
     7
 10
-243.7475725924025
 20
251.7806217438785
 30
0.0
  0
VERTEX
  5
61C
  8
1
  6
CONTINUOUS
 62
     7
 10
-243.7481619434689
 20
251.804651156383
 30
0.0
  0
VERTEX
  5
61D
  8
1
  6
CONTINUOUS
 62
     7
 10
-243.7499207033023
 20
251.8286929143695
 30
0.0
  0
VERTEX
  5
61E
  8
1
  6
CONTINUOUS
 62
     7
 10
-243.7528349318537
 20
251.8526648009117
 30
0.0
  0
VERTEX
  5
61F
  8
1
  6
CONTINUOUS
 62
     7
 10
-243.7568906890747
 20
251.8764845990832
 30
0.0
  0
VERTEX
  5
620
  8
1
  6
CONTINUOUS
 62
     7
 10
-243.7620740349163
 20
251.9000700919579
 30
0.0
  0
VERTEX
  5
621
  8
1
  6
CONTINUOUS
 62
     7
 10
-243.7683710293297
 20
251.9233390626096
 30
0.0
  0
VERTEX
  5
622
  8
1
  6
CONTINUOUS
 62
     7
 10
-243.7757677322664
 20
251.9462092941118
 30
0.0
  0
VERTEX
  5
623
  8
1
  6
CONTINUOUS
 62
     7
 10
-243.7842772320769
 20
251.9686895979532
 30
0.0
  0
VERTEX
  5
624
  8
1
  6
CONTINUOUS
 62
     7
 10
-243.7938947912905
 20
251.99079436308
 30
0.0
  0
VERTEX
  5
625
  8
1
  6
CONTINUOUS
 62
     7
 10
-243.8045800163852
 20
252.0124505520659
 30
0.0
  0
VERTEX
  5
626
  8
1
  6
CONTINUOUS
 62
     7
 10
-243.8162925138391
 20
252.0335851274847
 30
0.0
  0
VERTEX
  5
627
  8
1
  6
CONTINUOUS
 62
     7
 10
-243.8289918901305
 20
252.05412505191
 30
0.0
  0
VERTEX
  5
628
  8
1
  6
CONTINUOUS
 62
     7
 10
-243.8426377517374
 20
252.0739972879152
 30
0.0
  0
VERTEX
  5
629
  8
1
  6
CONTINUOUS
 62
     7
 10
-243.857189705138
 20
252.0931287980742
 30
0.0
  0
VERTEX
  5
62A
  8
1
  6
CONTINUOUS
 62
     7
 10
-243.8726579615781
 20
252.1115178235967
 30
0.0
  0
VERTEX
  5
62B
  8
1
  6
CONTINUOUS
 62
     7
 10
-243.8890472758143
 20
252.1291857191192
 30
0.0
  0
VERTEX
  5
62C
  8
1
  6
CONTINUOUS
 62
     7
 10
-243.9062953431606
 20
252.1460769617132
 30
0.0
  0
VERTEX
  5
62D
  8
1
  6
CONTINUOUS
 62
     7
 10
-243.9243398589311
 20
252.1621360284499
 30
0.0
  0
VERTEX
  5
62E
  8
1
  6
CONTINUOUS
 62
     7
 10
-243.9431185184397
 20
252.1773073964009
 30
0.0
  0
VERTEX
  5
62F
  8
1
  6
CONTINUOUS
 62
     7
 10
-243.9625690170003
 20
252.1915355426373
 30
0.0
  0
VERTEX
  5
630
  8
1
  6
CONTINUOUS
 62
     7
 10
-243.982629049927
 20
252.2047649442307
 30
0.0
  0
VERTEX
  5
631
  8
1
  6
CONTINUOUS
 62
     7
 10
-244.0033054146647
 20
252.2169893407433
 30
0.0
  0
VERTEX
  5
632
  8
1
  6
CONTINUOUS
 62
     7
 10
-244.0246117323181
 20
252.228228794494
 30
0.0
  0
VERTEX
  5
633
  8
1
  6
CONTINUOUS
 62
     7
 10
-244.0464708740029
 20
252.2384516086931
 30
0.0
  0
VERTEX
  5
634
  8
1
  6
CONTINUOUS
 62
     7
 10
-244.0688057108344
 20
252.2476260865511
 30
0.0
  0
VERTEX
  5
635
  8
1
  6
CONTINUOUS
 62
     7
 10
-244.0915391139283
 20
252.2557205312784
 30
0.0
  0
VERTEX
  5
636
  8
1
  6
CONTINUOUS
 62
     7
 10
-244.1145939544
 20
252.2627032460852
 30
0.0
  0
VERTEX
  5
637
  8
1
  6
CONTINUOUS
 62
     7
 10
-244.1378931033651
 20
252.2685425341822
 30
0.0
  0
VERTEX
  5
638
  8
1
  6
CONTINUOUS
 62
     7
 10
-244.1614452344524
 20
252.2732310550404
 30
0.0
  0
VERTEX
  5
639
  8
1
  6
CONTINUOUS
 62
     7
 10
-244.1852655604661
 20
252.2767820954639
 30
0.0
  0
VERTEX
  5
63A
  8
1
  6
CONTINUOUS
 62
     7
 10
-244.2092708736309
 20
252.2791913296933
 30
0.0
  0
VERTEX
  5
63B
  8
1
  6
CONTINUOUS
 62
     7
 10
-244.2333779661716
 20
252.2804544319691
 30
0.0
  0
VERTEX
  5
63C
  8
1
  6
CONTINUOUS
 62
     7
 10
-244.2575036303128
 20
252.2805670765318
 30
0.0
  0
VERTEX
  5
63D
  8
1
  6
CONTINUOUS
 62
     7
 10
-244.2815646582794
 20
252.2795249376222
 30
0.0
  0
VERTEX
  5
63E
  8
1
  6
CONTINUOUS
 62
     7
 10
-244.3054778422961
 20
252.2773236894805
 30
0.0
  0
VERTEX
  5
63F
  8
1
  6
CONTINUOUS
 62
     7
 10
-244.3292556577024
 20
252.2739524773125
 30
0.0
  0
VERTEX
  5
640
  8
1
  6
CONTINUOUS
 62
     7
 10
-244.3529100639176
 20
252.2694192983314
 30
0.0
  0
VERTEX
  5
641
  8
1
  6
CONTINUOUS
 62
     7
 10
-244.3763611573145
 20
252.2637476282939
 30
0.0
  0
VERTEX
  5
642
  8
1
  6
CONTINUOUS
 62
     7
 10
-244.399529034266
 20
252.256960942957
 30
0.0
  0
VERTEX
  5
643
  8
1
  6
CONTINUOUS
 62
     7
 10
-244.4223337911448
 20
252.2490827180775
 30
0.0
  0
VERTEX
  5
644
  8
1
  6
CONTINUOUS
 62
     7
 10
-244.4446955243237
 20
252.2401364294124
 30
0.0
  0
VERTEX
  5
645
  8
1
  6
CONTINUOUS
 62
     7
 10
-244.4665343301757
 20
252.2301455527187
 30
0.0
  0
VERTEX
  5
646
  8
1
  6
CONTINUOUS
 62
     7
 10
-244.4878638541969
 20
252.2190927529114
 30
0.0
  0
VERTEX
  5
647
  8
1
  6
CONTINUOUS
 62
     7
 10
-244.5086923236055
 20
252.2069840706957
 30
0.0
  0
VERTEX
  5
648
  8
1
  6
CONTINUOUS
 62
     7
 10
-244.5289521001143
 20
252.1938681046346
 30
0.0
  0
VERTEX
  5
649
  8
1
  6
CONTINUOUS
 62
     7
 10
-244.5485755454361
 20
252.1797934532913
 30
0.0
  0
VERTEX
  5
64A
  8
1
  6
CONTINUOUS
 62
     7
 10
-244.5674950212839
 20
252.1648087152288
 30
0.0
  0
VERTEX
  5
64B
  8
1
  6
CONTINUOUS
 62
     7
 10
-244.5856428893705
 20
252.1489624890102
 30
0.0
  0
VERTEX
  5
64C
  8
1
  6
CONTINUOUS
 62
     7
 10
-244.6029515114089
 20
252.1323033731988
 30
0.0
  0
VERTEX
  5
64D
  8
1
  6
CONTINUOUS
 62
     7
 10
-244.6190493642309
 20
252.1152453555876
 30
0.0
  0
VERTEX
  5
64E
  8
1
  6
CONTINUOUS
 62
     7
 10
-244.6343469238062
 20
252.0974320354956
 30
0.0
  0
VERTEX
  5
64F
  8
1
  6
CONTINUOUS
 62
     7
 10
-244.6487952578477
 20
252.0789232392036
 30
0.0
  0
VERTEX
  5
650
  8
1
  6
CONTINUOUS
 62
     7
 10
-244.662345434068
 20
252.0597787929923
 30
0.0
  0
SEQEND
  5
968
  8
1
  6
CONTINUOUS
 62
     7
  0
LINE
  5
1EB
  8
1
  6
CONTINUOUS
 62
     9
 10
-244.662345434068
 20
252.0597787929923
 30
0.0
 11
-244.6405714667528
 21
252.1389029801578
 31
0.0
  0
LINE
  5
1EC
  8
1
  6
CONTINUOUS
 62
     9
 10
-284.8542031716361
 20
249.7030754366516
 30
0.0
 11
-282.8885808064245
 21
249.7030754366516
 31
0.0
  0
LINE
  5
1ED
  8
1
  6
CONTINUOUS
 62
     9
 10
-303.8542031716361
 20
249.7030754366516
 30
0.0
 11
-301.8885808064245
 21
249.7030754366516
 31
0.0
  0
LINE
  5
1EE
  8
1
  6
CONTINUOUS
 62
     7
 10
-279.8377989204803
 20
260.2177934323199
 30
0.0
 11
-278.3589856680488
 21
262.2041784798736
 31
0.0
  0
LINE
  5
1EF
  8
1
  6
CONTINUOUS
 62
     7
 10
-278.3589856680488
 20
262.2041784798736
 30
0.0
 11
-249.3959000155065
 21
262.2041784798736
 31
0.0
  0
LINE
  5
1F0
  8
1
  6
CONTINUOUS
 62
     7
 10
-279.8377005009258
 20
260.1955280982469
 30
0.0
 11
-279.8377989204803
 21
260.2177934323199
 31
0.0
  0
LINE
  5
1F1
  8
1
  6
CONTINUOUS
 62
     9
 10
-272.0222297294661
 20
255.2289911218365
 30
0.0
 11
-272.0475725924025
 21
255.2289911218365
 31
0.0
  0
LINE
  5
1F2
  8
1
  6
CONTINUOUS
 62
     9
 10
-260.7205542485945
 20
255.2289911218365
 30
0.0
 11
-260.695211385658
 21
255.2289911218365
 31
0.0
  0
ARC
  5
1F3
  8
1
  6
CONTINUOUS
 62
     7
 10
-266.3713919890303
 20
255.2289911218365
 30
0.0
 40
5.676180603372279
 50
180.0
 51
0.0
  0
LINE
  5
1F4
  8
1
  6
CONTINUOUS
 62
     9
 10
-255.0222297294661
 20
255.2289911218365
 30
0.0
 11
-255.0475725924026
 21
255.2289911218365
 31
0.0
  0
ARC
  5
1F5
  8
1
  6
CONTINUOUS
 62
     7
 10
-249.3713919890302
 20
255.2289911218365
 30
0.0
 40
5.676180603372278
 50
180.0
 51
326.0592453494596
  0
LINE
  5
1F6
  8
1
  6
CONTINUOUS
 62
     7
 10
-288.8713919890303
 20
253.7202642540458
 30
0.0
 11
-297.8713919890303
 21
253.7202642540458
 31
0.0
  0
LINE
  5
1F7
  8
1
  6
CONTINUOUS
 62
     7
 10
-286.6213919890303
 20
253.7289911218365
 30
0.0
 11
-300.1213919890303
 21
253.7289911218365
 31
0.0
  0
LINE
  5
1F8
  8
1
  6
CONTINUOUS
 62
     9
 10
-260.695211385658
 20
259.2028295569321
 30
0.0
 11
-260.7202497012534
 21
259.2278678725275
 31
0.0
  0
LINE
  5
1F9
  8
1
  6
CONTINUOUS
 62
     7
 10
-260.695211385658
 20
259.2028295569321
 30
0.0
 11
-260.695211385658
 21
255.2289911218365
 31
0.0
  0
LINE
  5
1FA
  8
1
  6
CONTINUOUS
 62
     7
 10
-255.0475725924025
 20
255.2289911218365
 30
0.0
 11
-255.0475725924025
 21
259.2028295569321
 31
0.0
  0
LINE
  5
1FB
  8
1
  6
CONTINUOUS
 62
     9
 10
-255.0225342768072
 20
259.2278678725276
 30
0.0
 11
-255.0475725924025
 21
259.2028295569322
 31
0.0
  0
LINE
  5
1FC
  8
1
  6
CONTINUOUS
 62
     7
 10
-272.0475725924025
 20
255.2289911218365
 30
0.0
 11
-272.0475725924025
 21
259.2028295569321
 31
0.0
  0
LINE
  5
1FD
  8
1
  6
CONTINUOUS
 62
     9
 10
-272.0225342768072
 20
259.2278678725276
 30
0.0
 11
-272.0475725924025
 21
259.2028295569322
 31
0.0
  0
POLYLINE
  5
1FE
  8
1
  6
CONTINUOUS
 62
     7
 66
     1
 10
0.0
 20
0.0
 30
0.0
  0
VERTEX
  5
651
  8
1
  6
CONTINUOUS
 62
     7
 10
-255.0475725924025
 20
259.2028295569322
 30
0.0
  0
VERTEX
  5
652
  8
1
  6
CONTINUOUS
 62
     7
 10
-255.057179389483
 20
259.3003730321832
 30
0.0
  0
VERTEX
  5
653
  8
1
  6
CONTINUOUS
 62
     7
 10
-255.0856306325804
 20
259.3941668655041
 30
0.0
  0
VERTEX
  5
654
  8
1
  6
CONTINUOUS
 62
     7
 10
-255.1318330620477
 20
259.4806069608365
 30
0.0
  0
VERTEX
  5
655
  8
1
  6
CONTINUOUS
 62
     7
 10
-255.19401131603
 20
259.5563717948368
 30
0.0
  0
VERTEX
  5
656
  8
1
  6
CONTINUOUS
 62
     7
 10
-255.2697761500303
 20
259.618550048819
 30
0.0
  0
VERTEX
  5
657
  8
1
  6
CONTINUOUS
 62
     7
 10
-255.3562162453627
 20
259.6647524782863
 30
0.0
  0
VERTEX
  5
658
  8
1
  6
CONTINUOUS
 62
     7
 10
-255.4500100786835
 20
259.6932037213837
 30
0.0
  0
VERTEX
  5
659
  8
1
  6
CONTINUOUS
 62
     7
 10
-255.5475535539346
 20
259.7028105184642
 30
0.0
  0
SEQEND
  5
969
  8
1
  6
CONTINUOUS
 62
     7
  0
LINE
  5
1FF
  8
1
  6
CONTINUOUS
 62
     9
 10
-255.5475535539346
 20
259.7028105184642
 30
0.0
 11
-255.5225533131003
 21
259.7278107592985
 31
0.0
  0
LINE
  5
200
  8
1
  6
CONTINUOUS
 62
     9
 10
-327.8702306649602
 20
259.7278107592985
 30
0.0
 11
-327.8452304241259
 21
259.7028105184642
 31
0.0
  0
POLYLINE
  5
201
  8
1
  6
CONTINUOUS
 62
     7
 66
     1
 10
0.0
 20
0.0
 30
0.0
  0
VERTEX
  5
65A
  8
1
  6
CONTINUOUS
 62
     7
 10
-327.8452304241259
 20
259.7028105184642
 30
0.0
  0
VERTEX
  5
65B
  8
1
  6
CONTINUOUS
 62
     7
 10
-327.9427738993769
 20
259.6932037213837
 30
0.0
  0
VERTEX
  5
65C
  8
1
  6
CONTINUOUS
 62
     7
 10
-328.0365677326978
 20
259.6647524782863
 30
0.0
  0
VERTEX
  5
65D
  8
1
  6
CONTINUOUS
 62
     7
 10
-328.1230078280302
 20
259.618550048819
 30
0.0
  0
VERTEX
  5
65E
  8
1
  6
CONTINUOUS
 62
     7
 10
-328.1987726620305
 20
259.5563717948368
 30
0.0
  0
VERTEX
  5
65F
  8
1
  6
CONTINUOUS
 62
     7
 10
-328.2609509160127
 20
259.4806069608365
 30
0.0
  0
VERTEX
  5
660
  8
1
  6
CONTINUOUS
 62
     7
 10
-328.3071533454801
 20
259.3941668655041
 30
0.0
  0
VERTEX
  5
661
  8
1
  6
CONTINUOUS
 62
     7
 10
-328.3356045885774
 20
259.3003730321832
 30
0.0
  0
VERTEX
  5
662
  8
1
  6
CONTINUOUS
 62
     7
 10
-328.3452113856579
 20
259.2028295569322
 30
0.0
  0
SEQEND
  5
96A
  8
1
  6
CONTINUOUS
 62
     7
  0
LINE
  5
202
  8
1
  6
CONTINUOUS
 62
     9
 10
-260.2202306649602
 20
259.7278107592985
 30
0.0
 11
-260.1952304241259
 21
259.7028105184642
 31
0.0
  0
POLYLINE
  5
203
  8
1
  6
CONTINUOUS
 62
     7
 66
     1
 10
0.0
 20
0.0
 30
0.0
  0
VERTEX
  5
663
  8
1
  6
CONTINUOUS
 62
     7
 10
-260.1952304241259
 20
259.7028105184642
 30
0.0
  0
VERTEX
  5
664
  8
1
  6
CONTINUOUS
 62
     7
 10
-260.2927738993769
 20
259.6932037213837
 30
0.0
  0
VERTEX
  5
665
  8
1
  6
CONTINUOUS
 62
     7
 10
-260.3865677326978
 20
259.6647524782863
 30
0.0
  0
VERTEX
  5
666
  8
1
  6
CONTINUOUS
 62
     7
 10
-260.4730078280302
 20
259.618550048819
 30
0.0
  0
VERTEX
  5
667
  8
1
  6
CONTINUOUS
 62
     7
 10
-260.5487726620306
 20
259.5563717948368
 30
0.0
  0
VERTEX
  5
668
  8
1
  6
CONTINUOUS
 62
     7
 10
-260.6109509160128
 20
259.4806069608365
 30
0.0
  0
VERTEX
  5
669
  8
1
  6
CONTINUOUS
 62
     7
 10
-260.6571533454801
 20
259.3941668655041
 30
0.0
  0
VERTEX
  5
66A
  8
1
  6
CONTINUOUS
 62
     7
 10
-260.6856045885775
 20
259.3003730321832
 30
0.0
  0
VERTEX
  5
66B
  8
1
  6
CONTINUOUS
 62
     7
 10
-260.695211385658
 20
259.2028295569322
 30
0.0
  0
SEQEND
  5
96B
  8
1
  6
CONTINUOUS
 62
     7
  0
LINE
  5
204
  8
1
  6
CONTINUOUS
 62
     9
 10
-275.3702306649602
 20
259.7278107592985
 30
0.0
 11
-275.3452304241259
 21
259.7028105184642
 31
0.0
  0
POLYLINE
  5
205
  8
1
  6
CONTINUOUS
 62
     7
 66
     1
 10
0.0
 20
0.0
 30
0.0
  0
VERTEX
  5
66C
  8
1
  6
CONTINUOUS
 62
     7
 10
-275.3452304241259
 20
259.7028105184642
 30
0.0
  0
VERTEX
  5
66D
  8
1
  6
CONTINUOUS
 62
     7
 10
-275.4427738993769
 20
259.6932037213837
 30
0.0
  0
VERTEX
  5
66E
  8
1
  6
CONTINUOUS
 62
     7
 10
-275.5365677326978
 20
259.6647524782863
 30
0.0
  0
VERTEX
  5
66F
  8
1
  6
CONTINUOUS
 62
     7
 10
-275.6230078280302
 20
259.618550048819
 30
0.0
  0
VERTEX
  5
670
  8
1
  6
CONTINUOUS
 62
     7
 10
-275.6987726620305
 20
259.5563717948368
 30
0.0
  0
VERTEX
  5
671
  8
1
  6
CONTINUOUS
 62
     7
 10
-275.7609509160127
 20
259.4806069608365
 30
0.0
  0
VERTEX
  5
672
  8
1
  6
CONTINUOUS
 62
     7
 10
-275.8071533454801
 20
259.3941668655041
 30
0.0
  0
VERTEX
  5
673
  8
1
  6
CONTINUOUS
 62
     7
 10
-275.8356045885774
 20
259.3003730321832
 30
0.0
  0
VERTEX
  5
674
  8
1
  6
CONTINUOUS
 62
     7
 10
-275.8452113856579
 20
259.2028295569322
 30
0.0
  0
SEQEND
  5
96C
  8
1
  6
CONTINUOUS
 62
     7
  0
POLYLINE
  5
206
  8
1
  6
CONTINUOUS
 62
     7
 66
     1
 10
0.0
 20
0.0
 30
0.0
  0
VERTEX
  5
675
  8
1
  6
CONTINUOUS
 62
     7
 10
-272.0475725924026
 20
259.2028295569322
 30
0.0
  0
VERTEX
  5
676
  8
1
  6
CONTINUOUS
 62
     7
 10
-272.0571793894831
 20
259.3003730321832
 30
0.0
  0
VERTEX
  5
677
  8
1
  6
CONTINUOUS
 62
     7
 10
-272.0856306325804
 20
259.3941668655041
 30
0.0
  0
VERTEX
  5
678
  8
1
  6
CONTINUOUS
 62
     7
 10
-272.1318330620477
 20
259.4806069608365
 30
0.0
  0
VERTEX
  5
679
  8
1
  6
CONTINUOUS
 62
     7
 10
-272.19401131603
 20
259.5563717948368
 30
0.0
  0
VERTEX
  5
67A
  8
1
  6
CONTINUOUS
 62
     7
 10
-272.2697761500303
 20
259.618550048819
 30
0.0
  0
VERTEX
  5
67B
  8
1
  6
CONTINUOUS
 62
     7
 10
-272.3562162453627
 20
259.6647524782863
 30
0.0
  0
VERTEX
  5
67C
  8
1
  6
CONTINUOUS
 62
     7
 10
-272.4500100786836
 20
259.6932037213837
 30
0.0
  0
VERTEX
  5
67D
  8
1
  6
CONTINUOUS
 62
     7
 10
-272.5475535539346
 20
259.7028105184642
 30
0.0
  0
SEQEND
  5
96D
  8
1
  6
CONTINUOUS
 62
     7
  0
LINE
  5
207
  8
1
  6
CONTINUOUS
 62
     9
 10
-272.5475535539346
 20
259.7028105184642
 30
0.0
 11
-272.5225533131003
 21
259.7278107592985
 31
0.0
  0
POLYLINE
  5
208
  8
1
  6
CONTINUOUS
 62
     7
 66
     1
 10
0.0
 20
0.0
 30
0.0
  0
VERTEX
  5
67E
  8
1
  6
CONTINUOUS
 62
     7
 10
-310.8975725924025
 20
259.2028295569322
 30
0.0
  0
VERTEX
  5
67F
  8
1
  6
CONTINUOUS
 62
     7
 10
-310.907179389483
 20
259.3003730321832
 30
0.0
  0
VERTEX
  5
680
  8
1
  6
CONTINUOUS
 62
     7
 10
-310.9356306325804
 20
259.3941668655041
 30
0.0
  0
VERTEX
  5
681
  8
1
  6
CONTINUOUS
 62
     7
 10
-310.9818330620477
 20
259.4806069608365
 30
0.0
  0
VERTEX
  5
682
  8
1
  6
CONTINUOUS
 62
     7
 10
-311.0440113160299
 20
259.5563717948368
 30
0.0
  0
VERTEX
  5
683
  8
1
  6
CONTINUOUS
 62
     7
 10
-311.1197761500302
 20
259.618550048819
 30
0.0
  0
VERTEX
  5
684
  8
1
  6
CONTINUOUS
 62
     7
 10
-311.2062162453627
 20
259.6647524782863
 30
0.0
  0
VERTEX
  5
685
  8
1
  6
CONTINUOUS
 62
     7
 10
-311.3000100786836
 20
259.6932037213837
 30
0.0
  0
VERTEX
  5
686
  8
1
  6
CONTINUOUS
 62
     7
 10
-311.3975535539346
 20
259.7028105184642
 30
0.0
  0
SEQEND
  5
96E
  8
1
  6
CONTINUOUS
 62
     7
  0
LINE
  5
209
  8
1
  6
CONTINUOUS
 62
     9
 10
-311.3975535539346
 20
259.7028105184642
 30
0.0
 11
-311.3725533131003
 21
259.7278107592985
 31
0.0
  0
LINE
  5
20A
  8
1
  6
CONTINUOUS
 62
     7
 10
-279.8713919890303
 20
259.2289911218365
 30
0.0
 11
-279.8376294624828
 21
259.262753648384
 31
0.0
  0
LINE
  5
20B
  8
1
  6
CONTINUOUS
 62
     7
 10
-279.8713919890303
 20
260.2289911218365
 30
0.0
 11
-279.8713919890303
 21
259.2289911218365
 31
0.0
  0
LINE
  5
20C
  8
1
  6
CONTINUOUS
 62
     7
 10
-279.8377989204803
 20
260.2177934323199
 30
0.0
 11
-279.8713919890303
 21
260.2289911218365
 31
0.0
  0
LINE
  5
20D
  8
1
  6
CONTINUOUS
 62
     7
 10
-306.8713919890303
 20
259.2289911218365
 30
0.0
 11
-306.9051545155777
 21
259.262753648384
 31
0.0
  0
LINE
  5
20E
  8
1
  6
CONTINUOUS
 62
     7
 10
-308.3713919890303
 20
259.2289911218365
 30
0.0
 11
-306.8713919890303
 21
259.2289911218365
 31
0.0
  0
LINE
  5
20F
  8
1
  6
CONTINUOUS
 62
     7
 10
-306.8713919890303
 20
259.2289911218365
 30
0.0
 11
-306.8713919890303
 21
260.2289911218365
 31
0.0
  0
LINE
  5
210
  8
1
  6
CONTINUOUS
 62
     7
 10
-306.9049850575802
 20
260.2177934323198
 30
0.0
 11
-306.9050834771346
 21
260.1955280982469
 31
0.0
  0
LINE
  5
211
  8
1
  6
CONTINUOUS
 62
     7
 10
-306.8713919890303
 20
260.2289911218365
 30
0.0
 11
-306.9049850575802
 21
260.2177934323198
 31
0.0
  0
LINE
  5
212
  8
1
  6
CONTINUOUS
 62
     7
 10
-279.8713919890303
 20
259.2289911218365
 30
0.0
 11
-278.3713919890303
 21
259.2289911218365
 31
0.0
  0
LINE
  5
213
  8
1
  6
CONTINUOUS
 62
     7
 10
-327.8452304241259
 20
259.7028105184642
 30
0.0
 11
-311.3975535539346
 21
259.7028105184642
 31
0.0
  0
LINE
  5
214
  8
1
  6
CONTINUOUS
 62
     7
 10
-255.5475535539346
 20
259.7028105184642
 30
0.0
 11
-260.1952304241259
 21
259.7028105184642
 31
0.0
  0
LINE
  5
215
  8
1
  6
CONTINUOUS
 62
     7
 10
-272.5475535539346
 20
259.7028105184642
 30
0.0
 11
-275.3452304241259
 21
259.7028105184642
 31
0.0
  0
LINE
  5
216
  8
1
  6
CONTINUOUS
 62
     7
 10
-308.3837983100117
 20
262.2041784798736
 30
0.0
 11
-306.9049850575802
 21
260.2177934323198
 31
0.0
  0
LINE
  5
217
  8
1
  6
CONTINUOUS
 62
     7
 10
-306.8713919890303
 20
260.2289911218365
 30
0.0
 11
-308.3713919890303
 21
262.2289911218365
 31
0.0
  0
LINE
  5
218
  8
1
  6
CONTINUOUS
 62
     7
 10
-278.3713919890303
 20
262.2289911218365
 30
0.0
 11
-279.8713919890303
 21
260.2289911218365
 31
0.0
  0
LINE
  5
219
  8
1
  6
CONTINUOUS
 62
     7
 10
-278.3713919890303
 20
262.2289911218365
 30
0.0
 11
-278.3589856680488
 21
262.2041784798736
 31
0.0
  0
LINE
  5
21A
  8
1
  6
CONTINUOUS
 62
     7
 10
-288.154357478031
 20
241.9075262783422
 30
0.0
 11
-288.1213919890303
 21
241.7289720826437
 31
0.0
  0
POLYLINE
  5
21B
  8
1
  6
CONTINUOUS
 62
     7
 66
     1
 10
0.0
 20
0.0
 30
0.0
  0
VERTEX
  5
687
  8
1
  6
CONTINUOUS
 62
     7
 10
-285.4641237717544
 20
242.2573038169237
 30
0.0
  0
VERTEX
  5
688
  8
1
  6
CONTINUOUS
 62
     7
 10
-285.4672412035562
 20
242.2572661149178
 30
0.0
  0
VERTEX
  5
689
  8
1
  6
CONTINUOUS
 62
     7
 10
-285.49698396819
 20
242.2559276481184
 30
0.0
  0
VERTEX
  5
68A
  8
1
  6
CONTINUOUS
 62
     7
 10
-285.5265489059872
 20
242.252829909492
 30
0.0
  0
VERTEX
  5
68B
  8
1
  6
CONTINUOUS
 62
     7
 10
-285.5558610097178
 20
242.2479890591537
 30
0.0
  0
VERTEX
  5
68C
  8
1
  6
CONTINUOUS
 62
     7
 10
-285.584845272152
 20
242.2414212572187
 30
0.0
  0
VERTEX
  5
68D
  8
1
  6
CONTINUOUS
 62
     7
 10
-285.6145257126697
 20
242.2327919909682
 30
0.0
  0
VERTEX
  5
68E
  8
1
  6
CONTINUOUS
 62
     7
 10
-285.6438561623185
 20
242.2222721843066
 30
0.0
  0
VERTEX
  5
68F
  8
1
  6
CONTINUOUS
 62
     7
 10
-285.6727345774235
 20
242.2098423182735
 30
0.0
  0
VERTEX
  5
690
  8
1
  6
CONTINUOUS
 62
     7
 10
-285.7010589143104
 20
242.1954828739082
 30
0.0
  0
VERTEX
  5
691
  8
1
  6
CONTINUOUS
 62
     7
 10
-285.7287271293042
 20
242.1791743322503
 30
0.0
  0
VERTEX
  5
692
  8
1
  6
CONTINUOUS
 62
     7
 10
-285.7556371787304
 20
242.1608971743392
 30
0.0
  0
VERTEX
  5
693
  8
1
  6
CONTINUOUS
 62
     7
 10
-285.7816870189143
 20
242.1406318812143
 30
0.0
  0
VERTEX
  5
694
  8
1
  6
CONTINUOUS
 62
     7
 10
-285.7990852057044
 20
242.1254906821501
 30
0.0
  0
VERTEX
  5
695
  8
1
  6
CONTINUOUS
 62
     7
 10
-285.8160719523761
 20
242.109282472729
 30
0.0
  0
VERTEX
  5
696
  8
1
  6
CONTINUOUS
 62
     7
 10
-285.8325714200456
 20
242.0919982984445
 30
0.0
  0
VERTEX
  5
697
  8
1
  6
CONTINUOUS
 62
     7
 10
-285.848507769829
 20
242.0736292047902
 30
0.0
  0
VERTEX
  5
698
  8
1
  6
CONTINUOUS
 62
     7
 10
-285.8638051628426
 20
242.0541662372596
 30
0.0
  0
VERTEX
  5
699
  8
1
  6
CONTINUOUS
 62
     7
 10
-285.8783877602025
 20
242.0336004413461
 30
0.0
  0
VERTEX
  5
69A
  8
1
  6
CONTINUOUS
 62
     7
 10
-285.8921797230249
 20
242.0119228625433
 30
0.0
  0
VERTEX
  5
69B
  8
1
  6
CONTINUOUS
 62
     7
 10
-285.9015351763982
 20
241.9956852948883
 30
0.0
  0
VERTEX
  5
69C
  8
1
  6
CONTINUOUS
 62
     7
 10
-285.9104413368411
 20
241.9787956352082
 30
0.0
  0
VERTEX
  5
69D
  8
1
  6
CONTINUOUS
 62
     7
 10
-285.9188446016491
 20
241.9612827429206
 30
0.0
  0
VERTEX
  5
69E
  8
1
  6
CONTINUOUS
 62
     7
 10
-285.9266913681179
 20
241.9431754774431
 30
0.0
  0
VERTEX
  5
69F
  8
1
  6
CONTINUOUS
 62
     7
 10
-285.9339280335429
 20
241.9245026981935
 30
0.0
  0
VERTEX
  5
6A0
  8
1
  6
CONTINUOUS
 62
     7
 10
-285.9405009952197
 20
241.9052932645893
 30
0.0
  0
VERTEX
  5
6A1
  8
1
  6
CONTINUOUS
 62
     7
 10
-285.945008080039
 20
241.8903683031184
 30
0.0
  0
VERTEX
  5
6A2
  8
1
  6
CONTINUOUS
 62
     7
 10
-285.9490989913564
 20
241.8750825085121
 30
0.0
  0
VERTEX
  5
6A3
  8
1
  6
CONTINUOUS
 62
     7
 10
-285.9527521415031
 20
241.8594856973974
 30
0.0
  0
VERTEX
  5
6A4
  8
1
  6
CONTINUOUS
 62
     7
 10
-285.95594594281
 20
241.8436276864012
 30
0.0
  0
VERTEX
  5
6A5
  8
1
  6
CONTINUOUS
 62
     7
 10
-285.9586588076082
 20
241.8275582921506
 30
0.0
  0
VERTEX
  5
6A6
  8
1
  6
CONTINUOUS
 62
     7
 10
-285.9608691482287
 20
241.8113273312725
 30
0.0
  0
VERTEX
  5
6A7
  8
1
  6
CONTINUOUS
 62
     7
 10
-285.9625553770026
 20
241.7949846203938
 30
0.0
  0
VERTEX
  5
6A8
  8
1
  6
CONTINUOUS
 62
     7
 10
-285.9636959062609
 20
241.7785799761416
 30
0.0
  0
SEQEND
  5
96F
  8
1
  6
CONTINUOUS
 62
     7
  0
LINE
  5
21C
  8
1
  6
CONTINUOUS
 62
     7
 10
-285.9636959062609
 20
241.7785799761416
 30
0.0
 11
-285.9648443631727
 21
241.756666112828
 31
0.0
  0
LINE
  5
21D
  8
1
  6
CONTINUOUS
 62
     9
 10
-285.9648443631727
 20
241.756666112828
 30
0.0
 11
-288.1213919890303
 21
241.7289720826436
 31
0.0
  0
POLYLINE
  5
21E
  8
1
  6
CONTINUOUS
 62
     7
 66
     1
 10
0.0
 20
0.0
 30
0.0
  0
VERTEX
  5
6A9
  8
1
  6
CONTINUOUS
 62
     7
 10
-288.6213890600897
 20
242.2289911218365
 30
0.0
  0
VERTEX
  5
6AA
  8
1
  6
CONTINUOUS
 62
     7
 10
-288.600621370368
 20
242.2285579447417
 30
0.0
  0
VERTEX
  5
6AB
  8
1
  6
CONTINUOUS
 62
     7
 10
-288.5798716659556
 20
242.2272613897383
 30
0.0
  0
VERTEX
  5
6AC
  8
1
  6
CONTINUOUS
 62
     7
 10
-288.5591935315667
 20
242.2251059212481
 30
0.0
  0
VERTEX
  5
6AD
  8
1
  6
CONTINUOUS
 62
     7
 10
-288.5386405519155
 20
242.2220960036928
 30
0.0
  0
VERTEX
  5
6AE
  8
1
  6
CONTINUOUS
 62
     7
 10
-288.5176407111264
 20
242.2181066374337
 30
0.0
  0
VERTEX
  5
6AF
  8
1
  6
CONTINUOUS
 62
     7
 10
-288.4968115173991
 20
242.213218849601
 30
0.0
  0
VERTEX
  5
6B0
  8
1
  6
CONTINUOUS
 62
     7
 10
-288.4762097138865
 20
242.2074472400845
 30
0.0
  0
VERTEX
  5
6B1
  8
1
  6
CONTINUOUS
 62
     7
 10
-288.4558920437414
 20
242.200806408774
 30
0.0
  0
VERTEX
  5
6B2
  8
1
  6
CONTINUOUS
 62
     7
 10
-288.436438446035
 20
242.1935234105424
 30
0.0
  0
VERTEX
  5
6B3
  8
1
  6
CONTINUOUS
 62
     7
 10
-288.4172876020642
 20
242.1854316616197
 30
0.0
  0
VERTEX
  5
6B4
  8
1
  6
CONTINUOUS
 62
     7
 10
-288.3984885961085
 20
242.1765531139852
 30
0.0
  0
VERTEX
  5
6B5
  8
1
  6
CONTINUOUS
 62
     7
 10
-288.3800905124469
 20
242.1669097196184
 30
0.0
  0
VERTEX
  5
6B6
  8
1
  6
CONTINUOUS
 62
     7
 10
-288.3615949684877
 20
242.1561941969348
 30
0.0
  0
VERTEX
  5
6B7
  8
1
  6
CONTINUOUS
 62
     7
 10
-288.3435578246157
 20
242.1446873989405
 30
0.0
  0
VERTEX
  5
6B8
  8
1
  6
CONTINUOUS
 62
     7
 10
-288.3260277886459
 20
242.132421885827
 30
0.0
  0
VERTEX
  5
6B9
  8
1
  6
CONTINUOUS
 62
     7
 10
-288.3090535683929
 20
242.1194302177858
 30
0.0
  0
VERTEX
  5
6BA
  8
1
  6
CONTINUOUS
 62
     7
 10
-288.2931070490758
 20
242.1061184343483
 30
0.0
  0
VERTEX
  5
6BB
  8
1
  6
CONTINUOUS
 62
     7
 10
-288.2777139103929
 20
242.0921437063802
 30
0.0
  0
VERTEX
  5
6BC
  8
1
  6
CONTINUOUS
 62
     7
 10
-288.2629132006998
 20
242.0775429958444
 30
0.0
  0
VERTEX
  5
6BD
  8
1
  6
CONTINUOUS
 62
     7
 10
-288.248743968352
 20
242.0623532647038
 30
0.0
  0
VERTEX
  5
6BE
  8
1
  6
CONTINUOUS
 62
     7
 10
-288.2348376471235
 20
242.0461196108346
 30
0.0
  0
VERTEX
  5
6BF
  8
1
  6
CONTINUOUS
 62
     7
 10
-288.2216257818424
 20
242.0292910264505
 30
0.0
  0
VERTEX
  5
6C0
  8
1
  6
CONTINUOUS
 62
     7
 10
-288.2091435542879
 20
242.0119143567202
 30
0.0
  0
VERTEX
  5
6C1
  8
1
  6
CONTINUOUS
 62
     7
 10
-288.2067133487744
 20
242.0083435881542
 30
0.0
  0
SEQEND
  5
970
  8
1
  6
CONTINUOUS
 62
     7
  0
POLYLINE
  5
21F
  8
1
  6
CONTINUOUS
 62
     7
 66
     1
 10
0.0
 20
0.0
 30
0.0
  0
VERTEX
  5
6C2
  8
1
  6
CONTINUOUS
 62
     7
 10
-285.4656075772294
 20
242.2289911218365
 30
0.0
  0
VERTEX
  5
6C3
  8
1
  6
CONTINUOUS
 62
     7
 10
-285.5599412277569
 20
242.2200113202177
 30
0.0
  0
VERTEX
  5
6C4
  8
1
  6
CONTINUOUS
 62
     7
 10
-285.6508866891093
 20
242.193394450428
 30
0.0
  0
VERTEX
  5
6C5
  8
1
  6
CONTINUOUS
 62
     7
 10
-285.7351773968681
 20
242.1500965329056
 30
0.0
  0
VERTEX
  5
6C6
  8
1
  6
CONTINUOUS
 62
     7
 10
-285.8097858109809
 20
242.0916727352714
 30
0.0
  0
VERTEX
  5
6C7
  8
1
  6
CONTINUOUS
 62
     7
 10
-285.872032158458
 20
242.0202215140701
 30
0.0
  0
VERTEX
  5
6C8
  8
1
  6
CONTINUOUS
 62
     7
 10
-285.919680685026
 20
241.9383092427454
 30
0.0
  0
VERTEX
  5
6C9
  8
1
  6
CONTINUOUS
 62
     7
 10
-285.9510199585892
 20
241.8488780330532
 30
0.0
  0
VERTEX
  5
6CA
  8
1
  6
CONTINUOUS
 62
     7
 10
-285.9649243401724
 20
241.7551400607651
 30
0.0
  0
SEQEND
  5
971
  8
1
  6
CONTINUOUS
 62
     7
  0
LINE
  5
220
  8
1
  6
CONTINUOUS
 62
     7
 10
-282.5360706292861
 20
242.0083435881542
 30
0.0
 11
-282.5663463625748
 21
241.9570514444115
 31
0.0
  0
LINE
  5
221
  8
1
  6
CONTINUOUS
 62
     9
 10
-282.6223736741795
 20
241.7297298532539
 30
0.0
 11
-284.7779396148878
 21
241.756666112828
 31
0.0
  0
POLYLINE
  5
222
  8
1
  6
CONTINUOUS
 62
     7
 66
     1
 10
0.0
 20
0.0
 30
0.0
  0
VERTEX
  5
6CB
  8
1
  6
CONTINUOUS
 62
     7
 10
-284.7790880717995
 20
241.7785799761416
 30
0.0
  0
VERTEX
  5
6CC
  8
1
  6
CONTINUOUS
 62
     7
 10
-284.7802286010579
 20
241.7949846203938
 30
0.0
  0
VERTEX
  5
6CD
  8
1
  6
CONTINUOUS
 62
     7
 10
-284.7819148298318
 20
241.8113273312725
 30
0.0
  0
VERTEX
  5
6CE
  8
1
  6
CONTINUOUS
 62
     7
 10
-284.7841251704523
 20
241.8275582921506
 30
0.0
  0
VERTEX
  5
6CF
  8
1
  6
CONTINUOUS
 62
     7
 10
-284.7868380352505
 20
241.8436276864012
 30
0.0
  0
VERTEX
  5
6D0
  8
1
  6
CONTINUOUS
 62
     7
 10
-284.7900318365574
 20
241.8594856973974
 30
0.0
  0
VERTEX
  5
6D1
  8
1
  6
CONTINUOUS
 62
     7
 10
-284.7936849867041
 20
241.8750825085121
 30
0.0
  0
VERTEX
  5
6D2
  8
1
  6
CONTINUOUS
 62
     7
 10
-284.7977758980215
 20
241.8903683031184
 30
0.0
  0
VERTEX
  5
6D3
  8
1
  6
CONTINUOUS
 62
     7
 10
-284.8022829828408
 20
241.9052932645893
 30
0.0
  0
VERTEX
  5
6D4
  8
1
  6
CONTINUOUS
 62
     7
 10
-284.8088559445176
 20
241.9245026981935
 30
0.0
  0
VERTEX
  5
6D5
  8
1
  6
CONTINUOUS
 62
     7
 10
-284.8160926099426
 20
241.9431754774431
 30
0.0
  0
VERTEX
  5
6D6
  8
1
  6
CONTINUOUS
 62
     7
 10
-284.8239393764114
 20
241.9612827429206
 30
0.0
  0
VERTEX
  5
6D7
  8
1
  6
CONTINUOUS
 62
     7
 10
-284.8323426412194
 20
241.9787956352082
 30
0.0
  0
VERTEX
  5
6D8
  8
1
  6
CONTINUOUS
 62
     7
 10
-284.8412488016623
 20
241.9956852948883
 30
0.0
  0
VERTEX
  5
6D9
  8
1
  6
CONTINUOUS
 62
     7
 10
-284.8506042550356
 20
242.0119228625433
 30
0.0
  0
VERTEX
  5
6DA
  8
1
  6
CONTINUOUS
 62
     7
 10
-284.864396217858
 20
242.0336004413461
 30
0.0
  0
VERTEX
  5
6DB
  8
1
  6
CONTINUOUS
 62
     7
 10
-284.8789788152179
 20
242.0541662372596
 30
0.0
  0
VERTEX
  5
6DC
  8
1
  6
CONTINUOUS
 62
     7
 10
-284.8942762082315
 20
242.0736292047902
 30
0.0
  0
VERTEX
  5
6DD
  8
1
  6
CONTINUOUS
 62
     7
 10
-284.9102125580149
 20
242.0919982984446
 30
0.0
  0
VERTEX
  5
6DE
  8
1
  6
CONTINUOUS
 62
     7
 10
-284.9267120256844
 20
242.109282472729
 30
0.0
  0
VERTEX
  5
6DF
  8
1
  6
CONTINUOUS
 62
     7
 10
-284.9436987723561
 20
242.1254906821501
 30
0.0
  0
VERTEX
  5
6E0
  8
1
  6
CONTINUOUS
 62
     7
 10
-284.9610969591462
 20
242.1406318812143
 30
0.0
  0
VERTEX
  5
6E1
  8
1
  6
CONTINUOUS
 62
     7
 10
-284.9871467993301
 20
242.1608971743392
 30
0.0
  0
VERTEX
  5
6E2
  8
1
  6
CONTINUOUS
 62
     7
 10
-285.0140568487564
 20
242.1791743322503
 30
0.0
  0
VERTEX
  5
6E3
  8
1
  6
CONTINUOUS
 62
     7
 10
-285.0417250637501
 20
242.1954828739082
 30
0.0
  0
VERTEX
  5
6E4
  8
1
  6
CONTINUOUS
 62
     7
 10
-285.0700494006369
 20
242.2098423182735
 30
0.0
  0
VERTEX
  5
6E5
  8
1
  6
CONTINUOUS
 62
     7
 10
-285.0989278157421
 20
242.2222721843066
 30
0.0
  0
VERTEX
  5
6E6
  8
1
  6
CONTINUOUS
 62
     7
 10
-285.1282582653908
 20
242.2327919909682
 30
0.0
  0
VERTEX
  5
6E7
  8
1
  6
CONTINUOUS
 62
     7
 10
-285.1579387059085
 20
242.2414212572187
 30
0.0
  0
VERTEX
  5
6E8
  8
1
  6
CONTINUOUS
 62
     7
 10
-285.1869229683427
 20
242.2479890591537
 30
0.0
  0
VERTEX
  5
6E9
  8
1
  6
CONTINUOUS
 62
     7
 10
-285.2162350720735
 20
242.252829909492
 30
0.0
  0
VERTEX
  5
6EA
  8
1
  6
CONTINUOUS
 62
     7
 10
-285.2458000098707
 20
242.2559276481184
 30
0.0
  0
VERTEX
  5
6EB
  8
1
  6
CONTINUOUS
 62
     7
 10
-285.2755427745043
 20
242.2572661149178
 30
0.0
  0
VERTEX
  5
6EC
  8
1
  6
CONTINUOUS
 62
     7
 10
-285.2786602063061
 20
242.2573038169237
 30
0.0
  0
SEQEND
  5
972
  8
1
  6
CONTINUOUS
 62
     7
  0
POLYLINE
  5
223
  8
1
  6
CONTINUOUS
 62
     7
 66
     1
 10
0.0
 20
0.0
 30
0.0
  0
VERTEX
  5
6ED
  8
1
  6
CONTINUOUS
 62
     7
 10
-282.1213949179709
 20
242.2289911218365
 30
0.0
  0
VERTEX
  5
6EE
  8
1
  6
CONTINUOUS
 62
     7
 10
-282.1421626076925
 20
242.2285579447417
 30
0.0
  0
VERTEX
  5
6EF
  8
1
  6
CONTINUOUS
 62
     7
 10
-282.1629123121049
 20
242.2272613897383
 30
0.0
  0
VERTEX
  5
6F0
  8
1
  6
CONTINUOUS
 62
     7
 10
-282.1835904464939
 20
242.2251059212481
 30
0.0
  0
VERTEX
  5
6F1
  8
1
  6
CONTINUOUS
 62
     7
 10
-282.204143426145
 20
242.2220960036928
 30
0.0
  0
VERTEX
  5
6F2
  8
1
  6
CONTINUOUS
 62
     7
 10
-282.2251432669341
 20
242.2181066374337
 30
0.0
  0
VERTEX
  5
6F3
  8
1
  6
CONTINUOUS
 62
     7
 10
-282.2459724606613
 20
242.213218849601
 30
0.0
  0
VERTEX
  5
6F4
  8
1
  6
CONTINUOUS
 62
     7
 10
-282.266574264174
 20
242.2074472400845
 30
0.0
  0
VERTEX
  5
6F5
  8
1
  6
CONTINUOUS
 62
     7
 10
-282.2868919343192
 20
242.200806408774
 30
0.0
  0
VERTEX
  5
6F6
  8
1
  6
CONTINUOUS
 62
     7
 10
-282.3063455320255
 20
242.1935234105424
 30
0.0
  0
VERTEX
  5
6F7
  8
1
  6
CONTINUOUS
 62
     7
 10
-282.3254963759963
 20
242.1854316616197
 30
0.0
  0
VERTEX
  5
6F8
  8
1
  6
CONTINUOUS
 62
     7
 10
-282.3442953819521
 20
242.1765531139852
 30
0.0
  0
VERTEX
  5
6F9
  8
1
  6
CONTINUOUS
 62
     7
 10
-282.3626934656136
 20
242.1669097196184
 30
0.0
  0
VERTEX
  5
6FA
  8
1
  6
CONTINUOUS
 62
     7
 10
-282.3811890095729
 20
242.1561941969348
 30
0.0
  0
VERTEX
  5
6FB
  8
1
  6
CONTINUOUS
 62
     7
 10
-282.3992261534448
 20
242.1446873989405
 30
0.0
  0
VERTEX
  5
6FC
  8
1
  6
CONTINUOUS
 62
     7
 10
-282.4167561894146
 20
242.132421885827
 30
0.0
  0
VERTEX
  5
6FD
  8
1
  6
CONTINUOUS
 62
     7
 10
-282.4337304096676
 20
242.1194302177858
 30
0.0
  0
VERTEX
  5
6FE
  8
1
  6
CONTINUOUS
 62
     7
 10
-282.4496769289847
 20
242.1061184343483
 30
0.0
  0
VERTEX
  5
6FF
  8
1
  6
CONTINUOUS
 62
     7
 10
-282.4650700676676
 20
242.0921437063802
 30
0.0
  0
VERTEX
  5
700
  8
1
  6
CONTINUOUS
 62
     7
 10
-282.4798707773607
 20
242.0775429958444
 30
0.0
  0
VERTEX
  5
701
  8
1
  6
CONTINUOUS
 62
     7
 10
-282.4940400097085
 20
242.0623532647038
 30
0.0
  0
VERTEX
  5
702
  8
1
  6
CONTINUOUS
 62
     7
 10
-282.507946330937
 20
242.0461196108346
 30
0.0
  0
VERTEX
  5
703
  8
1
  6
CONTINUOUS
 62
     7
 10
-282.5211581962182
 20
242.0292910264505
 30
0.0
  0
VERTEX
  5
704
  8
1
  6
CONTINUOUS
 62
     7
 10
-282.5336404237726
 20
242.0119143567202
 30
0.0
  0
VERTEX
  5
705
  8
1
  6
CONTINUOUS
 62
     7
 10
-282.5360706292861
 20
242.0083435881542
 30
0.0
  0
SEQEND
  5
973
  8
1
  6
CONTINUOUS
 62
     7
  0
LINE
  5
224
  8
1
  6
CONTINUOUS
 62
     7
 10
-282.6213919890303
 20
241.7289720826436
 30
0.0
 11
-282.6223736741795
 21
241.7297298532539
 31
0.0
  0
LINE
  5
225
  8
1
  6
CONTINUOUS
 62
     7
 10
-284.7779396148878
 20
241.756666112828
 30
0.0
 11
-284.7790880717996
 21
241.7785799761416
 31
0.0
  0
POLYLINE
  5
226
  8
1
  6
CONTINUOUS
 62
     7
 66
     1
 10
0.0
 20
0.0
 30
0.0
  0
VERTEX
  5
706
  8
1
  6
CONTINUOUS
 62
     7
 10
-284.7778596378881
 20
241.7551400607651
 30
0.0
  0
VERTEX
  5
707
  8
1
  6
CONTINUOUS
 62
     7
 10
-284.7917640194713
 20
241.8488780330532
 30
0.0
  0
VERTEX
  5
708
  8
1
  6
CONTINUOUS
 62
     7
 10
-284.8231032930345
 20
241.9383092427454
 30
0.0
  0
VERTEX
  5
709
  8
1
  6
CONTINUOUS
 62
     7
 10
-284.8707518196024
 20
242.0202215140701
 30
0.0
  0
VERTEX
  5
70A
  8
1
  6
CONTINUOUS
 62
     7
 10
-284.9329981670795
 20
242.0916727352714
 30
0.0
  0
VERTEX
  5
70B
  8
1
  6
CONTINUOUS
 62
     7
 10
-285.0076065811924
 20
242.1500965329056
 30
0.0
  0
VERTEX
  5
70C
  8
1
  6
CONTINUOUS
 62
     7
 10
-285.0918972889511
 20
242.193394450428
 30
0.0
  0
VERTEX
  5
70D
  8
1
  6
CONTINUOUS
 62
     7
 10
-285.1828427503036
 20
242.2200113202177
 30
0.0
  0
VERTEX
  5
70E
  8
1
  6
CONTINUOUS
 62
     7
 10
-285.277176400831
 20
242.2289911218365
 30
0.0
  0
SEQEND
  5
974
  8
1
  6
CONTINUOUS
 62
     7
  0
LINE
  5
227
  8
1
  6
CONTINUOUS
 62
     7
 10
-250.1543574780309
 20
241.9075262783421
 30
0.0
 11
-250.1213919890303
 21
241.7289720826437
 31
0.0
  0
POLYLINE
  5
228
  8
1
  6
CONTINUOUS
 62
     7
 66
     1
 10
0.0
 20
0.0
 30
0.0
  0
VERTEX
  5
70F
  8
1
  6
CONTINUOUS
 62
     7
 10
-247.4641237717544
 20
242.2573038169237
 30
0.0
  0
VERTEX
  5
710
  8
1
  6
CONTINUOUS
 62
     7
 10
-247.4672412035562
 20
242.2572661149178
 30
0.0
  0
VERTEX
  5
711
  8
1
  6
CONTINUOUS
 62
     7
 10
-247.49698396819
 20
242.2559276481184
 30
0.0
  0
VERTEX
  5
712
  8
1
  6
CONTINUOUS
 62
     7
 10
-247.5265489059872
 20
242.252829909492
 30
0.0
  0
VERTEX
  5
713
  8
1
  6
CONTINUOUS
 62
     7
 10
-247.5558610097179
 20
242.2479890591537
 30
0.0
  0
VERTEX
  5
714
  8
1
  6
CONTINUOUS
 62
     7
 10
-247.584845272152
 20
242.2414212572187
 30
0.0
  0
VERTEX
  5
715
  8
1
  6
CONTINUOUS
 62
     7
 10
-247.6145257126697
 20
242.2327919909682
 30
0.0
  0
VERTEX
  5
716
  8
1
  6
CONTINUOUS
 62
     7
 10
-247.6438561623185
 20
242.2222721843066
 30
0.0
  0
VERTEX
  5
717
  8
1
  6
CONTINUOUS
 62
     7
 10
-247.6727345774235
 20
242.2098423182735
 30
0.0
  0
VERTEX
  5
718
  8
1
  6
CONTINUOUS
 62
     7
 10
-247.7010589143104
 20
242.1954828739082
 30
0.0
  0
VERTEX
  5
719
  8
1
  6
CONTINUOUS
 62
     7
 10
-247.7287271293042
 20
242.1791743322503
 30
0.0
  0
VERTEX
  5
71A
  8
1
  6
CONTINUOUS
 62
     7
 10
-247.7556371787304
 20
242.1608971743392
 30
0.0
  0
VERTEX
  5
71B
  8
1
  6
CONTINUOUS
 62
     7
 10
-247.7816870189143
 20
242.1406318812143
 30
0.0
  0
VERTEX
  5
71C
  8
1
  6
CONTINUOUS
 62
     7
 10
-247.7990852057044
 20
242.1254906821501
 30
0.0
  0
VERTEX
  5
71D
  8
1
  6
CONTINUOUS
 62
     7
 10
-247.8160719523761
 20
242.109282472729
 30
0.0
  0
VERTEX
  5
71E
  8
1
  6
CONTINUOUS
 62
     7
 10
-247.8325714200456
 20
242.0919982984445
 30
0.0
  0
VERTEX
  5
71F
  8
1
  6
CONTINUOUS
 62
     7
 10
-247.848507769829
 20
242.0736292047902
 30
0.0
  0
VERTEX
  5
720
  8
1
  6
CONTINUOUS
 62
     7
 10
-247.8638051628426
 20
242.0541662372596
 30
0.0
  0
VERTEX
  5
721
  8
1
  6
CONTINUOUS
 62
     7
 10
-247.8783877602025
 20
242.0336004413461
 30
0.0
  0
VERTEX
  5
722
  8
1
  6
CONTINUOUS
 62
     7
 10
-247.8921797230249
 20
242.0119228625433
 30
0.0
  0
VERTEX
  5
723
  8
1
  6
CONTINUOUS
 62
     7
 10
-247.9015351763982
 20
241.9956852948883
 30
0.0
  0
VERTEX
  5
724
  8
1
  6
CONTINUOUS
 62
     7
 10
-247.910441336841
 20
241.9787956352082
 30
0.0
  0
VERTEX
  5
725
  8
1
  6
CONTINUOUS
 62
     7
 10
-247.9188446016491
 20
241.9612827429206
 30
0.0
  0
VERTEX
  5
726
  8
1
  6
CONTINUOUS
 62
     7
 10
-247.9266913681179
 20
241.9431754774431
 30
0.0
  0
VERTEX
  5
727
  8
1
  6
CONTINUOUS
 62
     7
 10
-247.9339280335429
 20
241.9245026981935
 30
0.0
  0
VERTEX
  5
728
  8
1
  6
CONTINUOUS
 62
     7
 10
-247.9405009952197
 20
241.9052932645893
 30
0.0
  0
VERTEX
  5
729
  8
1
  6
CONTINUOUS
 62
     7
 10
-247.945008080039
 20
241.8903683031184
 30
0.0
  0
VERTEX
  5
72A
  8
1
  6
CONTINUOUS
 62
     7
 10
-247.9490989913564
 20
241.8750825085121
 30
0.0
  0
VERTEX
  5
72B
  8
1
  6
CONTINUOUS
 62
     7
 10
-247.9527521415031
 20
241.8594856973974
 30
0.0
  0
VERTEX
  5
72C
  8
1
  6
CONTINUOUS
 62
     7
 10
-247.95594594281
 20
241.8436276864012
 30
0.0
  0
VERTEX
  5
72D
  8
1
  6
CONTINUOUS
 62
     7
 10
-247.9586588076082
 20
241.8275582921506
 30
0.0
  0
VERTEX
  5
72E
  8
1
  6
CONTINUOUS
 62
     7
 10
-247.9608691482287
 20
241.8113273312725
 30
0.0
  0
VERTEX
  5
72F
  8
1
  6
CONTINUOUS
 62
     7
 10
-247.9625553770026
 20
241.7949846203938
 30
0.0
  0
VERTEX
  5
730
  8
1
  6
CONTINUOUS
 62
     7
 10
-247.9636959062609
 20
241.7785799761416
 30
0.0
  0
SEQEND
  5
975
  8
1
  6
CONTINUOUS
 62
     7
  0
LINE
  5
229
  8
1
  6
CONTINUOUS
 62
     7
 10
-247.9636959062609
 20
241.7785799761416
 30
0.0
 11
-247.9648443631727
 21
241.756666112828
 31
0.0
  0
LINE
  5
22A
  8
1
  6
CONTINUOUS
 62
     9
 10
-247.9648443631727
 20
241.756666112828
 30
0.0
 11
-250.1213919890303
 21
241.7289720826436
 31
0.0
  0
POLYLINE
  5
22B
  8
1
  6
CONTINUOUS
 62
     7
 66
     1
 10
0.0
 20
0.0
 30
0.0
  0
VERTEX
  5
731
  8
1
  6
CONTINUOUS
 62
     7
 10
-250.6213890600896
 20
242.2289911218365
 30
0.0
  0
VERTEX
  5
732
  8
1
  6
CONTINUOUS
 62
     7
 10
-250.600621370368
 20
242.2285579447417
 30
0.0
  0
VERTEX
  5
733
  8
1
  6
CONTINUOUS
 62
     7
 10
-250.5798716659556
 20
242.2272613897383
 30
0.0
  0
VERTEX
  5
734
  8
1
  6
CONTINUOUS
 62
     7
 10
-250.5591935315666
 20
242.2251059212481
 30
0.0
  0
VERTEX
  5
735
  8
1
  6
CONTINUOUS
 62
     7
 10
-250.5386405519155
 20
242.2220960036928
 30
0.0
  0
VERTEX
  5
736
  8
1
  6
CONTINUOUS
 62
     7
 10
-250.5176407111263
 20
242.2181066374337
 30
0.0
  0
VERTEX
  5
737
  8
1
  6
CONTINUOUS
 62
     7
 10
-250.4968115173992
 20
242.213218849601
 30
0.0
  0
VERTEX
  5
738
  8
1
  6
CONTINUOUS
 62
     7
 10
-250.4762097138865
 20
242.2074472400845
 30
0.0
  0
VERTEX
  5
739
  8
1
  6
CONTINUOUS
 62
     7
 10
-250.4558920437413
 20
242.200806408774
 30
0.0
  0
VERTEX
  5
73A
  8
1
  6
CONTINUOUS
 62
     7
 10
-250.436438446035
 20
242.1935234105424
 30
0.0
  0
VERTEX
  5
73B
  8
1
  6
CONTINUOUS
 62
     7
 10
-250.4172876020642
 20
242.1854316616197
 30
0.0
  0
VERTEX
  5
73C
  8
1
  6
CONTINUOUS
 62
     7
 10
-250.3984885961084
 20
242.1765531139852
 30
0.0
  0
VERTEX
  5
73D
  8
1
  6
CONTINUOUS
 62
     7
 10
-250.3800905124469
 20
242.1669097196184
 30
0.0
  0
VERTEX
  5
73E
  8
1
  6
CONTINUOUS
 62
     7
 10
-250.3615949684877
 20
242.1561941969348
 30
0.0
  0
VERTEX
  5
73F
  8
1
  6
CONTINUOUS
 62
     7
 10
-250.3435578246157
 20
242.1446873989405
 30
0.0
  0
VERTEX
  5
740
  8
1
  6
CONTINUOUS
 62
     7
 10
-250.3260277886459
 20
242.132421885827
 30
0.0
  0
VERTEX
  5
741
  8
1
  6
CONTINUOUS
 62
     7
 10
-250.309053568393
 20
242.1194302177858
 30
0.0
  0
VERTEX
  5
742
  8
1
  6
CONTINUOUS
 62
     7
 10
-250.2931070490758
 20
242.1061184343483
 30
0.0
  0
VERTEX
  5
743
  8
1
  6
CONTINUOUS
 62
     7
 10
-250.2777139103929
 20
242.0921437063802
 30
0.0
  0
VERTEX
  5
744
  8
1
  6
CONTINUOUS
 62
     7
 10
-250.2629132006998
 20
242.0775429958444
 30
0.0
  0
VERTEX
  5
745
  8
1
  6
CONTINUOUS
 62
     7
 10
-250.248743968352
 20
242.0623532647038
 30
0.0
  0
VERTEX
  5
746
  8
1
  6
CONTINUOUS
 62
     7
 10
-250.2348376471234
 20
242.0461196108346
 30
0.0
  0
VERTEX
  5
747
  8
1
  6
CONTINUOUS
 62
     7
 10
-250.2216257818424
 20
242.0292910264505
 30
0.0
  0
VERTEX
  5
748
  8
1
  6
CONTINUOUS
 62
     7
 10
-250.2091435542879
 20
242.0119143567202
 30
0.0
  0
VERTEX
  5
749
  8
1
  6
CONTINUOUS
 62
     7
 10
-250.2067133487744
 20
242.0083435881542
 30
0.0
  0
SEQEND
  5
976
  8
1
  6
CONTINUOUS
 62
     7
  0
POLYLINE
  5
22C
  8
1
  6
CONTINUOUS
 62
     7
 66
     1
 10
0.0
 20
0.0
 30
0.0
  0
VERTEX
  5
74A
  8
1
  6
CONTINUOUS
 62
     7
 10
-247.4656075772294
 20
242.2289911218365
 30
0.0
  0
VERTEX
  5
74B
  8
1
  6
CONTINUOUS
 62
     7
 10
-247.5599412277569
 20
242.2200113202177
 30
0.0
  0
VERTEX
  5
74C
  8
1
  6
CONTINUOUS
 62
     7
 10
-247.6508866891094
 20
242.193394450428
 30
0.0
  0
VERTEX
  5
74D
  8
1
  6
CONTINUOUS
 62
     7
 10
-247.7351773968681
 20
242.1500965329056
 30
0.0
  0
VERTEX
  5
74E
  8
1
  6
CONTINUOUS
 62
     7
 10
-247.8097858109809
 20
242.0916727352714
 30
0.0
  0
VERTEX
  5
74F
  8
1
  6
CONTINUOUS
 62
     7
 10
-247.872032158458
 20
242.0202215140701
 30
0.0
  0
VERTEX
  5
750
  8
1
  6
CONTINUOUS
 62
     7
 10
-247.9196806850259
 20
241.9383092427454
 30
0.0
  0
VERTEX
  5
751
  8
1
  6
CONTINUOUS
 62
     7
 10
-247.9510199585892
 20
241.8488780330532
 30
0.0
  0
VERTEX
  5
752
  8
1
  6
CONTINUOUS
 62
     7
 10
-247.9649243401724
 20
241.7551400607651
 30
0.0
  0
SEQEND
  5
977
  8
1
  6
CONTINUOUS
 62
     7
  0
POLYLINE
  5
22D
  8
1
  6
CONTINUOUS
 62
     7
 66
     1
 10
0.0
 20
0.0
 30
0.0
  0
VERTEX
  5
753
  8
1
  6
CONTINUOUS
 62
     7
 10
-246.7790880717996
 20
241.7785799761416
 30
0.0
  0
VERTEX
  5
754
  8
1
  6
CONTINUOUS
 62
     7
 10
-246.7801986893039
 20
241.7947297316954
 30
0.0
  0
VERTEX
  5
755
  8
1
  6
CONTINUOUS
 62
     7
 10
-246.7818251257463
 20
241.8107943293345
 30
0.0
  0
VERTEX
  5
756
  8
1
  6
CONTINUOUS
 62
     7
 10
-246.783952068143
 20
241.8267164921237
 30
0.0
  0
VERTEX
  5
757
  8
1
  6
CONTINUOUS
 62
     7
 10
-246.7865642035104
 20
241.8424389431277
 30
0.0
  0
VERTEX
  5
758
  8
1
  6
CONTINUOUS
 62
     7
 10
-246.7897829981618
 20
241.8585591592342
 30
0.0
  0
VERTEX
  5
759
  8
1
  6
CONTINUOUS
 62
     7
 10
-246.7934938759437
 20
241.8744360439645
 30
0.0
  0
VERTEX
  5
75A
  8
1
  6
CONTINUOUS
 62
     7
 10
-246.7976696123415
 20
241.8900279586418
 30
0.0
  0
VERTEX
  5
75B
  8
1
  6
CONTINUOUS
 62
     7
 10
-246.8022829828408
 20
241.9052932645893
 30
0.0
  0
VERTEX
  5
75C
  8
1
  6
CONTINUOUS
 62
     7
 10
-246.8087930110428
 20
241.924337549352
 30
0.0
  0
VERTEX
  5
75D
  8
1
  6
CONTINUOUS
 62
     7
 10
-246.8159433289079
 20
241.942832553587
 30
0.0
  0
VERTEX
  5
75E
  8
1
  6
CONTINUOUS
 62
     7
 10
-246.8236772426881
 20
241.9607355011839
 30
0.0
  0
VERTEX
  5
75F
  8
1
  6
CONTINUOUS
 62
     7
 10
-246.8321419668972
 20
241.9784167798705
 30
0.0
  0
VERTEX
  5
760
  8
1
  6
CONTINUOUS
 62
     7
 10
-246.8411343254245
 20
241.9954847224946
 30
0.0
  0
VERTEX
  5
761
  8
1
  6
CONTINUOUS
 62
     7
 10
-246.8506042550356
 20
242.0119228625433
 30
0.0
  0
VERTEX
  5
762
  8
1
  6
CONTINUOUS
 62
     7
 10
-246.8624960291941
 20
242.0307497761222
 30
0.0
  0
VERTEX
  5
763
  8
1
  6
CONTINUOUS
 62
     7
 10
-246.8749763993106
 20
242.0487247841492
 30
0.0
  0
VERTEX
  5
764
  8
1
  6
CONTINUOUS
 62
     7
 10
-246.8879849221049
 20
242.0658482505893
 30
0.0
  0
VERTEX
  5
765
  8
1
  6
CONTINUOUS
 62
     7
 10
-246.9014611542974
 20
242.0821205394071
 30
0.0
  0
VERTEX
  5
766
  8
1
  6
CONTINUOUS
 62
     7
 10
-246.9206243535032
 20
242.1030879052013
 30
0.0
  0
VERTEX
  5
767
  8
1
  6
CONTINUOUS
 62
     7
 10
-246.940536178839
 20
242.1225840172175
 30
0.0
  0
VERTEX
  5
768
  8
1
  6
CONTINUOUS
 62
     7
 10
-246.9610969591463
 20
242.1406318812143
 30
0.0
  0
VERTEX
  5
769
  8
1
  6
CONTINUOUS
 62
     7
 10
-246.9835837139948
 20
242.1582764230681
 30
0.0
  0
VERTEX
  5
76A
  8
1
  6
CONTINUOUS
 62
     7
 10
-247.0066942227124
 20
242.1744049022631
 30
0.0
  0
VERTEX
  5
76B
  8
1
  6
CONTINUOUS
 62
     7
 10
-247.0303512603923
 20
242.1890381293348
 30
0.0
  0
VERTEX
  5
76C
  8
1
  6
CONTINUOUS
 62
     7
 10
-247.0544776021281
 20
242.2021969148186
 30
0.0
  0
VERTEX
  5
76D
  8
1
  6
CONTINUOUS
 62
     7
 10
-247.0882636013905
 20
242.2179107334762
 30
0.0
  0
VERTEX
  5
76E
  8
1
  6
CONTINUOUS
 62
     7
 10
-247.1227994382183
 20
242.230981882737
 30
0.0
  0
VERTEX
  5
76F
  8
1
  6
CONTINUOUS
 62
     7
 10
-247.1579387059085
 20
242.2414212572187
 30
0.0
  0
VERTEX
  5
770
  8
1
  6
CONTINUOUS
 62
     7
 10
-247.1868357626365
 20
242.247971841669
 30
0.0
  0
VERTEX
  5
771
  8
1
  6
CONTINUOUS
 62
     7
 10
-247.2160340662296
 20
242.2528024224993
 30
0.0
  0
VERTEX
  5
772
  8
1
  6
CONTINUOUS
 62
     7
 10
-247.2456861623324
 20
242.2559189187691
 30
0.0
  0
VERTEX
  5
773
  8
1
  6
CONTINUOUS
 62
     7
 10
-247.2755427745044
 20
242.2572661149178
 30
0.0
  0
VERTEX
  5
774
  8
1
  6
CONTINUOUS
 62
     7
 10
-247.2786602063061
 20
242.2573038169237
 30
0.0
  0
SEQEND
  5
978
  8
1
  6
CONTINUOUS
 62
     7
  0
POLYLINE
  5
22E
  8
1
  6
CONTINUOUS
 62
     7
 66
     1
 10
0.0
 20
0.0
 30
0.0
  0
VERTEX
  5
775
  8
1
  6
CONTINUOUS
 62
     7
 10
-246.7778596378881
 20
241.7551400607651
 30
0.0
  0
VERTEX
  5
776
  8
1
  6
CONTINUOUS
 62
     7
 10
-246.7917640194713
 20
241.8488780330532
 30
0.0
  0
VERTEX
  5
777
  8
1
  6
CONTINUOUS
 62
     7
 10
-246.8231032930346
 20
241.9383092427454
 30
0.0
  0
VERTEX
  5
778
  8
1
  6
CONTINUOUS
 62
     7
 10
-246.8707518196024
 20
242.0202215140701
 30
0.0
  0
VERTEX
  5
779
  8
1
  6
CONTINUOUS
 62
     7
 10
-246.9329981670796
 20
242.0916727352714
 30
0.0
  0
VERTEX
  5
77A
  8
1
  6
CONTINUOUS
 62
     7
 10
-247.0076065811924
 20
242.1500965329056
 30
0.0
  0
VERTEX
  5
77B
  8
1
  6
CONTINUOUS
 62
     7
 10
-247.0918972889511
 20
242.193394450428
 30
0.0
  0
VERTEX
  5
77C
  8
1
  6
CONTINUOUS
 62
     7
 10
-247.1828427503036
 20
242.2200113202177
 30
0.0
  0
VERTEX
  5
77D
  8
1
  6
CONTINUOUS
 62
     7
 10
-247.2771764008311
 20
242.2289911218365
 30
0.0
  0
SEQEND
  5
979
  8
1
  6
CONTINUOUS
 62
     7
  0
LINE
  5
22F
  8
1
  6
CONTINUOUS
 62
     7
 10
-244.5360706292861
 20
242.0083435881542
 30
0.0
 11
-244.5663463625747
 21
241.9570514444117
 31
0.0
  0
LINE
  5
230
  8
1
  6
CONTINUOUS
 62
     9
 10
-244.6223736741796
 20
241.7297298532539
 30
0.0
 11
-246.7779396148878
 21
241.756666112828
 31
0.0
  0
POLYLINE
  5
231
  8
1
  6
CONTINUOUS
 62
     7
 66
     1
 10
0.0
 20
0.0
 30
0.0
  0
VERTEX
  5
77E
  8
1
  6
CONTINUOUS
 62
     7
 10
-244.1213949179709
 20
242.2289911218365
 30
0.0
  0
VERTEX
  5
77F
  8
1
  6
CONTINUOUS
 62
     7
 10
-244.1421626076925
 20
242.2285579447417
 30
0.0
  0
VERTEX
  5
780
  8
1
  6
CONTINUOUS
 62
     7
 10
-244.1629123121049
 20
242.2272613897383
 30
0.0
  0
VERTEX
  5
781
  8
1
  6
CONTINUOUS
 62
     7
 10
-244.1835904464938
 20
242.2251059212481
 30
0.0
  0
VERTEX
  5
782
  8
1
  6
CONTINUOUS
 62
     7
 10
-244.204143426145
 20
242.2220960036928
 30
0.0
  0
VERTEX
  5
783
  8
1
  6
CONTINUOUS
 62
     7
 10
-244.2251432669341
 20
242.2181066374337
 30
0.0
  0
VERTEX
  5
784
  8
1
  6
CONTINUOUS
 62
     7
 10
-244.2459724606614
 20
242.213218849601
 30
0.0
  0
VERTEX
  5
785
  8
1
  6
CONTINUOUS
 62
     7
 10
-244.266574264174
 20
242.2074472400845
 30
0.0
  0
VERTEX
  5
786
  8
1
  6
CONTINUOUS
 62
     7
 10
-244.2868919343192
 20
242.200806408774
 30
0.0
  0
VERTEX
  5
787
  8
1
  6
CONTINUOUS
 62
     7
 10
-244.3063455320255
 20
242.1935234105424
 30
0.0
  0
VERTEX
  5
788
  8
1
  6
CONTINUOUS
 62
     7
 10
-244.3254963759963
 20
242.1854316616197
 30
0.0
  0
VERTEX
  5
789
  8
1
  6
CONTINUOUS
 62
     7
 10
-244.3442953819521
 20
242.1765531139852
 30
0.0
  0
VERTEX
  5
78A
  8
1
  6
CONTINUOUS
 62
     7
 10
-244.3626934656136
 20
242.1669097196184
 30
0.0
  0
VERTEX
  5
78B
  8
1
  6
CONTINUOUS
 62
     7
 10
-244.3811890095729
 20
242.1561941969348
 30
0.0
  0
VERTEX
  5
78C
  8
1
  6
CONTINUOUS
 62
     7
 10
-244.3992261534448
 20
242.1446873989405
 30
0.0
  0
VERTEX
  5
78D
  8
1
  6
CONTINUOUS
 62
     7
 10
-244.4167561894146
 20
242.132421885827
 30
0.0
  0
VERTEX
  5
78E
  8
1
  6
CONTINUOUS
 62
     7
 10
-244.4337304096676
 20
242.1194302177858
 30
0.0
  0
VERTEX
  5
78F
  8
1
  6
CONTINUOUS
 62
     7
 10
-244.4496769289847
 20
242.1061184343483
 30
0.0
  0
VERTEX
  5
790
  8
1
  6
CONTINUOUS
 62
     7
 10
-244.4650700676676
 20
242.0921437063802
 30
0.0
  0
VERTEX
  5
791
  8
1
  6
CONTINUOUS
 62
     7
 10
-244.4798707773607
 20
242.0775429958444
 30
0.0
  0
VERTEX
  5
792
  8
1
  6
CONTINUOUS
 62
     7
 10
-244.4940400097085
 20
242.0623532647038
 30
0.0
  0
VERTEX
  5
793
  8
1
  6
CONTINUOUS
 62
     7
 10
-244.507946330937
 20
242.0461196108346
 30
0.0
  0
VERTEX
  5
794
  8
1
  6
CONTINUOUS
 62
     7
 10
-244.5211581962182
 20
242.0292910264505
 30
0.0
  0
VERTEX
  5
795
  8
1
  6
CONTINUOUS
 62
     7
 10
-244.5336404237726
 20
242.0119143567202
 30
0.0
  0
VERTEX
  5
796
  8
1
  6
CONTINUOUS
 62
     7
 10
-244.5360706292861
 20
242.0083435881542
 30
0.0
  0
SEQEND
  5
97A
  8
1
  6
CONTINUOUS
 62
     7
  0
LINE
  5
232
  8
1
  6
CONTINUOUS
 62
     7
 10
-244.6213919890303
 20
241.7289720826436
 30
0.0
 11
-244.6223736741796
 21
241.7297298532539
 31
0.0
  0
LINE
  5
233
  8
1
  6
CONTINUOUS
 62
     7
 10
-246.7779396148878
 20
241.756666112828
 30
0.0
 11
-246.7790880717996
 21
241.7785799761416
 31
0.0
  0
POLYLINE
  5
234
  8
1
  6
CONTINUOUS
 62
     7
 66
     1
 10
0.0
 20
0.0
 30
0.0
  0
VERTEX
  5
797
  8
1
  6
CONTINUOUS
 62
     7
 10
-241.3713919890303
 20
254.2292957373232
 30
0.0
  0
VERTEX
  5
798
  8
1
  6
CONTINUOUS
 62
     7
 10
-241.5251007423177
 20
255.78999134134
 30
0.0
  0
VERTEX
  5
799
  8
1
  6
CONTINUOUS
 62
     7
 10
-241.9803206318759
 20
257.2906926744741
 30
0.0
  0
VERTEX
  5
79A
  8
1
  6
CONTINUOUS
 62
     7
 10
-242.7195595033538
 20
258.6737341997928
 30
0.0
  0
VERTEX
  5
79B
  8
1
  6
CONTINUOUS
 62
     7
 10
-243.714411567069
 20
259.8859715437977
 30
0.0
  0
VERTEX
  5
79C
  8
1
  6
CONTINUOUS
 62
     7
 10
-244.9266489110739
 20
260.8808236075129
 30
0.0
  0
VERTEX
  5
79D
  8
1
  6
CONTINUOUS
 62
     7
 10
-246.3096904363926
 20
261.6200624789909
 30
0.0
  0
VERTEX
  5
79E
  8
1
  6
CONTINUOUS
 62
     7
 10
-247.8103917695267
 20
262.075282368549
 30
0.0
  0
VERTEX
  5
79F
  8
1
  6
CONTINUOUS
 62
     7
 10
-249.3710873735436
 20
262.2289911218365
 30
0.0
  0
SEQEND
  5
97B
  8
1
  6
CONTINUOUS
 62
     7
  0
LINE
  5
235
  8
1
  6
CONTINUOUS
 62
     9
 10
-249.3959000155065
 20
262.2041784798736
 30
0.0
 11
-249.3710873735436
 21
262.2289911218365
 31
0.0
  0
LINE
  5
236
  8
1
  6
CONTINUOUS
 62
     7
 10
-286.6958770276209
 20
249.7202642540458
 30
0.0
 11
-284.8713919890303
 21
249.7202642540458
 31
0.0
  0
LINE
  5
237
  8
1
  6
CONTINUOUS
 62
     7
 10
-278.3713919890303
 20
249.7289911218365
 30
0.0
 11
-286.6213919890303
 21
249.7289911218365
 31
0.0
  0
LINE
  5
238
  8
1
  6
CONTINUOUS
 62
     7
 10
-282.8713919890303
 20
249.7202642540458
 30
0.0
 11
-278.3626651212395
 21
249.7202642540458
 31
0.0
  0
LINE
  5
239
  8
1
  6
CONTINUOUS
 62
     7
 10
-308.380118856821
 20
249.7202642540458
 30
0.0
 11
-303.8713919890303
 21
249.7202642540458
 31
0.0
  0
LINE
  5
23A
  8
1
  6
CONTINUOUS
 62
     7
 10
-300.1213919890303
 20
249.7289911218365
 30
0.0
 11
-308.3713919890303
 21
249.7289911218365
 31
0.0
  0
LINE
  5
23B
  8
1
  6
CONTINUOUS
 62
     7
 10
-301.8713919890302
 20
249.7202642540458
 30
0.0
 11
-300.0469069504396
 21
249.7202642540458
 31
0.0
  0
LINE
  5
23C
  8
1
  6
CONTINUOUS
 62
     7
 10
-249.3710873735436
 20
262.2289911218365
 30
0.0
 11
-278.3713919890303
 21
262.2289911218365
 31
0.0
  0
LINE
  5
23D
  8
1
  6
CONTINUOUS
 62
     9
 10
-251.1213919890303
 20
235.3606436194239
 30
0.0
 11
-248.3000456982964
 21
235.3606436194239
 31
0.0
  0
LINE
  5
23E
  8
1
  6
CONTINUOUS
 62
     9
 10
-248.3136098296864
 20
235.1018245743214
 30
0.0
 11
-251.0873178153194
 21
235.1018245743214
 31
0.0
  0
LINE
  5
23F
  8
1
  6
CONTINUOUS
 62
     7
 10
-248.3000456982964
 20
235.3606436194239
 30
0.0
 11
-248.3136098296864
 21
235.1018245743214
 31
0.0
  0
LINE
  5
240
  8
1
  6
CONTINUOUS
 62
     9
 10
-243.6554661627412
 20
235.1018245743214
 30
0.0
 11
-246.4291741483742
 21
235.1018245743214
 31
0.0
  0
LINE
  5
241
  8
1
  6
CONTINUOUS
 62
     9
 10
-246.4427382797641
 20
235.3606436194239
 30
0.0
 11
-243.6213919890303
 21
235.3606436194239
 31
0.0
  0
LINE
  5
242
  8
1
  6
CONTINUOUS
 62
     7
 10
-246.4291741483741
 20
235.1018245743214
 30
0.0
 11
-246.4427382797641
 21
235.3606436194239
 31
0.0
  0
LINE
  5
243
  8
1
  6
CONTINUOUS
 62
     9
 10
-289.1213919890303
 20
235.3606436194239
 30
0.0
 11
-286.3000456982963
 21
235.3606436194239
 31
0.0
  0
LINE
  5
244
  8
1
  6
CONTINUOUS
 62
     9
 10
-286.3136098296864
 20
235.1018245743214
 30
0.0
 11
-289.0873178153193
 21
235.1018245743214
 31
0.0
  0
LINE
  5
245
  8
1
  6
CONTINUOUS
 62
     7
 10
-286.3000456982963
 20
235.3606436194239
 30
0.0
 11
-286.3136098296864
 21
235.1018245743213
 31
0.0
  0
LINE
  5
246
  8
1
  6
CONTINUOUS
 62
     9
 10
-281.6554661627412
 20
235.1018245743214
 30
0.0
 11
-284.4291741483741
 21
235.1018245743214
 31
0.0
  0
LINE
  5
247
  8
1
  6
CONTINUOUS
 62
     9
 10
-284.4427382797641
 20
235.3606436194239
 30
0.0
 11
-281.6213919890303
 21
235.3606436194239
 31
0.0
  0
LINE
  5
248
  8
1
  6
CONTINUOUS
 62
     7
 10
-284.4291741483742
 20
235.1018245743214
 30
0.0
 11
-284.4427382797641
 21
235.3606436194239
 31
0.0
  0
LINE
  5
249
  8
1
  6
CONTINUOUS
 62
     7
 10
-243.6213919890303
 20
235.9289911218365
 30
0.0
 11
-246.4725241102266
 21
235.9289911218365
 31
0.0
  0
LINE
  5
24A
  8
1
  6
CONTINUOUS
 62
     7
 10
-246.4427382797641
 20
235.3606436194239
 30
0.0
 11
-246.4725241102266
 21
235.9289911218365
 31
0.0
  0
LINE
  5
24B
  8
1
  6
CONTINUOUS
 62
     7
 10
-248.2702598678339
 20
235.9289911218365
 30
0.0
 11
-251.1213919890303
 21
235.9289911218365
 31
0.0
  0
LINE
  5
24C
  8
1
  6
CONTINUOUS
 62
     7
 10
-248.2702598678339
 20
235.9289911218365
 30
0.0
 11
-248.3000456982964
 21
235.3606436194239
 31
0.0
  0
LINE
  5
24D
  8
1
  6
CONTINUOUS
 62
     7
 10
-281.6213919890303
 20
235.9289911218365
 30
0.0
 11
-284.4725241102266
 21
235.9289911218365
 31
0.0
  0
LINE
  5
24E
  8
1
  6
CONTINUOUS
 62
     7
 10
-284.4427382797641
 20
235.3606436194239
 30
0.0
 11
-284.4725241102266
 21
235.9289911218365
 31
0.0
  0
LINE
  5
24F
  8
1
  6
CONTINUOUS
 62
     7
 10
-286.2702598678339
 20
235.9289911218365
 30
0.0
 11
-289.1213919890303
 21
235.9289911218365
 31
0.0
  0
LINE
  5
250
  8
1
  6
CONTINUOUS
 62
     7
 10
-286.2702598678339
 20
235.9289911218365
 30
0.0
 11
-286.3000456982963
 21
235.3606436194239
 31
0.0
  0
LINE
  5
251
  8
1
  6
CONTINUOUS
 62
     9
 10
-249.6129962535986
 20
229.5995815992852
 30
0.0
 11
-248.6019701650837
 21
229.5995815992852
 31
0.0
  0
LINE
  5
252
  8
1
  6
CONTINUOUS
 62
     7
 10
-248.3136098296864
 20
235.1018245743214
 30
0.0
 11
-248.6019701650837
 21
229.5995815992852
 31
0.0
  0
LINE
  5
253
  8
1
  6
CONTINUOUS
 62
     9
 10
-246.1408138129768
 20
229.5995815992852
 30
0.0
 11
-245.1297877244619
 21
229.5995815992853
 31
0.0
  0
LINE
  5
254
  8
1
  6
CONTINUOUS
 62
     7
 10
-246.1408138129768
 20
229.5995815992854
 30
0.0
 11
-246.4291741483742
 21
235.1018245743214
 31
0.0
  0
LINE
  5
255
  8
1
  6
CONTINUOUS
 62
     9
 10
-284.1408138129768
 20
229.5995815992852
 30
0.0
 11
-283.1297877244619
 21
229.5995815992853
 31
0.0
  0
LINE
  5
256
  8
1
  6
CONTINUOUS
 62
     7
 10
-284.1408138129768
 20
229.5995815992854
 30
0.0
 11
-284.4291741483742
 21
235.1018245743214
 31
0.0
  0
LINE
  5
257
  8
1
  6
CONTINUOUS
 62
     9
 10
-287.6129962535986
 20
229.5995815992852
 30
0.0
 11
-286.6019701650837
 21
229.5995815992852
 31
0.0
  0
LINE
  5
258
  8
1
  6
CONTINUOUS
 62
     7
 10
-286.3136098296864
 20
235.1018245743214
 30
0.0
 11
-286.6019701650837
 21
229.5995815992852
 31
0.0
  0
LINE
  5
259
  8
1
  6
CONTINUOUS
 62
     7
 10
-286.2702598678339
 20
235.9289911218365
 30
0.0
 11
-285.9674952143361
 21
241.7060848594411
 31
0.0
  0
LINE
  5
25A
  8
1
  6
CONTINUOUS
 62
     7
 10
-285.9674952143361
 20
241.7060848594411
 30
0.0
 11
-285.9648443631727
 21
241.756666112828
 31
0.0
  0
LINE
  5
25B
  8
1
  6
CONTINUOUS
 62
     7
 10
-284.7779396148878
 20
241.756666112828
 30
0.0
 11
-284.7752682510333
 21
241.7056934539768
 31
0.0
  0
LINE
  5
25C
  8
1
  6
CONTINUOUS
 62
     7
 10
-284.7752682510333
 20
241.7056934539768
 30
0.0
 11
-284.4725241102266
 21
235.9289911218365
 31
0.0
  0
LINE
  5
25D
  8
1
  6
CONTINUOUS
 62
     7
 10
-248.2702598678339
 20
235.9289911218365
 30
0.0
 11
-247.9674952143361
 21
241.706084859441
 31
0.0
  0
LINE
  5
25E
  8
1
  6
CONTINUOUS
 62
     7
 10
-247.9674952143361
 20
241.706084859441
 30
0.0
 11
-247.9648443631727
 21
241.756666112828
 31
0.0
  0
LINE
  5
25F
  8
1
  6
CONTINUOUS
 62
     7
 10
-246.7779396148878
 20
241.756666112828
 30
0.0
 11
-246.7752682510333
 21
241.7056934539769
 31
0.0
  0
LINE
  5
260
  8
1
  6
CONTINUOUS
 62
     7
 10
-246.7752682510333
 20
241.7056934539769
 30
0.0
 11
-246.4725241102266
 21
235.9289911218365
 31
0.0
  0
LINE
  5
261
  8
1
  6
CONTINUOUS
 62
     7
 10
-245.6127506376065
 20
229.2289911218365
 30
0.0
 11
-246.0963160527935
 21
229.2289911218365
 31
0.0
  0
LINE
  5
262
  8
1
  6
CONTINUOUS
 62
     7
 10
-246.0963160527935
 20
229.2289911218365
 30
0.0
 11
-246.1213919890303
 21
229.2289911218365
 31
0.0
  0
LINE
  5
263
  8
1
  6
CONTINUOUS
 62
     7
 10
-246.1213919890303
 20
229.2289911218365
 30
0.0
 11
-246.1408138129768
 21
229.5995815992854
 31
0.0
  0
LINE
  5
264
  8
1
  6
CONTINUOUS
 62
     7
 10
-283.6127506376065
 20
229.2289911218365
 30
0.0
 11
-284.0963160527935
 21
229.2289911218365
 31
0.0
  0
LINE
  5
265
  8
1
  6
CONTINUOUS
 62
     7
 10
-284.0963160527935
 20
229.2289911218365
 30
0.0
 11
-284.1213919890303
 21
229.2289911218365
 31
0.0
  0
LINE
  5
266
  8
1
  6
CONTINUOUS
 62
     7
 10
-284.1213919890303
 20
229.2289911218365
 30
0.0
 11
-284.1408138129768
 21
229.5995815992854
 31
0.0
  0
LINE
  5
267
  8
1
  6
CONTINUOUS
 62
     7
 10
-248.6213919890303
 20
229.2289911218365
 30
0.0
 11
-249.130033340454
 21
229.2289911218365
 31
0.0
  0
LINE
  5
268
  8
1
  6
CONTINUOUS
 62
     7
 10
-248.6019701650837
 20
229.5995815992852
 30
0.0
 11
-248.6213919890303
 21
229.2289911218365
 31
0.0
  0
LINE
  5
269
  8
1
  6
CONTINUOUS
 62
     7
 10
-286.6213919890303
 20
229.2289911218365
 30
0.0
 11
-287.1300333404541
 21
229.2289911218365
 31
0.0
  0
LINE
  5
26A
  8
1
  6
CONTINUOUS
 62
     7
 10
-286.6019701650837
 20
229.5995815992852
 30
0.0
 11
-286.6213919890303
 21
229.2289911218365
 31
0.0
  0
LINE
  5
26B
  8
1
  6
CONTINUOUS
 62
     7
 10
-288.2067133487744
 20
242.0083435881542
 30
0.0
 11
-288.1764376154857
 21
241.9570514444115
 31
0.0
  0
LINE
  5
26C
  8
1
  6
CONTINUOUS
 62
     7
 10
-288.1764376154858
 20
241.9570514444115
 30
0.0
 11
-288.154357478031
 21
241.9075262783422
 31
0.0
  0
LINE
  5
26D
  8
1
  6
CONTINUOUS
 62
     7
 10
-250.2067133487744
 20
242.0083435881542
 30
0.0
 11
-250.1764376154858
 21
241.9570514444115
 31
0.0
  0
LINE
  5
26E
  8
1
  6
CONTINUOUS
 62
     7
 10
-250.1764376154857
 20
241.9570514444115
 30
0.0
 11
-250.1543574780309
 21
241.9075262783421
 31
0.0
  0
LINE
  5
26F
  8
1
  6
CONTINUOUS
 62
     7
 10
-330.8932853138287
 20
211.9376418343057
 30
0.0
 11
-330.9016097851182
 21
211.2085480415491
 31
0.0
  0
LINE
  5
270
  8
1
  6
CONTINUOUS
 62
     7
 10
-330.899697463083
 20
205.2515509031523
 30
0.0
 11
-330.8932853138287
 21
204.9203404093673
 31
0.0
  0
LINE
  5
271
  8
1
  6
CONTINUOUS
 62
     7
 10
-334.8713919890303
 20
250.0289911218365
 30
0.0
 11
-334.8713919890303
 21
254.4289911218365
 31
0.0
  0
LINE
  5
272
  8
1
  6
CONTINUOUS
 62
     7
 10
-340.2492158399596
 20
254.4289911218365
 30
0.0
 11
-340.2492158399596
 21
250.0289911218365
 31
0.0
  0
LINE
  5
273
  8
1
  6
CONTINUOUS
 62
     7
 10
-331.7519790416528
 20
211.6310549829487
 30
0.0
 11
-332.8713942314711
 21
211.7289911218365
 31
0.0
  0
ARC
  5
274
  8
1
  6
CONTINUOUS
 62
     7
 10
-331.8652815072248
 20
206.1219803682436
 30
0.0
 40
1.3
 50
275.0000000000001
 51
344.1191499917203
  0
ARC
  5
275
  8
1
  6
CONTINUOUS
 62
     7
 10
-331.8652815072248
 20
210.3360018754294
 30
0.0
 40
1.300000000000002
 50
15.8808500082797
 51
84.99999999999989
  0
ARC
  5
276
  8
1
  6
CONTINUOUS
 62
     7
 10
-339.2713942314711
 20
208.2289911218365
 30
0.0
 40
9.0
 50
344.1191499917202
 51
346.3538100019684
  0
ARC
  5
277
  8
1
  6
CONTINUOUS
 62
     7
 10
-339.2713942314711
 20
208.2289911218365
 30
0.0
 40
9.000000000000002
 50
13.64618999803159
 51
15.88085000827978
  0
LINE
  5
278
  8
1
  6
CONTINUOUS
 62
     7
 10
-332.9956006592447
 20
210.1919290512786
 30
0.0
 11
-333.1375210670868
 21
209.9512507994477
 31
0.0
  0
LINE
  5
279
  8
1
  6
CONTINUOUS
 62
     7
 10
-332.8711013270482
 20
210.1215354339451
 30
0.0
 11
-332.8926329381588
 21
210.158192403803
 31
0.0
  0
LINE
  5
27A
  8
1
  6
CONTINUOUS
 62
     7
 10
-333.1280026975278
 20
206.7289911218365
 30
0.0
 11
-332.8713942314711
 21
206.7289911218365
 31
0.0
  0
LINE
  5
27B
  8
1
  6
CONTINUOUS
 62
     7
 10
-334.8713919890303
 20
202.2289911218365
 30
0.0
 11
-334.8713919890303
 21
232.2289911218365
 31
0.0
  0
LINE
  5
27C
  8
1
  6
CONTINUOUS
 62
     7
 10
-286.6213919890303
 20
249.7289911218365
 30
0.0
 11
-286.6213919890303
 21
253.7289911218365
 31
0.0
  0
LINE
  5
27D
  8
1
  6
CONTINUOUS
 62
     7
 10
-300.1213919890303
 20
253.7289911218365
 30
0.0
 11
-300.1213919890303
 21
249.7289911218365
 31
0.0
  0
LINE
  5
27E
  8
1
  6
CONTINUOUS
 62
     7
 10
-282.6224602081106
 20
241.7297625399083
 30
0.0
 11
-282.5664447952136
 21
241.9571036761769
 31
0.0
  0
LINE
  5
27F
  8
1
  6
CONTINUOUS
 62
     7
 10
-282.5664447952136
 20
241.9571036761769
 30
0.0
 11
-282.5417520913425
 21
241.9997483577022
 31
0.0
  0
LINE
  5
280
  8
1
  6
CONTINUOUS
 62
     7
 10
-282.5417520913425
 20
241.9997483577022
 30
0.0
 11
-282.5360700187858
 21
242.008344580671
 31
0.0
  0
LINE
  5
281
  8
1
  6
CONTINUOUS
 62
     7
 10
-244.6224602081106
 20
241.7297625399083
 30
0.0
 11
-244.5664447952134
 21
241.9571036761771
 31
0.0
  0
LINE
  5
282
  8
1
  6
CONTINUOUS
 62
     7
 10
-244.5664447952134
 20
241.957103676177
 30
0.0
 11
-244.5417520913427
 21
241.9997483577019
 31
0.0
  0
LINE
  5
283
  8
1
  6
CONTINUOUS
 62
     7
 10
-244.5417520913427
 20
241.9997483577019
 30
0.0
 11
-244.5360700187858
 21
242.008344580671
 31
0.0
  0
ARC
  5
284
  8
1
  6
CONTINUOUS
 62
     7
 10
-250.1213919890303
 20
235.3606436194239
 30
0.0
 40
1.000000000000001
 50
180.0
 51
195.0000000000001
  0
ARC
  5
285
  8
1
  6
CONTINUOUS
 62
     7
 10
-244.6213919890303
 20
235.3606436194239
 30
0.0
 40
1.000000000000004
 50
344.9999999999998
 51
0.0
  0
ARC
  5
286
  8
1
  6
CONTINUOUS
 62
     7
 10
-288.1213919890303
 20
235.3606436194239
 30
0.0
 40
1.000000000000001
 50
180.0
 51
195.0000000000001
  0
ARC
  5
287
  8
1
  6
CONTINUOUS
 62
     7
 10
-282.6213919890303
 20
235.3606436194239
 30
0.0
 40
0.9999999999999968
 50
344.9999999999998
 51
0.0
  0
LINE
  5
288
  8
1
  6
CONTINUOUS
 62
     7
 10
-243.6213919890303
 20
235.3606436194239
 30
0.0
 11
-243.6213919890303
 21
235.9289911218365
 31
0.0
  0
LINE
  5
289
  8
1
  6
CONTINUOUS
 62
     7
 10
-251.1213919890303
 20
235.9289911218365
 30
0.0
 11
-251.1213919890303
 21
235.3606436194239
 31
0.0
  0
LINE
  5
28A
  8
1
  6
CONTINUOUS
 62
     7
 10
-281.6213919890303
 20
235.3606436194239
 30
0.0
 11
-281.6213919890303
 21
235.9289911218365
 31
0.0
  0
LINE
  5
28B
  8
1
  6
CONTINUOUS
 62
     7
 10
-289.1213919890303
 20
235.9289911218365
 30
0.0
 11
-289.1213919890303
 21
235.3606436194239
 31
0.0
  0
LINE
  5
28C
  8
1
  6
CONTINUOUS
 62
     7
 10
-251.0873178153194
 20
235.1018245743214
 30
0.0
 11
-249.6129962535986
 21
229.5995815992852
 31
0.0
  0
LINE
  5
28D
  8
1
  6
CONTINUOUS
 62
     7
 10
-245.1297877244619
 20
229.5995815992852
 30
0.0
 11
-243.6554661627412
 21
235.1018245743213
 31
0.0
  0
LINE
  5
28E
  8
1
  6
CONTINUOUS
 62
     7
 10
-283.1297877244619
 20
229.5995815992852
 30
0.0
 11
-281.6554661627412
 21
235.1018245743213
 31
0.0
  0
LINE
  5
28F
  8
1
  6
CONTINUOUS
 62
     7
 10
-289.0873178153193
 20
235.1018245743214
 30
0.0
 11
-287.6129962535986
 21
229.5995815992852
 31
0.0
  0
LINE
  5
290
  8
1
  6
CONTINUOUS
 62
     7
 10
-288.1213919890303
 20
241.7289720826436
 30
0.0
 11
-288.1213919890303
 21
235.9289911218366
 31
0.0
  0
LINE
  5
291
  8
1
  6
CONTINUOUS
 62
     7
 10
-282.6213919890303
 20
235.9289911218366
 30
0.0
 11
-282.6213919890303
 21
241.7289720826437
 31
0.0
  0
LINE
  5
292
  8
1
  6
CONTINUOUS
 62
     7
 10
-250.1213919890303
 20
241.7289720826436
 30
0.0
 11
-250.1213919890303
 21
235.9289911218366
 31
0.0
  0
LINE
  5
293
  8
1
  6
CONTINUOUS
 62
     7
 10
-244.6213919890303
 20
235.9289911218366
 30
0.0
 11
-244.6213919890303
 21
241.7289720826437
 31
0.0
  0
ARC
  5
294
  8
1
  6
CONTINUOUS
 62
     7
 10
-245.6127506376065
 20
229.7289911218365
 30
0.0
 40
0.5000000000000004
 50
270.0
 51
344.9999999999997
  0
ARC
  5
295
  8
1
  6
CONTINUOUS
 62
     7
 10
-283.6127506376065
 20
229.7289911218365
 30
0.0
 40
0.5000000000000004
 50
270.0
 51
344.9999999999997
  0
ARC
  5
296
  8
1
  6
CONTINUOUS
 62
     7
 10
-249.130033340454
 20
229.7289911218365
 30
0.0
 40
0.5000000000000022
 50
195.0000000000003
 51
270.0
  0
ARC
  5
297
  8
1
  6
CONTINUOUS
 62
     7
 10
-287.1300333404541
 20
229.7289911218365
 30
0.0
 40
0.4999999999999996
 50
194.9999999999999
 51
270.0
  0
LINE
  5
298
  8
1
  6
CONTINUOUS
 62
     7
 10
-288.2067139592747
 20
242.008344580671
 30
0.0
 11
-288.2010318867182
 21
241.9997483577025
 31
0.0
  0
LINE
  5
299
  8
1
  6
CONTINUOUS
 62
     7
 10
-288.2010318867182
 20
241.9997483577025
 30
0.0
 11
-288.176339182847
 21
241.9571036761769
 31
0.0
  0
LINE
  5
29A
  8
1
  6
CONTINUOUS
 62
     7
 10
-288.176339182847
 20
241.9571036761769
 30
0.0
 11
-288.1203237699499
 21
241.7297625399083
 31
0.0
  0
LINE
  5
29B
  8
1
  6
CONTINUOUS
 62
     7
 10
-250.2067139592747
 20
242.008344580671
 30
0.0
 11
-250.2010318867183
 21
241.9997483577025
 31
0.0
  0
LINE
  5
29C
  8
1
  6
CONTINUOUS
 62
     7
 10
-250.2010318867182
 20
241.9997483577025
 30
0.0
 11
-250.176339182847
 21
241.9571036761769
 31
0.0
  0
LINE
  5
29D
  8
1
  6
CONTINUOUS
 62
     7
 10
-250.176339182847
 20
241.9571036761769
 30
0.0
 11
-250.12032376995
 21
241.7297625399083
 31
0.0
  0
ENDBLK
  8
0
  0
BLOCK
  8
0
  2
D_FRAME_VIEW_2314
 70
     0
 10
0.0
 20
0.0
 30
0.0
  0
LINE
  5
2A4
  8
1
  6
CONTINUOUS
 62
     9
 10
-330.6148988394949
 20
135.8960731751951
 30
0.0
 11
-330.6148988394949
 21
130.9705934914715
 31
0.0
  0
LINE
  5
2A5
  8
1
  6
CONTINUOUS
 62
     7
 10
-330.5254541441195
 20
131.3100029331235
 30
0.0
 11
-330.5254541441195
 21
131.3697122468799
 31
0.0
  0
LINE
  5
2A6
  8
1
  6
CONTINUOUS
 62
     7
 10
-330.3798251910824
 20
132.9333333333333
 30
0.0
 11
-330.5254541441195
 21
132.9333333333333
 31
0.0
  0
LINE
  5
2A7
  8
1
  6
CONTINUOUS
 62
     7
 10
-330.3798251910824
 20
132.1333333333333
 30
0.0
 11
-330.3798251910824
 21
132.9333333333333
 31
0.0
  0
ARC
  5
2A8
  8
1
  6
CONTINUOUS
 62
     7
 10
-339.2713942314711
 20
133.4333333333333
 30
0.0
 40
8.986100377805695
 50
346.7237748426462
 51
351.681953253804
  0
LINE
  5
2A9
  8
1
  6
CONTINUOUS
 62
     7
 10
-330.5254541441195
 20
135.4969544197868
 30
0.0
 11
-330.5254541441195
 21
135.5566637335432
 31
0.0
  0
ARC
  5
2AA
  8
1
  6
CONTINUOUS
 62
     7
 10
-339.2713942314711
 20
133.4333333333333
 30
0.0
 40
8.986100377805684
 50
8.318046746195945
 51
13.27622515735557
  0
LINE
  5
2AB
  8
1
  6
CONTINUOUS
 62
     7
 10
-330.3798251910824
 20
133.9333333333333
 30
0.0
 11
-330.3798251910824
 21
134.7333333333333
 31
0.0
  0
LINE
  5
2AC
  8
1
  6
CONTINUOUS
 62
     7
 10
-330.5254541441195
 20
133.9333333333333
 30
0.0
 11
-330.3798251910824
 21
133.9333333333333
 31
0.0
  0
LINE
  5
2AD
  8
1
  6
CONTINUOUS
 62
     7
 10
-330.5254541441195
 20
132.9333333333333
 30
0.0
 11
-330.5254541441195
 21
133.9333333333333
 31
0.0
  0
POLYLINE
  5
2AE
  8
1
  6
CONTINUOUS
 62
     7
 66
     1
 10
0.0
 20
0.0
 30
0.0
  0
VERTEX
  5
7A0
  8
1
  6
CONTINUOUS
 62
     7
 10
-336.8540437628817
 20
135.4218270340628
 30
0.0
  0
VERTEX
  5
7A1
  8
1
  6
CONTINUOUS
 62
     7
 10
-336.8548100981757
 20
135.4210821143885
 30
0.0
  0
VERTEX
  5
7A2
  8
1
  6
CONTINUOUS
 62
     7
 10
-336.8555764334697
 20
135.4203135509161
 30
0.0
  0
VERTEX
  5
7A3
  8
1
  6
CONTINUOUS
 62
     7
 10
-336.8563427687637
 20
135.4195213722315
 30
0.0
  0
VERTEX
  5
7A4
  8
1
  6
CONTINUOUS
 62
     7
 10
-336.8571091040577
 20
135.418705606921
 30
0.0
  0
VERTEX
  5
7A5
  8
1
  6
CONTINUOUS
 62
     7
 10
-336.8578754393517
 20
135.4178662835704
 30
0.0
  0
VERTEX
  5
7A6
  8
1
  6
CONTINUOUS
 62
     7
 10
-336.8586417746457
 20
135.4170034307658
 30
0.0
  0
VERTEX
  5
7A7
  8
1
  6
CONTINUOUS
 62
     7
 10
-336.8594081099396
 20
135.4161170770932
 30
0.0
  0
VERTEX
  5
7A8
  8
1
  6
CONTINUOUS
 62
     7
 10
-336.8601744452337
 20
135.4152072511386
 30
0.0
  0
VERTEX
  5
7A9
  8
1
  6
CONTINUOUS
 62
     7
 10
-336.8609407805277
 20
135.4142739814881
 30
0.0
  0
VERTEX
  5
7AA
  8
1
  6
CONTINUOUS
 62
     7
 10
-336.8617071158217
 20
135.4133172967277
 30
0.0
  0
VERTEX
  5
7AB
  8
1
  6
CONTINUOUS
 62
     7
 10
-336.8624734511157
 20
135.4123372254434
 30
0.0
  0
VERTEX
  5
7AC
  8
1
  6
CONTINUOUS
 62
     7
 10
-336.8632397864097
 20
135.4113337962212
 30
0.0
  0
VERTEX
  5
7AD
  8
1
  6
CONTINUOUS
 62
     7
 10
-336.8640061217037
 20
135.4103070376471
 30
0.0
  0
VERTEX
  5
7AE
  8
1
  6
CONTINUOUS
 62
     7
 10
-336.8647724569977
 20
135.4092569783072
 30
0.0
  0
VERTEX
  5
7AF
  8
1
  6
CONTINUOUS
 62
     7
 10
-336.8655387922917
 20
135.4081836467875
 30
0.0
  0
VERTEX
  5
7B0
  8
1
  6
CONTINUOUS
 62
     7
 10
-336.8663051275857
 20
135.407087071674
 30
0.0
  0
VERTEX
  5
7B1
  8
1
  6
CONTINUOUS
 62
     7
 10
-336.8670714628797
 20
135.4059672815528
 30
0.0
  0
VERTEX
  5
7B2
  8
1
  6
CONTINUOUS
 62
     7
 10
-336.8678377981738
 20
135.4048243050098
 30
0.0
  0
VERTEX
  5
7B3
  8
1
  6
CONTINUOUS
 62
     7
 10
-336.8686041334677
 20
135.4036581706311
 30
0.0
  0
VERTEX
  5
7B4
  8
1
  6
CONTINUOUS
 62
     7
 10
-336.8693704687618
 20
135.4024689070027
 30
0.0
  0
VERTEX
  5
7B5
  8
1
  6
CONTINUOUS
 62
     7
 10
-336.8701368040557
 20
135.4012565427106
 30
0.0
  0
VERTEX
  5
7B6
  8
1
  6
CONTINUOUS
 62
     7
 10
-336.8709031393497
 20
135.4000211063409
 30
0.0
  0
VERTEX
  5
7B7
  8
1
  6
CONTINUOUS
 62
     7
 10
-336.8716694746437
 20
135.3987626264795
 30
0.0
  0
VERTEX
  5
7B8
  8
1
  6
CONTINUOUS
 62
     7
 10
-336.8724358099377
 20
135.3974811317126
 30
0.0
  0
SEQEND
  5
97C
  8
1
  6
CONTINUOUS
 62
     7
  0
LINE
  5
2AF
  8
1
  6
CONTINUOUS
 62
     9
 10
-354.5039591006303
 20
144.4333333333333
 30
0.0
 11
-354.5039591006303
 21
122.4333333333333
 31
0.0
  0
LINE
  5
2B0
  8
1
  6
CONTINUOUS
 62
     7
 10
-354.5039591006303
 20
144.4333333333333
 30
0.0
 11
-341.8713919890303
 21
144.4333333333333
 31
0.0
  0
LINE
  5
2B1
  8
1
  6
CONTINUOUS
 62
     9
 10
-341.8713919890303
 20
122.4333333333333
 30
0.0
 11
-341.8713919890303
 21
144.4333333333333
 31
0.0
  0
LINE
  5
2B2
  8
1
  6
CONTINUOUS
 62
     7
 10
-354.5039591006303
 20
122.4333333333333
 30
0.0
 11
-341.8713919890303
 21
122.4333333333333
 31
0.0
  0
POLYLINE
  5
2B3
  8
1
  6
CONTINUOUS
 62
     7
 66
     1
 10
0.0
 20
0.0
 30
0.0
  0
VERTEX
  5
7B9
  8
1
  6
CONTINUOUS
 62
     7
 10
-337.4853165533875
 20
142.6839432382245
 30
0.0
  0
VERTEX
  5
7BA
  8
1
  6
CONTINUOUS
 62
     7
 10
-337.9899487005712
 20
143.6231933400618
 30
0.0
  0
VERTEX
  5
7BB
  8
1
  6
CONTINUOUS
 62
     7
 10
-338.6217766271758
 20
144.4333333333333
 30
0.0
  0
SEQEND
  5
97D
  8
1
  6
CONTINUOUS
 62
     7
  0
POLYLINE
  5
2B4
  8
1
  6
CONTINUOUS
 62
     7
 66
     1
 10
0.0
 20
0.0
 30
0.0
  0
VERTEX
  5
7BC
  8
1
  6
CONTINUOUS
 62
     7
 10
-336.9422442000289
 20
141.9333333333333
 30
0.0
  0
VERTEX
  5
7BD
  8
1
  6
CONTINUOUS
 62
     7
 10
-337.0525677043323
 20
141.9955656601492
 30
0.0
  0
VERTEX
  5
7BE
  8
1
  6
CONTINUOUS
 62
     7
 10
-337.124318823852
 20
142.0718587875348
 30
0.0
  0
SEQEND
  5
97E
  8
1
  6
CONTINUOUS
 62
     7
  0
ARC
  5
2B5
  8
1
  6
CONTINUOUS
 62
     7
 10
-334.966448806844
 20
143.7570340004705
 30
0.0
 40
2.737922297764323
 50
203.0750269293179
 51
217.9878363607323
  0
LINE
  5
2B6
  8
1
  6
CONTINUOUS
 62
     7
 10
-336.9422442000289
 20
141.9333333333333
 30
0.0
 11
-336.8713919890303
 21
141.9333333333333
 31
0.0
  0
LINE
  5
2B7
  8
1
  6
CONTINUOUS
 62
     7
 10
-336.8713919890303
 20
141.9333333333333
 30
0.0
 11
-336.8713919890303
 21
124.9333333333333
 31
0.0
  0
LINE
  5
2B8
  8
1
  6
CONTINUOUS
 62
     7
 10
-336.8713919890303
 20
124.9333333333333
 30
0.0
 11
-336.9422442000289
 21
124.9333333333333
 31
0.0
  0
ARC
  5
2B9
  8
1
  6
CONTINUOUS
 62
     7
 10
-335.1516295533639
 20
123.2114705946625
 30
0.0
 40
2.527731607826317
 50
140.1339467652847
 51
157.4035011056629
  0
POLYLINE
  5
2BA
  8
1
  6
CONTINUOUS
 62
     7
 66
     1
 10
0.0
 20
0.0
 30
0.0
  0
VERTEX
  5
7BF
  8
1
  6
CONTINUOUS
 62
     7
 10
-337.0917774746748
 20
124.8317338833404
 30
0.0
  0
VERTEX
  5
7C0
  8
1
  6
CONTINUOUS
 62
     7
 10
-337.0174918929366
 20
124.9004639458438
 30
0.0
  0
VERTEX
  5
7C1
  8
1
  6
CONTINUOUS
 62
     7
 10
-336.9422442000288
 20
124.9333333333333
 30
0.0
  0
SEQEND
  5
97F
  8
1
  6
CONTINUOUS
 62
     7
  0
POLYLINE
  5
2BB
  8
1
  6
CONTINUOUS
 62
     7
 66
     1
 10
0.0
 20
0.0
 30
0.0
  0
VERTEX
  5
7C2
  8
1
  6
CONTINUOUS
 62
     7
 10
-338.6217766271758
 20
122.4333333333333
 30
0.0
  0
VERTEX
  5
7C3
  8
1
  6
CONTINUOUS
 62
     7
 10
-337.9899487005712
 20
123.2434733266048
 30
0.0
  0
VERTEX
  5
7C4
  8
1
  6
CONTINUOUS
 62
     7
 10
-337.4853165533875
 20
124.1827234284422
 30
0.0
  0
SEQEND
  5
980
  8
1
  6
CONTINUOUS
 62
     7
  0
LINE
  5
2BC
  8
1
  6
CONTINUOUS
 62
     7
 10
-338.6217766271758
 20
122.4333333333333
 30
0.0
 11
-341.8713919890303
 21
122.4333333333333
 31
0.0
  0
LINE
  5
2BD
  8
1
  6
CONTINUOUS
 62
     7
 10
-341.8713919890303
 20
144.4333333333333
 30
0.0
 11
-338.6217766271758
 21
144.4333333333333
 31
0.0
  0
LINE
  5
2BE
  8
1
  6
CONTINUOUS
 62
     7
 10
-358.7039591006302
 20
144.4333333333333
 30
0.0
 11
-354.5039591006303
 21
144.4333333333333
 31
0.0
  0
LINE
  5
2BF
  8
1
  6
CONTINUOUS
 62
     7
 10
-358.7039591006302
 20
122.4333333333333
 30
0.0
 11
-354.5039591006303
 21
122.4333333333333
 31
0.0
  0
ARC
  5
2C0
  8
1
  6
CONTINUOUS
 62
     7
 10
-337.6238119735814
 20
122.2857533178844
 30
0.0
 40
1.552419984551107
 50
269.9999999999995
 51
74.13529587760928
  0
ARC
  5
2C1
  8
1
  6
CONTINUOUS
 62
     7
 10
-336.8713919890303
 20
124.9333333333333
 30
0.0
 40
1.200000000000011
 50
233.5752756854898
 51
254.1352958776094
  0
ARC
  5
2C2
  8
1
  6
CONTINUOUS
 62
     7
 10
-337.6238119735814
 20
122.2857533178844
 30
0.0
 40
2.752419984551085
 50
269.9999999999997
 51
74.13529587760922
  0
LINE
  5
2C3
  8
1
  6
CONTINUOUS
 62
     7
 10
-341.0713919890302
 20
119.5333333333333
 30
0.0
 11
-337.6238119735814
 21
119.5333333333333
 31
0.0
  0
LINE
  5
2C4
  8
1
  6
CONTINUOUS
 62
     9
 10
-341.0713919890302
 20
120.7333333333333
 30
0.0
 11
-341.0713919890302
 21
119.5333333333333
 31
0.0
  0
LINE
  5
2C5
  8
1
  6
CONTINUOUS
 62
     7
 10
-337.6238119735814
 20
120.7333333333333
 30
0.0
 11
-341.0713919890302
 21
120.7333333333333
 31
0.0
  0
ARC
  5
2C6
  8
1
  6
CONTINUOUS
 62
     7
 10
-337.6238119735814
 20
144.5809133487822
 30
0.0
 40
2.752419984551085
 50
285.8647041223908
 51
90.0000000000003
  0
ARC
  5
2C7
  8
1
  6
CONTINUOUS
 62
     7
 10
-336.8713919890303
 20
141.9333333333333
 30
0.0
 40
1.199999999999989
 50
105.8647041223906
 51
126.4247243145115
  0
ARC
  5
2C8
  8
1
  6
CONTINUOUS
 62
     7
 10
-337.6238119735814
 20
144.5809133487822
 30
0.0
 40
1.552419984551107
 50
285.8647041223907
 51
90.00000000000055
  0
LINE
  5
2C9
  8
1
  6
CONTINUOUS
 62
     9
 10
-341.0713919890302
 20
147.3333333333333
 30
0.0
 11
-341.0713919890302
 21
146.1333333333333
 31
0.0
  0
LINE
  5
2CA
  8
1
  6
CONTINUOUS
 62
     7
 10
-337.6238119735814
 20
146.1333333333333
 30
0.0
 11
-341.0713919890302
 21
146.1333333333333
 31
0.0
  0
LINE
  5
2CB
  8
1
  6
CONTINUOUS
 62
     7
 10
-341.0713919890302
 20
147.3333333333333
 30
0.0
 11
-337.6238119735814
 21
147.3333333333333
 31
0.0
  0
LINE
  5
2CC
  8
1
  6
CONTINUOUS
 62
     7
 10
-341.0713919890302
 20
119.5333333333333
 30
0.0
 11
-343.0713919890302
 21
119.5333333333333
 31
0.0
  0
LINE
  5
2CD
  8
1
  6
CONTINUOUS
 62
     7
 10
-343.0713919890302
 20
119.5333333333333
 30
0.0
 11
-343.0713919890302
 21
120.7333333333333
 31
0.0
  0
LINE
  5
2CE
  8
1
  6
CONTINUOUS
 62
     7
 10
-343.0713919890302
 20
120.7333333333333
 30
0.0
 11
-341.0713919890302
 21
120.7333333333333
 31
0.0
  0
LINE
  5
2CF
  8
1
  6
CONTINUOUS
 62
     7
 10
-343.0713919890302
 20
146.1333333333333
 30
0.0
 11
-343.0713919890302
 21
147.3333333333333
 31
0.0
  0
LINE
  5
2D0
  8
1
  6
CONTINUOUS
 62
     7
 10
-341.0713919890302
 20
146.1333333333333
 30
0.0
 11
-343.0713919890302
 21
146.1333333333333
 31
0.0
  0
LINE
  5
2D1
  8
1
  6
CONTINUOUS
 62
     7
 10
-343.0713919890302
 20
147.3333333333333
 30
0.0
 11
-341.0713919890302
 21
147.3333333333333
 31
0.0
  0
LINE
  5
2D2
  8
1
  6
CONTINUOUS
 62
     7
 10
-336.8713919890303
 20
133.4333333333335
 30
0.0
 11
-330.8713919890303
 21
133.4333333333333
 31
0.0
  0
LINE
  5
2D3
  8
1
  6
CONTINUOUS
 62
     7
 10
-330.8713919890303
 20
133.4333333333333
 30
0.0
 11
-330.9325562188872
 21
126.4246067978349
 31
0.0
  0
LINE
  5
2D4
  8
1
  6
CONTINUOUS
 62
     9
 10
-336.8102277591734
 20
126.4246067978349
 30
0.0
 11
-330.9325562188872
 21
126.4246067978349
 31
0.0
  0
LINE
  5
2D5
  8
1
  6
CONTINUOUS
 62
     7
 10
-336.8713919890303
 20
133.4333333333335
 30
0.0
 11
-336.8102277591734
 21
126.4246067978349
 31
0.0
  0
LINE
  5
2D6
  8
1
  6
CONTINUOUS
 62
     7
 10
-336.8102277591734
 20
140.4420598688317
 30
0.0
 11
-336.8713919890303
 21
133.4333333333335
 31
0.0
  0
LINE
  5
2D7
  8
1
  6
CONTINUOUS
 62
     9
 10
-330.9325562188872
 20
140.4420598688317
 30
0.0
 11
-336.8102277591734
 21
140.4420598688317
 31
0.0
  0
LINE
  5
2D8
  8
1
  6
CONTINUOUS
 62
     7
 10
-330.9325562188872
 20
140.4420598688317
 30
0.0
 11
-330.8713919890303
 21
133.4333333333333
 31
0.0
  0
LINE
  5
2D9
  8
1
  6
CONTINUOUS
 62
     7
 10
-336.8015770467042
 20
141.4333333333333
 30
0.0
 11
-330.9412069313563
 21
141.4333333333333
 31
0.0
  0
LINE
  5
2DA
  8
1
  6
CONTINUOUS
 62
     7
 10
-330.9412069313563
 20
141.4333333333333
 30
0.0
 11
-330.9325562188871
 21
140.4420598688317
 31
0.0
  0
LINE
  5
2DB
  8
1
  6
CONTINUOUS
 62
     7
 10
-336.8102277591734
 20
140.4420598688317
 30
0.0
 11
-336.8015770467042
 21
141.4333333333333
 31
0.0
  0
LINE
  5
2DC
  8
1
  6
CONTINUOUS
 62
     7
 10
-330.9412069313563
 20
125.4333333333333
 30
0.0
 11
-336.8015770467042
 21
125.4333333333333
 31
0.0
  0
LINE
  5
2DD
  8
1
  6
CONTINUOUS
 62
     7
 10
-330.9325562188872
 20
126.4246067978349
 30
0.0
 11
-330.9412069313563
 21
125.4333333333333
 31
0.0
  0
LINE
  5
2DE
  8
1
  6
CONTINUOUS
 62
     7
 10
-336.8015770467042
 20
125.4333333333333
 30
0.0
 11
-336.8102277591734
 21
126.4246067978349
 31
0.0
  0
ARC
  5
2DF
  8
1
  6
CONTINUOUS
 62
     9
 10
-286.3713919890303
 20
133.4333333333333
 30
0.0
 40
0.758641351423769
 50
109.2406440950062
 51
250.7593559049938
  0
LINE
  5
2E0
  8
1
  6
CONTINUOUS
 62
     7
 10
-286.6213919890303
 20
132.7170675306524
 30
0.0
 11
-286.6019701650837
 21
132.2133272454296
 31
0.0
  0
ARC
  5
2E1
  8
1
  6
CONTINUOUS
 62
     9
 10
-286.3713919890303
 20
133.4333333333333
 30
0.0
 40
1.241604264568319
 50
100.7025226162913
 51
259.2974773837093
  0
LINE
  5
2E2
  8
1
  6
CONTINUOUS
 62
     7
 10
-286.6019701650837
 20
134.653339421237
 30
0.0
 11
-286.6213919890303
 21
134.1495991360142
 31
0.0
  0
LINE
  5
2E3
  8
1
  6
CONTINUOUS
 62
     7
 10
-286.2702598678339
 20
136.0322824548929
 30
0.0
 11
-286.2702598678339
 21
136.1814731212739
 31
0.0
  0
ARC
  5
2E4
  8
1
  6
CONTINUOUS
 62
     7
 10
-285.3713919890303
 20
133.4333333333333
 30
0.0
 40
2.750000000000001
 50
102.4625164264977
 51
109.0783641367908
  0
LINE
  5
2E5
  8
1
  6
CONTINUOUS
 62
     7
 10
-285.9636959062609
 20
136.1192815954747
 30
0.0
 11
-285.9648443631727
 21
136.1185361710394
 31
0.0
  0
LINE
  5
2E6
  8
1
  6
CONTINUOUS
 62
     9
 10
-285.9649243401724
 20
133.4333333333333
 30
0.0
 11
-285.9636959062609
 21
136.1192815954747
 31
0.0
  0
LINE
  5
2E7
  8
1
  6
CONTINUOUS
 62
     9
 10
-285.9636959062609
 20
130.7473850711919
 30
0.0
 11
-285.9649243401724
 21
133.4333333333333
 31
0.0
  0
LINE
  5
2E8
  8
1
  6
CONTINUOUS
 62
     7
 10
-285.9648443631727
 20
130.7481304956272
 30
0.0
 11
-285.9636959062609
 21
130.7473850711919
 31
0.0
  0
ARC
  5
2E9
  8
1
  6
CONTINUOUS
 62
     7
 10
-285.3713919890303
 20
133.4333333333333
 30
0.0
 40
2.750000000000001
 50
250.9216358632092
 51
257.5374835735023
  0
LINE
  5
2EA
  8
1
  6
CONTINUOUS
 62
     7
 10
-286.2702598678339
 20
130.6851935453927
 30
0.0
 11
-286.2702598678339
 21
130.8343842117738
 31
0.0
  0
ARC
  5
2EB
  8
1
  6
CONTINUOUS
 62
     7
 10
-286.3713919890303
 20
133.4333333333333
 30
0.0
 40
2.75
 50
271.4866545699228
 51
272.1075456741797
  0
LINE
  5
2EC
  8
1
  6
CONTINUOUS
 62
     7
 10
-286.3136098296864
 20
130.7180222432434
 30
0.0
 11
-286.3000456982964
 21
130.6842589969796
 31
0.0
  0
LINE
  5
2ED
  8
1
  6
CONTINUOUS
 62
     7
 10
-286.6019701650837
 20
132.2133272454296
 30
0.0
 11
-286.3136098296864
 21
130.7180222432434
 31
0.0
  0
LINE
  5
2EE
  8
1
  6
CONTINUOUS
 62
     7
 10
-286.6213919890303
 20
132.7170675306524
 30
0.0
 11
-286.6213919890303
 21
134.1495991360142
 31
0.0
  0
LINE
  5
2EF
  8
1
  6
CONTINUOUS
 62
     7
 10
-286.3136098296864
 20
136.1486444234233
 30
0.0
 11
-286.6019701650837
 21
134.653339421237
 31
0.0
  0
LINE
  5
2F0
  8
1
  6
CONTINUOUS
 62
     7
 10
-286.3000456982964
 20
136.182407669687
 30
0.0
 11
-286.3136098296864
 21
136.1486444234233
 31
0.0
  0
ARC
  5
2F1
  8
1
  6
CONTINUOUS
 62
     7
 10
-286.3713919890303
 20
133.4333333333333
 30
0.0
 40
2.75
 50
87.89245432582041
 51
88.51334543007721
  0
ARC
  5
2F2
  8
1
  6
CONTINUOUS
 62
     9
 10
-284.3713919890303
 20
133.4333333333333
 30
0.0
 40
0.7586413514237873
 50
289.2406440950074
 51
70.7593559049926
  0
LINE
  5
2F3
  8
1
  6
CONTINUOUS
 62
     7
 10
-284.1213919890303
 20
134.1495991360142
 30
0.0
 11
-284.1408138129768
 21
134.6533394212371
 31
0.0
  0
ARC
  5
2F4
  8
1
  6
CONTINUOUS
 62
     9
 10
-284.3713919890303
 20
133.4333333333333
 30
0.0
 40
1.241604264568329
 50
280.702522616292
 51
79.2974773837085
  0
LINE
  5
2F5
  8
1
  6
CONTINUOUS
 62
     7
 10
-284.1408138129768
 20
132.2133272454296
 30
0.0
 11
-284.1213919890303
 21
132.7170675306524
 31
0.0
  0
LINE
  5
2F6
  8
1
  6
CONTINUOUS
 62
     7
 10
-248.2702598678339
 20
136.0322824548929
 30
0.0
 11
-248.2702598678339
 21
136.1814731212739
 31
0.0
  0
ARC
  5
2F7
  8
1
  6
CONTINUOUS
 62
     7
 10
-247.3713919890303
 20
133.4333333333333
 30
0.0
 40
2.749999999999998
 50
102.4625164264977
 51
109.0783641367914
  0
LINE
  5
2F8
  8
1
  6
CONTINUOUS
 62
     7
 10
-247.9636959062609
 20
136.1192815954747
 30
0.0
 11
-247.9648443631727
 21
136.1185361710394
 31
0.0
  0
LINE
  5
2F9
  8
1
  6
CONTINUOUS
 62
     9
 10
-247.9649243401724
 20
133.4333333333333
 30
0.0
 11
-247.9636959062609
 21
136.1192815954747
 31
0.0
  0
LINE
  5
2FA
  8
1
  6
CONTINUOUS
 62
     9
 10
-247.9636959062609
 20
130.7473850711919
 30
0.0
 11
-247.9649243401724
 21
133.4333333333333
 31
0.0
  0
LINE
  5
2FB
  8
1
  6
CONTINUOUS
 62
     7
 10
-247.9648443631727
 20
130.7481304956272
 30
0.0
 11
-247.9636959062609
 21
130.7473850711919
 31
0.0
  0
ARC
  5
2FC
  8
1
  6
CONTINUOUS
 62
     7
 10
-247.3713919890303
 20
133.4333333333333
 30
0.0
 40
2.749999999999998
 50
250.9216358632086
 51
257.5374835735023
  0
LINE
  5
2FD
  8
1
  6
CONTINUOUS
 62
     7
 10
-248.2702598678339
 20
130.6851935453927
 30
0.0
 11
-248.2702598678339
 21
130.8343842117738
 31
0.0
  0
ARC
  5
2FE
  8
1
  6
CONTINUOUS
 62
     7
 10
-248.3713919890303
 20
133.4333333333333
 30
0.0
 40
2.750000000000004
 50
271.4866545699234
 51
272.107545674179
  0
LINE
  5
2FF
  8
1
  6
CONTINUOUS
 62
     7
 10
-248.3136098296864
 20
130.7180222432434
 30
0.0
 11
-248.3000456982964
 21
130.6842589969796
 31
0.0
  0
LINE
  5
300
  8
1
  6
CONTINUOUS
 62
     7
 10
-248.6019701650837
 20
132.2133272454296
 30
0.0
 11
-248.3136098296864
 21
130.7180222432434
 31
0.0
  0
LINE
  5
301
  8
1
  6
CONTINUOUS
 62
     7
 10
-248.6213919890303
 20
132.7170675306524
 30
0.0
 11
-248.6019701650837
 21
132.2133272454296
 31
0.0
  0
LINE
  5
302
  8
1
  6
CONTINUOUS
 62
     7
 10
-248.6213919890303
 20
132.7170675306524
 30
0.0
 11
-248.6213919890303
 21
134.1495991360142
 31
0.0
  0
LINE
  5
303
  8
1
  6
CONTINUOUS
 62
     7
 10
-248.6019701650837
 20
134.653339421237
 30
0.0
 11
-248.6213919890303
 21
134.1495991360142
 31
0.0
  0
LINE
  5
304
  8
1
  6
CONTINUOUS
 62
     7
 10
-248.3136098296864
 20
136.1486444234233
 30
0.0
 11
-248.6019701650837
 21
134.653339421237
 31
0.0
  0
LINE
  5
305
  8
1
  6
CONTINUOUS
 62
     7
 10
-248.3000456982964
 20
136.182407669687
 30
0.0
 11
-248.3136098296864
 21
136.1486444234233
 31
0.0
  0
ARC
  5
306
  8
1
  6
CONTINUOUS
 62
     7
 10
-248.3713919890303
 20
133.4333333333333
 30
0.0
 40
2.750000000000004
 50
87.89245432582098
 51
88.51334543007664
  0
LINE
  5
307
  8
1
  6
CONTINUOUS
 62
     7
 10
-246.4725241102266
 20
130.8343842117738
 30
0.0
 11
-246.4725241102266
 21
130.6851935453927
 31
0.0
  0
ARC
  5
308
  8
1
  6
CONTINUOUS
 62
     7
 10
-247.3713919890303
 20
133.4333333333333
 30
0.0
 40
2.749999999999998
 50
282.4625164264978
 51
289.0783641367914
  0
LINE
  5
309
  8
1
  6
CONTINUOUS
 62
     7
 10
-246.7790880717996
 20
130.7473850711919
 30
0.0
 11
-246.7779396148878
 21
130.7481304956272
 31
0.0
  0
LINE
  5
30A
  8
1
  6
CONTINUOUS
 62
     9
 10
-246.7778596378882
 20
133.4333333333333
 30
0.0
 11
-246.7790880717996
 21
130.7473850711919
 31
0.0
  0
LINE
  5
30B
  8
1
  6
CONTINUOUS
 62
     9
 10
-246.7790880717996
 20
136.1192815954747
 30
0.0
 11
-246.7778596378882
 21
133.4333333333333
 31
0.0
  0
LINE
  5
30C
  8
1
  6
CONTINUOUS
 62
     7
 10
-246.7779396148878
 20
136.1185361710394
 30
0.0
 11
-246.7790880717996
 21
136.1192815954747
 31
0.0
  0
ARC
  5
30D
  8
1
  6
CONTINUOUS
 62
     7
 10
-247.3713919890303
 20
133.4333333333333
 30
0.0
 40
2.749999999999998
 50
70.92163586320875
 51
77.53748357350234
  0
LINE
  5
30E
  8
1
  6
CONTINUOUS
 62
     7
 10
-246.4725241102266
 20
136.1814731212739
 30
0.0
 11
-246.4725241102266
 21
136.0322824548929
 31
0.0
  0
ARC
  5
30F
  8
1
  6
CONTINUOUS
 62
     7
 10
-246.3713919890303
 20
133.4333333333333
 30
0.0
 40
2.750000000000004
 50
91.48665456992336
 51
92.10754567417902
  0
LINE
  5
310
  8
1
  6
CONTINUOUS
 62
     7
 10
-246.4291741483741
 20
136.1486444234233
 30
0.0
 11
-246.4427382797641
 21
136.182407669687
 31
0.0
  0
LINE
  5
311
  8
1
  6
CONTINUOUS
 62
     7
 10
-246.1408138129768
 20
134.6533394212371
 30
0.0
 11
-246.4291741483741
 21
136.1486444234233
 31
0.0
  0
LINE
  5
312
  8
1
  6
CONTINUOUS
 62
     7
 10
-246.1213919890303
 20
134.1495991360142
 30
0.0
 11
-246.1408138129768
 21
134.6533394212371
 31
0.0
  0
LINE
  5
313
  8
1
  6
CONTINUOUS
 62
     7
 10
-246.1213919890303
 20
132.7170675306524
 30
0.0
 11
-246.1213919890303
 21
134.1495991360142
 31
0.0
  0
LINE
  5
314
  8
1
  6
CONTINUOUS
 62
     7
 10
-246.1408138129768
 20
132.2133272454296
 30
0.0
 11
-246.1213919890303
 21
132.7170675306524
 31
0.0
  0
LINE
  5
315
  8
1
  6
CONTINUOUS
 62
     7
 10
-246.4291741483741
 20
130.7180222432434
 30
0.0
 11
-246.1408138129768
 21
132.2133272454296
 31
0.0
  0
LINE
  5
316
  8
1
  6
CONTINUOUS
 62
     7
 10
-246.4427382797641
 20
130.6842589969796
 30
0.0
 11
-246.4291741483741
 21
130.7180222432434
 31
0.0
  0
ARC
  5
317
  8
1
  6
CONTINUOUS
 62
     7
 10
-246.3713919890303
 20
133.4333333333333
 30
0.0
 40
2.750000000000004
 50
267.8924543258209
 51
268.5133454300765
  0
ARC
  5
318
  8
1
  6
CONTINUOUS
 62
     9
 10
-246.3713919890303
 20
133.4333333333333
 30
0.0
 40
0.7586413514237781
 50
289.2406440950068
 51
70.75935590499319
  0
ARC
  5
319
  8
1
  6
CONTINUOUS
 62
     9
 10
-246.3713919890303
 20
133.4333333333333
 30
0.0
 40
1.241604264568324
 50
280.7025226162917
 51
79.29747738370895
  0
ARC
  5
31A
  8
1
  6
CONTINUOUS
 62
     9
 10
-248.3713919890303
 20
133.4333333333333
 30
0.0
 40
0.7586413514237781
 50
109.2406440950068
 51
250.7593559049932
  0
ARC
  5
31B
  8
1
  6
CONTINUOUS
 62
     9
 10
-248.3713919890303
 20
133.4333333333333
 30
0.0
 40
1.241604264568324
 50
100.7025226162917
 51
259.297477383709
  0
LINE
  5
31C
  8
1
  6
CONTINUOUS
 62
     7
 10
-284.4725241102267
 20
130.8343842117738
 30
0.0
 11
-284.4725241102267
 21
130.6851935453927
 31
0.0
  0
ARC
  5
31D
  8
1
  6
CONTINUOUS
 62
     7
 10
-285.3713919890303
 20
133.4333333333333
 30
0.0
 40
2.750000000000001
 50
282.4625164264977
 51
289.0783641367908
  0
LINE
  5
31E
  8
1
  6
CONTINUOUS
 62
     7
 10
-284.7790880717995
 20
130.7473850711919
 30
0.0
 11
-284.7779396148878
 21
130.7481304956272
 31
0.0
  0
LINE
  5
31F
  8
1
  6
CONTINUOUS
 62
     9
 10
-284.7778596378881
 20
133.4333333333333
 30
0.0
 11
-284.7790880717995
 21
130.7473850711919
 31
0.0
  0
LINE
  5
320
  8
1
  6
CONTINUOUS
 62
     9
 10
-284.7790880717995
 20
136.1192815954747
 30
0.0
 11
-284.7778596378881
 21
133.4333333333333
 31
0.0
  0
LINE
  5
321
  8
1
  6
CONTINUOUS
 62
     7
 10
-284.7779396148878
 20
136.1185361710394
 30
0.0
 11
-284.7790880717995
 21
136.1192815954747
 31
0.0
  0
ARC
  5
322
  8
1
  6
CONTINUOUS
 62
     7
 10
-285.3713919890303
 20
133.4333333333333
 30
0.0
 40
2.750000000000001
 50
70.92163586320925
 51
77.53748357350234
  0
LINE
  5
323
  8
1
  6
CONTINUOUS
 62
     7
 10
-284.4725241102267
 20
136.1814731212739
 30
0.0
 11
-284.4725241102267
 21
136.0322824548929
 31
0.0
  0
ARC
  5
324
  8
1
  6
CONTINUOUS
 62
     7
 10
-284.3713919890303
 20
133.4333333333333
 30
0.0
 40
2.750000000000001
 50
91.48665456992279
 51
92.10754567417959
  0
LINE
  5
325
  8
1
  6
CONTINUOUS
 62
     7
 10
-284.4291741483742
 20
136.1486444234233
 30
0.0
 11
-284.4427382797641
 21
136.182407669687
 31
0.0
  0
LINE
  5
326
  8
1
  6
CONTINUOUS
 62
     7
 10
-284.1408138129768
 20
134.6533394212371
 30
0.0
 11
-284.4291741483742
 21
136.1486444234233
 31
0.0
  0
LINE
  5
327
  8
1
  6
CONTINUOUS
 62
     7
 10
-284.1213919890303
 20
132.7170675306524
 30
0.0
 11
-284.1213919890303
 21
134.1495991360142
 31
0.0
  0
LINE
  5
328
  8
1
  6
CONTINUOUS
 62
     7
 10
-284.4291741483742
 20
130.7180222432434
 30
0.0
 11
-284.1408138129768
 21
132.2133272454296
 31
0.0
  0
LINE
  5
329
  8
1
  6
CONTINUOUS
 62
     7
 10
-284.4427382797641
 20
130.6842589969796
 30
0.0
 11
-284.4291741483742
 21
130.7180222432434
 31
0.0
  0
ARC
  5
32A
  8
1
  6
CONTINUOUS
 62
     7
 10
-284.3713919890303
 20
133.4333333333333
 30
0.0
 40
2.750000000000001
 50
267.8924543258204
 51
268.5133454300772
  0
ARC
  5
32B
  8
1
  6
CONTINUOUS
 62
     9
 10
-286.3713919890303
 20
133.4333333333333
 30
0.0
 40
2.715925826289071
 50
88.78092264636297
 51
271.2190773536371
  0
ARC
  5
32C
  8
1
  6
CONTINUOUS
 62
     9
 10
-248.3713919890303
 20
133.4333333333333
 30
0.0
 40
2.715925826289071
 50
88.78092264636315
 51
271.2190773536369
  0
ARC
  5
32D
  8
1
  6
CONTINUOUS
 62
     9
 10
-284.3713919890303
 20
133.4333333333333
 30
0.0
 40
2.715925826289071
 50
268.7809226463633
 51
91.21907735363675
  0
ARC
  5
32E
  8
1
  6
CONTINUOUS
 62
     9
 10
-246.3713919890303
 20
133.4333333333333
 30
0.0
 40
2.715925826289071
 50
268.7809226463631
 51
91.21907735363685
  0
LINE
  5
32F
  8
1
  6
CONTINUOUS
 62
     7
 10
-336.8015770467042
 20
141.4333333333333
 30
0.0
 11
-336.8713919890303
 21
141.4333333333333
 31
0.0
  0
LINE
  5
330
  8
1
  6
CONTINUOUS
 62
     7
 10
-336.8015770467042
 20
125.4333333333333
 30
0.0
 11
-336.8713919890303
 21
125.4333333333333
 31
0.0
  0
ARC
  5
331
  8
1
  6
CONTINUOUS
 62
     7
 10
-286.3713919890303
 20
133.4333333333333
 30
0.0
 40
2.749999999999988
 50
88.51334543007694
 51
271.4866545699232
  0
ARC
  5
332
  8
1
  6
CONTINUOUS
 62
     7
 10
-248.3713919890303
 20
133.4333333333333
 30
0.0
 40
2.750000000000016
 50
88.51334543007727
 51
271.4866545699231
  0
ARC
  5
333
  8
1
  6
CONTINUOUS
 62
     7
 10
-284.3713919890303
 20
133.4333333333333
 30
0.0
 40
2.749999999999988
 50
268.5133454300773
 51
91.48665456992296
  0
ARC
  5
334
  8
1
  6
CONTINUOUS
 62
     7
 10
-246.3713919890303
 20
133.4333333333333
 30
0.0
 40
2.749999999999988
 50
268.5133454300773
 51
91.48665456992309
  0
LINE
  5
335
  8
1
  6
CONTINUOUS
 62
     7
 10
-327.8715062198377
 20
133.4333333333333
 30
0.0
 11
-330.5254541441195
 21
133.4333333333333
 31
0.0
  0
LINE
  5
336
  8
1
  6
CONTINUOUS
 62
     9
 10
-327.8715062198377
 20
133.4333333333333
 30
0.0
 11
-327.9413211621638
 21
125.4333333333333
 31
0.0
  0
LINE
  5
337
  8
1
  6
CONTINUOUS
 62
     7
 10
-330.9412069313563
 20
125.4333333333333
 30
0.0
 11
-327.9413211621638
 21
125.4333333333333
 31
0.0
  0
LINE
  5
338
  8
1
  6
CONTINUOUS
 62
     9
 10
-327.9413211621638
 20
141.4333333333333
 30
0.0
 11
-327.8715062198377
 21
133.4333333333333
 31
0.0
  0
LINE
  5
339
  8
1
  6
CONTINUOUS
 62
     7
 10
-327.9413211621638
 20
141.4333333333333
 30
0.0
 11
-330.9412069313563
 21
141.4333333333333
 31
0.0
  0
ARC
  5
33A
  8
1
  6
CONTINUOUS
 62
     9
 10
-247.3713919890303
 20
133.4376966010825
 30
0.0
 40
3.249999999999996
 50
271.6350341436082
 51
307.729664305805
  0
LINE
  5
33B
  8
1
  6
CONTINUOUS
 62
     7
 10
-247.2786602063061
 20
130.1890198217656
 30
0.0
 11
-246.7790880717996
 21
130.7473850711919
 31
0.0
  0
LINE
  5
33C
  8
1
  6
CONTINUOUS
 62
     7
 10
-246.7790880717996
 20
136.1192815954747
 30
0.0
 11
-247.2786602063061
 21
136.677646844901
 31
0.0
  0
ARC
  5
33D
  8
1
  6
CONTINUOUS
 62
     9
 10
-247.3713919890303
 20
133.4289700655841
 30
0.0
 40
3.249999999999996
 50
52.27033569419507
 51
88.36496585639179
  0
ARC
  5
33E
  8
1
  6
CONTINUOUS
 62
     9
 10
-285.3713919890303
 20
133.4376966010825
 30
0.0
 40
3.25
 50
271.6350341436087
 51
307.7296643058064
  0
LINE
  5
33F
  8
1
  6
CONTINUOUS
 62
     7
 10
-285.2786602063061
 20
130.1890198217656
 30
0.0
 11
-284.7790880717995
 21
130.7473850711919
 31
0.0
  0
LINE
  5
340
  8
1
  6
CONTINUOUS
 62
     7
 10
-284.7790880717995
 20
136.1192815954747
 30
0.0
 11
-285.2786602063061
 21
136.677646844901
 31
0.0
  0
ARC
  5
341
  8
1
  6
CONTINUOUS
 62
     9
 10
-285.3713919890303
 20
133.4289700655841
 30
0.0
 40
3.25
 50
52.27033569419365
 51
88.36496585639134
  0
ARC
  5
342
  8
1
  6
CONTINUOUS
 62
     9
 10
-285.3713919890303
 20
133.4289700655841
 30
0.0
 40
3.25
 50
91.63503414360866
 51
127.7296643058074
  0
LINE
  5
343
  8
1
  6
CONTINUOUS
 62
     7
 10
-285.4641237717544
 20
136.677646844901
 30
0.0
 11
-285.9636959062609
 21
136.1192815954747
 31
0.0
  0
LINE
  5
344
  8
1
  6
CONTINUOUS
 62
     7
 10
-285.9636959062609
 20
130.7473850711919
 30
0.0
 11
-285.4641237717544
 21
130.1890198217656
 31
0.0
  0
ARC
  5
345
  8
1
  6
CONTINUOUS
 62
     9
 10
-285.3713919890303
 20
133.4376966010825
 30
0.0
 40
3.25
 50
232.2703356941929
 51
268.3649658563913
  0
ARC
  5
346
  8
1
  6
CONTINUOUS
 62
     9
 10
-247.3713919890303
 20
133.4289700655841
 30
0.0
 40
3.249999999999996
 50
91.6350341436082
 51
127.7296643058064
  0
LINE
  5
347
  8
1
  6
CONTINUOUS
 62
     7
 10
-247.4641237717544
 20
136.677646844901
 30
0.0
 11
-247.9636959062609
 21
136.1192815954747
 31
0.0
  0
LINE
  5
348
  8
1
  6
CONTINUOUS
 62
     7
 10
-247.9636959062609
 20
130.7473850711919
 30
0.0
 11
-247.4641237717544
 21
130.1890198217656
 31
0.0
  0
ARC
  5
349
  8
1
  6
CONTINUOUS
 62
     9
 10
-247.3713919890303
 20
133.4376966010825
 30
0.0
 40
3.249999999999996
 50
232.270335694194
 51
268.3649658563918
  0
LINE
  5
34A
  8
1
  6
CONTINUOUS
 62
     7
 10
-246.7778596378882
 20
133.4333333333333
 30
0.0
 11
-247.2771764008311
 21
133.4333333333333
 31
0.0
  0
LINE
  5
34B
  8
1
  6
CONTINUOUS
 62
     9
 10
-247.2786602063061
 20
130.1890198217656
 30
0.0
 11
-247.2771764008311
 21
133.4333333333333
 31
0.0
  0
LINE
  5
34C
  8
1
  6
CONTINUOUS
 62
     7
 10
-247.4656075772295
 20
133.4333333333334
 30
0.0
 11
-247.9649243401724
 21
133.4333333333334
 31
0.0
  0
LINE
  5
34D
  8
1
  6
CONTINUOUS
 62
     9
 10
-247.4656075772295
 20
133.4333333333333
 30
0.0
 11
-247.4641237717544
 21
130.1890198217656
 31
0.0
  0
LINE
  5
34E
  8
1
  6
CONTINUOUS
 62
     9
 10
-285.4641237717544
 20
136.677646844901
 30
0.0
 11
-285.4656075772294
 21
133.4333333333333
 31
0.0
  0
LINE
  5
34F
  8
1
  6
CONTINUOUS
 62
     7
 10
-285.4656075772294
 20
133.4333333333334
 30
0.0
 11
-285.9649243401724
 21
133.4333333333334
 31
0.0
  0
LINE
  5
350
  8
1
  6
CONTINUOUS
 62
     9
 10
-247.2771764008311
 20
133.4333333333333
 30
0.0
 11
-247.2786602063061
 21
136.677646844901
 31
0.0
  0
LINE
  5
351
  8
1
  6
CONTINUOUS
 62
     9
 10
-247.4641237717544
 20
136.677646844901
 30
0.0
 11
-247.4656075772295
 21
133.4333333333333
 31
0.0
  0
LINE
  5
352
  8
1
  6
CONTINUOUS
 62
     9
 10
-285.4656075772294
 20
133.4333333333333
 30
0.0
 11
-285.4641237717544
 21
130.1890198217656
 31
0.0
  0
LINE
  5
353
  8
1
  6
CONTINUOUS
 62
     7
 10
-284.7778596378881
 20
133.4333333333333
 30
0.0
 11
-285.277176400831
 21
133.4333333333333
 31
0.0
  0
LINE
  5
354
  8
1
  6
CONTINUOUS
 62
     9
 10
-285.2786602063061
 20
130.1890198217656
 30
0.0
 11
-285.277176400831
 21
133.4333333333333
 31
0.0
  0
LINE
  5
355
  8
1
  6
CONTINUOUS
 62
     9
 10
-285.277176400831
 20
133.4333333333333
 30
0.0
 11
-285.2786602063061
 21
136.677646844901
 31
0.0
  0
LINE
  5
356
  8
1
  6
CONTINUOUS
 62
     7
 10
-241.3713919890303
 20
133.4333333333334
 30
0.0
 11
-243.6213919890303
 21
133.4333333333333
 31
0.0
  0
LINE
  5
357
  8
1
  6
CONTINUOUS
 62
     7
 10
-247.2771764008311
 20
133.4333333333333
 30
0.0
 11
-247.4656075772295
 21
133.4333333333333
 31
0.0
  0
LINE
  5
358
  8
1
  6
CONTINUOUS
 62
     7
 10
-251.1213919890303
 20
133.4333333333333
 30
0.0
 11
-281.6213919890303
 21
133.4333333333333
 31
0.0
  0
LINE
  5
359
  8
1
  6
CONTINUOUS
 62
     7
 10
-285.277176400831
 20
133.4333333333333
 30
0.0
 11
-285.4656075772294
 21
133.4333333333333
 31
0.0
  0
LINE
  5
35A
  8
1
  6
CONTINUOUS
 62
     7
 10
-289.1213919890303
 20
133.4333333333333
 30
0.0
 11
-327.8715062198377
 21
133.4333333333333
 31
0.0
  0
ARC
  5
35B
  8
1
  6
CONTINUOUS
 62
     7
 10
-244.4151405631413
 20
138.4333333333333
 30
0.0
 40
3.0
 50
0.4999999999999485
 51
90.0
  0
LINE
  5
35C
  8
1
  6
CONTINUOUS
 62
     7
 10
-241.4152547939487
 20
138.4595129398284
 30
0.0
 11
-241.3713919890303
 21
133.4333333333334
 31
0.0
  0
LINE
  5
35D
  8
1
  6
CONTINUOUS
 62
     7
 10
-327.9413211621638
 20
141.4333333333333
 30
0.0
 11
-244.4151405631413
 21
141.4333333333333
 31
0.0
  0
LINE
  5
35E
  8
1
  6
CONTINUOUS
 62
     7
 10
-241.3713919890303
 20
133.4333333333334
 30
0.0
 11
-241.4152547939487
 21
128.4071537268382
 31
0.0
  0
ARC
  5
35F
  8
1
  6
CONTINUOUS
 62
     7
 10
-244.4151405631413
 20
128.4333333333333
 30
0.0
 40
3.0
 50
270.0
 51
359.5000000000001
  0
LINE
  5
360
  8
1
  6
CONTINUOUS
 62
     7
 10
-327.9413211621638
 20
125.4333333333333
 30
0.0
 11
-244.4151405631413
 21
125.4333333333333
 31
0.0
  0
LINE
  5
361
  8
1
  6
CONTINUOUS
 62
     7
 10
-334.8713919890303
 20
114.3333333333333
 30
0.0
 11
-334.8713919890303
 21
115.6653989034799
 31
0.0
  0
LINE
  5
362
  8
1
  6
CONTINUOUS
 62
     9
 10
-340.2492158399596
 20
119.4333333333333
 30
0.0
 11
-330.9586606669379
 21
119.4333333333333
 31
0.0
  0
LINE
  5
363
  8
1
  6
CONTINUOUS
 62
     9
 10
-334.8713919890303
 20
115.6653989034799
 30
0.0
 11
-330.9915429325515
 21
115.6653989034799
 31
0.0
  0
LINE
  5
364
  8
1
  6
CONTINUOUS
 62
     7
 10
-330.9586606669379
 20
119.4333333333333
 30
0.0
 11
-330.9915429325515
 21
115.6653989034799
 31
0.0
  0
LINE
  5
365
  8
1
  6
CONTINUOUS
 62
     7
 10
-340.2492158399596
 20
119.4333333333333
 30
0.0
 11
-340.2047088142268
 21
114.3333333333333
 31
0.0
  0
LINE
  5
366
  8
1
  6
CONTINUOUS
 62
     7
 10
-330.9062994601933
 20
125.4333333333333
 30
0.0
 11
-330.9586606669379
 21
119.4333333333333
 31
0.0
  0
LINE
  5
367
  8
1
  6
CONTINUOUS
 62
     7
 10
-340.2753964433319
 20
122.4333333333333
 30
0.0
 11
-340.2605607680877
 21
120.7333333333333
 31
0.0
  0
LINE
  5
368
  8
1
  6
CONTINUOUS
 62
     7
 10
-340.2500885267387
 20
119.5333333333333
 30
0.0
 11
-340.2492158399596
 21
119.4333333333333
 31
0.0
  0
LINE
  5
369
  8
1
  6
CONTINUOUS
 62
     7
 10
-330.9915429325515
 20
115.6653989034799
 30
0.0
 11
-330.9926826149161
 21
115.53480423974
 31
0.0
  0
ARC
  5
36A
  8
1
  6
CONTINUOUS
 62
     7
 10
-331.8652815072248
 20
131.3263225797404
 30
0.0
 40
1.299999999999991
 50
318.121356456796
 51
344.1191499917203
  0
ARC
  5
36B
  8
1
  6
CONTINUOUS
 62
     7
 10
-331.8652815072248
 20
135.5403440869262
 30
0.0
 40
1.299999999999966
 50
15.8808500082797
 51
41.87864354320405
  0
ARC
  5
36C
  8
1
  6
CONTINUOUS
 62
     7
 10
-339.2713942314711
 20
133.4333333333333
 30
0.0
 40
8.999999999999998
 50
13.64618999803159
 51
15.88085000827981
  0
ARC
  5
36D
  8
1
  6
CONTINUOUS
 62
     7
 10
-339.2713942314711
 20
133.4333333333333
 30
0.0
 40
8.999999999999954
 50
344.1191499917202
 51
346.3538100019684
  0
LINE
  5
36E
  8
1
  6
CONTINUOUS
 62
     7
 10
-336.8713919890303
 20
131.9333333333333
 30
0.0
 11
-336.8583016873441
 21
131.9333333333333
 31
0.0
  0
LINE
  5
36F
  8
1
  6
CONTINUOUS
 62
     7
 10
-358.7039591006302
 20
144.4333333333333
 30
0.0
 11
-358.7039591006302
 21
122.4333333333333
 31
0.0
  0
LINE
  5
370
  8
1
  6
CONTINUOUS
 62
     7
 10
-340.2047088142268
 20
114.3333333333333
 30
0.0
 11
-334.8713919890303
 21
114.3333333333333
 31
0.0
  0
LINE
  5
371
  8
1
  6
CONTINUOUS
 62
     7
 10
-334.8713919890303
 20
115.53480423974
 30
0.0
 11
-330.9926826149161
 21
115.53480423974
 31
0.0
  0
ENDBLK
  8
0
  0
BLOCK
  8
0
  2
D_FRAME_VIEW_2481
 70
     0
 10
0.0
 20
0.0
 30
0.0
  0
LINE
  5
376
  8
1
  6
CONTINUOUS
 62
     7
 10
-157.9333333333333
 20
206.9289911218365
 30
0.0
 11
-157.9333333333333
 21
206.165370035383
 31
0.0
  0
LINE
  5
377
  8
1
  6
CONTINUOUS
 62
     7
 10
-156.3697122468801
 20
207.7289911218365
 30
0.0
 11
-157.1333333333334
 21
207.7289911218365
 31
0.0
  0
ARC
  5
378
  8
1
  6
CONTINUOUS
 62
     7
 10
-158.4333333333333
 20
208.2289911218365
 30
0.0
 40
2.123330400209869
 50
346.3801323491001
 51
13.61986765089654
  0
LINE
  5
379
  8
1
  6
CONTINUOUS
 62
     7
 10
-157.1333333333334
 20
208.7289911218365
 30
0.0
 11
-156.3697122468799
 21
208.7289911218365
 31
0.0
  0
POLYLINE
  5
37A
  8
1
  6
CONTINUOUS
 62
     7
 66
     1
 10
0.0
 20
0.0
 30
0.0
  0
VERTEX
  5
7C7
  8
1
  6
CONTINUOUS
 62
     7
 10
-157.9333333333333
 20
209.5289911218365
 30
0.0
  0
VERTEX
  5
7C8
  8
1
  6
CONTINUOUS
 62
     7
 10
-157.9326607101509
 20
209.4962554112553
 30
0.0
  0
VERTEX
  5
7C9
  8
1
  6
CONTINUOUS
 62
     7
 10
-157.9306450984249
 20
209.4635187495637
 30
0.0
  0
VERTEX
  5
7CA
  8
1
  6
CONTINUOUS
 62
     7
 10
-157.9272898848878
 20
209.4308642488802
 30
0.0
  0
VERTEX
  5
7CB
  8
1
  6
CONTINUOUS
 62
     7
 10
-157.9225984562715
 20
209.398375021323
 30
0.0
  0
VERTEX
  5
7CC
  8
1
  6
CONTINUOUS
 62
     7
 10
-157.9163748547193
 20
209.365158332511
 30
0.0
  0
VERTEX
  5
7CD
  8
1
  6
CONTINUOUS
 62
     7
 10
-157.9087401747852
 20
209.3321772200512
 30
0.0
  0
VERTEX
  5
7CE
  8
1
  6
CONTINUOUS
 62
     7
 10
-157.8997139391462
 20
209.2995222107201
 30
0.0
  0
VERTEX
  5
7CF
  8
1
  6
CONTINUOUS
 62
     7
 10
-157.8893156704796
 20
209.2672838312944
 30
0.0
  0
VERTEX
  5
7D0
  8
1
  6
CONTINUOUS
 62
     7
 10
-157.877882872481
 20
209.2363453518039
 30
0.0
  0
VERTEX
  5
7D1
  8
1
  6
CONTINUOUS
 62
     7
 10
-157.8651648384792
 20
209.2058583923631
 30
0.0
  0
VERTEX
  5
7D2
  8
1
  6
CONTINUOUS
 62
     7
 10
-157.851194491344
 20
209.1759034195376
 30
0.0
  0
VERTEX
  5
7D3
  8
1
  6
CONTINUOUS
 62
     7
 10
-157.8360047539449
 20
209.146560899893
 30
0.0
  0
VERTEX
  5
7D4
  8
1
  6
CONTINUOUS
 62
     7
 10
-157.8190977212964
 20
209.1170176948887
 30
0.0
  0
VERTEX
  5
7D5
  8
1
  6
CONTINUOUS
 62
     7
 10
-157.8009242304229
 20
209.088181268567
 30
0.0
  0
VERTEX
  5
7D6
  8
1
  6
CONTINUOUS
 62
     7
 10
-157.7815359861401
 20
209.0601326950153
 30
0.0
  0
VERTEX
  5
7D7
  8
1
  6
CONTINUOUS
 62
     7
 10
-157.7609846932639
 20
209.0329530483206
 30
0.0
  0
VERTEX
  5
7D8
  8
1
  6
CONTINUOUS
 62
     7
 10
-157.7401685089931
 20
209.0076978337359
 30
0.0
  0
VERTEX
  5
7D9
  8
1
  6
CONTINUOUS
 62
     7
 10
-157.7183147824215
 20
208.9832907284016
 30
0.0
  0
VERTEX
  5
7DA
  8
1
  6
CONTINUOUS
 62
     7
 10
-157.6954817503376
 20
208.9597945122558
 30
0.0
  0
VERTEX
  5
7DB
  8
1
  6
CONTINUOUS
 62
     7
 10
-157.6717276495295
 20
208.9372719652362
 30
0.0
  0
VERTEX
  5
7DC
  8
1
  6
CONTINUOUS
 62
     7
 10
-157.6463334393407
 20
208.9151295759623
 30
0.0
  0
VERTEX
  5
7DD
  8
1
  6
CONTINUOUS
 62
     7
 10
-157.6200093490986
 20
208.8940598262822
 30
0.0
  0
VERTEX
  5
7DE
  8
1
  6
CONTINUOUS
 62
     7
 10
-157.5928299217987
 20
208.8741186232093
 30
0.0
  0
VERTEX
  5
7DF
  8
1
  6
CONTINUOUS
 62
     7
 10
-157.5648697004362
 20
208.8553618737573
 30
0.0
  0
VERTEX
  5
7E0
  8
1
  6
CONTINUOUS
 62
     7
 10
-157.5371174466149
 20
208.8383724232724
 30
0.0
  0
VERTEX
  5
7E1
  8
1
  6
CONTINUOUS
 62
     7
 10
-157.5086850170978
 20
208.8225184506883
 30
0.0
  0
VERTEX
  5
7E2
  8
1
  6
CONTINUOUS
 62
     7
 10
-157.4796469186175
 20
208.8078373976131
 30
0.0
  0
VERTEX
  5
7E3
  8
1
  6
CONTINUOUS
 62
     7
 10
-157.4500776579067
 20
208.7943667056546
 30
0.0
  0
VERTEX
  5
7E4
  8
1
  6
CONTINUOUS
 62
     7
 10
-157.4191346029487
 20
208.7817876288497
 30
0.0
  0
VERTEX
  5
7E5
  8
1
  6
CONTINUOUS
 62
     7
 10
-157.3876861033777
 20
208.7705080782846
 30
0.0
  0
VERTEX
  5
7E6
  8
1
  6
CONTINUOUS
 62
     7
 10
-157.3558176902818
 20
208.7605536613938
 30
0.0
  0
VERTEX
  5
7E7
  8
1
  6
CONTINUOUS
 62
     7
 10
-157.3236148947489
 20
208.7519499856118
 30
0.0
  0
VERTEX
  5
7E8
  8
1
  6
CONTINUOUS
 62
     7
 10
-157.2860581279539
 20
208.7437132550893
 30
0.0
  0
VERTEX
  5
7E9
  8
1
  6
CONTINUOUS
 62
     7
 10
-157.2481181529285
 20
208.7372883307868
 30
0.0
  0
VERTEX
  5
7EA
  8
1
  6
CONTINUOUS
 62
     7
 10
-157.209928405159
 20
208.732685885368
 30
0.0
  0
VERTEX
  5
7EB
  8
1
  6
CONTINUOUS
 62
     7
 10
-157.1716223201318
 20
208.7299165914966
 30
0.0
  0
VERTEX
  5
7EC
  8
1
  6
CONTINUOUS
 62
     7
 10
-157.1333333333334
 20
208.7289911218365
 30
0.0
  0
SEQEND
  5
981
  8
1
  6
CONTINUOUS
 62
     7
  0
LINE
  5
37B
  8
1
  6
CONTINUOUS
 62
     7
 10
-157.9333333333333
 20
210.29261220829
 30
0.0
 11
-157.9333333333333
 21
209.5289911218365
 31
0.0
  0
ARC
  5
37C
  8
1
  6
CONTINUOUS
 62
     7
 10
-158.4333333333333
 20
208.2289911218365
 30
0.0
 40
2.123330400209869
 50
76.38013234910342
 51
103.6198676508966
  0
LINE
  5
37D
  8
1
  6
CONTINUOUS
 62
     7
 10
-158.9333333333333
 20
209.5289911218365
 30
0.0
 11
-158.9333333333333
 21
210.29261220829
 31
0.0
  0
POLYLINE
  5
37E
  8
1
  6
CONTINUOUS
 62
     7
 66
     1
 10
0.0
 20
0.0
 30
0.0
  0
VERTEX
  5
7ED
  8
1
  6
CONTINUOUS
 62
     7
 10
-159.7333333333333
 20
208.7289911218365
 30
0.0
  0
VERTEX
  5
7EE
  8
1
  6
CONTINUOUS
 62
     7
 10
-159.7005976227521
 20
208.7296637450189
 30
0.0
  0
VERTEX
  5
7EF
  8
1
  6
CONTINUOUS
 62
     7
 10
-159.6678609610606
 20
208.7316793567449
 30
0.0
  0
VERTEX
  5
7F0
  8
1
  6
CONTINUOUS
 62
     7
 10
-159.6352064603771
 20
208.735034570282
 30
0.0
  0
VERTEX
  5
7F1
  8
1
  6
CONTINUOUS
 62
     7
 10
-159.6027172328198
 20
208.7397259988983
 30
0.0
  0
VERTEX
  5
7F2
  8
1
  6
CONTINUOUS
 62
     7
 10
-159.5695005440078
 20
208.7459496004506
 30
0.0
  0
VERTEX
  5
7F3
  8
1
  6
CONTINUOUS
 62
     7
 10
-159.5365194315481
 20
208.7535842803847
 30
0.0
  0
VERTEX
  5
7F4
  8
1
  6
CONTINUOUS
 62
     7
 10
-159.503864422217
 20
208.7626105160236
 30
0.0
  0
VERTEX
  5
7F5
  8
1
  6
CONTINUOUS
 62
     7
 10
-159.4716260427913
 20
208.7730087846902
 30
0.0
  0
VERTEX
  5
7F6
  8
1
  6
CONTINUOUS
 62
     7
 10
-159.4406875633007
 20
208.7844415826888
 30
0.0
  0
VERTEX
  5
7F7
  8
1
  6
CONTINUOUS
 62
     7
 10
-159.4102006038599
 20
208.7971596166906
 30
0.0
  0
VERTEX
  5
7F8
  8
1
  6
CONTINUOUS
 62
     7
 10
-159.3802456310345
 20
208.8111299638258
 30
0.0
  0
VERTEX
  5
7F9
  8
1
  6
CONTINUOUS
 62
     7
 10
-159.3509031113899
 20
208.8263197012249
 30
0.0
  0
VERTEX
  5
7FA
  8
1
  6
CONTINUOUS
 62
     7
 10
-159.3213599063855
 20
208.8432267338734
 30
0.0
  0
VERTEX
  5
7FB
  8
1
  6
CONTINUOUS
 62
     7
 10
-159.2925234800638
 20
208.8614002247469
 30
0.0
  0
VERTEX
  5
7FC
  8
1
  6
CONTINUOUS
 62
     7
 10
-159.2644749065121
 20
208.8807884690297
 30
0.0
  0
VERTEX
  5
7FD
  8
1
  6
CONTINUOUS
 62
     7
 10
-159.2372952598175
 20
208.9013397619059
 30
0.0
  0
VERTEX
  5
7FE
  8
1
  6
CONTINUOUS
 62
     7
 10
-159.2120400452328
 20
208.9221559461768
 30
0.0
  0
VERTEX
  5
7FF
  8
1
  6
CONTINUOUS
 62
     7
 10
-159.1876329398985
 20
208.9440096727483
 30
0.0
  0
VERTEX
  5
800
  8
1
  6
CONTINUOUS
 62
     7
 10
-159.1641367237526
 20
208.9668427048323
 30
0.0
  0
VERTEX
  5
801
  8
1
  6
CONTINUOUS
 62
     7
 10
-159.1416141767331
 20
208.9905968056404
 30
0.0
  0
VERTEX
  5
802
  8
1
  6
CONTINUOUS
 62
     7
 10
-159.1194717874592
 20
209.0159910158291
 30
0.0
  0
VERTEX
  5
803
  8
1
  6
CONTINUOUS
 62
     7
 10
-159.098402037779
 20
209.0423151060712
 30
0.0
  0
VERTEX
  5
804
  8
1
  6
CONTINUOUS
 62
     7
 10
-159.0784608347062
 20
209.0694945333712
 30
0.0
  0
VERTEX
  5
805
  8
1
  6
CONTINUOUS
 62
     7
 10
-159.0597040852542
 20
209.0974547547337
 30
0.0
  0
VERTEX
  5
806
  8
1
  6
CONTINUOUS
 62
     7
 10
-159.0427146347692
 20
209.125207008555
 30
0.0
  0
VERTEX
  5
807
  8
1
  6
CONTINUOUS
 62
     7
 10
-159.0268606621852
 20
209.153639438072
 30
0.0
  0
VERTEX
  5
808
  8
1
  6
CONTINUOUS
 62
     7
 10
-159.0121796091099
 20
209.1826775365523
 30
0.0
  0
VERTEX
  5
809
  8
1
  6
CONTINUOUS
 62
     7
 10
-158.9987089171514
 20
209.2122467972631
 30
0.0
  0
VERTEX
  5
80A
  8
1
  6
CONTINUOUS
 62
     7
 10
-158.9861298403465
 20
209.2431898522211
 30
0.0
  0
VERTEX
  5
80B
  8
1
  6
CONTINUOUS
 62
     7
 10
-158.9748502897814
 20
209.2746383517921
 30
0.0
  0
VERTEX
  5
80C
  8
1
  6
CONTINUOUS
 62
     7
 10
-158.9648958728907
 20
209.3065067648881
 30
0.0
  0
VERTEX
  5
80D
  8
1
  6
CONTINUOUS
 62
     7
 10
-158.9562921971087
 20
209.3387095604209
 30
0.0
  0
VERTEX
  5
80E
  8
1
  6
CONTINUOUS
 62
     7
 10
-158.9480554665862
 20
209.3762663272159
 30
0.0
  0
VERTEX
  5
80F
  8
1
  6
CONTINUOUS
 62
     7
 10
-158.9416305422836
 20
209.4142063022414
 30
0.0
  0
VERTEX
  5
810
  8
1
  6
CONTINUOUS
 62
     7
 10
-158.9370280968648
 20
209.4523960500108
 30
0.0
  0
VERTEX
  5
811
  8
1
  6
CONTINUOUS
 62
     7
 10
-158.9342588029935
 20
209.490702135038
 30
0.0
  0
VERTEX
  5
812
  8
1
  6
CONTINUOUS
 62
     7
 10
-158.9333333333333
 20
209.5289911218365
 30
0.0
  0
SEQEND
  5
982
  8
1
  6
CONTINUOUS
 62
     7
  0
LINE
  5
37F
  8
1
  6
CONTINUOUS
 62
     7
 10
-160.4969544197868
 20
208.7289911218365
 30
0.0
 11
-159.7333333333333
 21
208.7289911218365
 31
0.0
  0
ARC
  5
380
  8
1
  6
CONTINUOUS
 62
     7
 10
-158.4333333333333
 20
208.2289911218365
 30
0.0
 40
2.123330400209869
 50
166.3801323491034
 51
193.6198676508966
  0
LINE
  5
381
  8
1
  6
CONTINUOUS
 62
     7
 10
-159.7333333333333
 20
207.7289911218365
 30
0.0
 11
-160.4969544197868
 21
207.7289911218365
 31
0.0
  0
POLYLINE
  5
382
  8
1
  6
CONTINUOUS
 62
     7
 66
     1
 10
0.0
 20
0.0
 30
0.0
  0
VERTEX
  5
813
  8
1
  6
CONTINUOUS
 62
     7
 10
-158.9333333333333
 20
206.9289911218365
 30
0.0
  0
VERTEX
  5
814
  8
1
  6
CONTINUOUS
 62
     7
 10
-158.9340059565158
 20
206.9617268324177
 30
0.0
  0
VERTEX
  5
815
  8
1
  6
CONTINUOUS
 62
     7
 10
-158.9360215682417
 20
206.9944634941092
 30
0.0
  0
VERTEX
  5
816
  8
1
  6
CONTINUOUS
 62
     7
 10
-158.9393767817789
 20
207.0271179947927
 30
0.0
  0
VERTEX
  5
817
  8
1
  6
CONTINUOUS
 62
     7
 10
-158.9440682103952
 20
207.05960722235
 30
0.0
  0
VERTEX
  5
818
  8
1
  6
CONTINUOUS
 62
     7
 10
-158.9502918119474
 20
207.092823911162
 30
0.0
  0
VERTEX
  5
819
  8
1
  6
CONTINUOUS
 62
     7
 10
-158.9579264918816
 20
207.1258050236218
 30
0.0
  0
VERTEX
  5
81A
  8
1
  6
CONTINUOUS
 62
     7
 10
-158.9669527275205
 20
207.1584600329528
 30
0.0
  0
VERTEX
  5
81B
  8
1
  6
CONTINUOUS
 62
     7
 10
-158.9773509961871
 20
207.1906984123786
 30
0.0
  0
VERTEX
  5
81C
  8
1
  6
CONTINUOUS
 62
     7
 10
-158.9887837941857
 20
207.2216368918691
 30
0.0
  0
VERTEX
  5
81D
  8
1
  6
CONTINUOUS
 62
     7
 10
-159.0015018281874
 20
207.2521238513099
 30
0.0
  0
VERTEX
  5
81E
  8
1
  6
CONTINUOUS
 62
     7
 10
-159.0154721753227
 20
207.2820788241353
 30
0.0
  0
VERTEX
  5
81F
  8
1
  6
CONTINUOUS
 62
     7
 10
-159.0306619127218
 20
207.3114213437799
 30
0.0
  0
VERTEX
  5
820
  8
1
  6
CONTINUOUS
 62
     7
 10
-159.0475689453703
 20
207.3409645487843
 30
0.0
  0
VERTEX
  5
821
  8
1
  6
CONTINUOUS
 62
     7
 10
-159.0657424362438
 20
207.369800975106
 30
0.0
  0
VERTEX
  5
822
  8
1
  6
CONTINUOUS
 62
     7
 10
-159.0851306805266
 20
207.3978495486577
 30
0.0
  0
VERTEX
  5
823
  8
1
  6
CONTINUOUS
 62
     7
 10
-159.1056819734028
 20
207.4250291953523
 30
0.0
  0
VERTEX
  5
824
  8
1
  6
CONTINUOUS
 62
     7
 10
-159.1264981576737
 20
207.4502844099371
 30
0.0
  0
VERTEX
  5
825
  8
1
  6
CONTINUOUS
 62
     7
 10
-159.1483518842452
 20
207.4746915152713
 30
0.0
  0
VERTEX
  5
826
  8
1
  6
CONTINUOUS
 62
     7
 10
-159.1711849163291
 20
207.4981877314172
 30
0.0
  0
VERTEX
  5
827
  8
1
  6
CONTINUOUS
 62
     7
 10
-159.1949390171372
 20
207.5207102784368
 30
0.0
  0
VERTEX
  5
828
  8
1
  6
CONTINUOUS
 62
     7
 10
-159.220333227326
 20
207.5428526677106
 30
0.0
  0
VERTEX
  5
829
  8
1
  6
CONTINUOUS
 62
     7
 10
-159.2466573175681
 20
207.5639224173908
 30
0.0
  0
VERTEX
  5
82A
  8
1
  6
CONTINUOUS
 62
     7
 10
-159.273836744868
 20
207.5838636204637
 30
0.0
  0
VERTEX
  5
82B
  8
1
  6
CONTINUOUS
 62
     7
 10
-159.3017969662305
 20
207.6026203699156
 30
0.0
  0
VERTEX
  5
82C
  8
1
  6
CONTINUOUS
 62
     7
 10
-159.3295492200518
 20
207.6196098204006
 30
0.0
  0
VERTEX
  5
82D
  8
1
  6
CONTINUOUS
 62
     7
 10
-159.3579816495689
 20
207.6354637929846
 30
0.0
  0
VERTEX
  5
82E
  8
1
  6
CONTINUOUS
 62
     7
 10
-159.3870197480492
 20
207.6501448460599
 30
0.0
  0
VERTEX
  5
82F
  8
1
  6
CONTINUOUS
 62
     7
 10
-159.41658900876
 20
207.6636155380184
 30
0.0
  0
VERTEX
  5
830
  8
1
  6
CONTINUOUS
 62
     7
 10
-159.447532063718
 20
207.6761946148233
 30
0.0
  0
VERTEX
  5
831
  8
1
  6
CONTINUOUS
 62
     7
 10
-159.478980563289
 20
207.6874741653884
 30
0.0
  0
VERTEX
  5
832
  8
1
  6
CONTINUOUS
 62
     7
 10
-159.5108489763849
 20
207.6974285822791
 30
0.0
  0
VERTEX
  5
833
  8
1
  6
CONTINUOUS
 62
     7
 10
-159.5430517719177
 20
207.7060322580611
 30
0.0
  0
VERTEX
  5
834
  8
1
  6
CONTINUOUS
 62
     7
 10
-159.5806085387128
 20
207.7142689885837
 30
0.0
  0
VERTEX
  5
835
  8
1
  6
CONTINUOUS
 62
     7
 10
-159.6185485137382
 20
207.7206939128862
 30
0.0
  0
VERTEX
  5
836
  8
1
  6
CONTINUOUS
 62
     7
 10
-159.6567382615077
 20
207.725296358305
 30
0.0
  0
VERTEX
  5
837
  8
1
  6
CONTINUOUS
 62
     7
 10
-159.6950443465348
 20
207.7280656521763
 30
0.0
  0
VERTEX
  5
838
  8
1
  6
CONTINUOUS
 62
     7
 10
-159.7333333333333
 20
207.7289911218365
 30
0.0
  0
SEQEND
  5
983
  8
1
  6
CONTINUOUS
 62
     7
  0
LINE
  5
383
  8
1
  6
CONTINUOUS
 62
     7
 10
-158.9333333333333
 20
206.165370035383
 30
0.0
 11
-158.9333333333333
 21
206.9289911218365
 31
0.0
  0
ARC
  5
384
  8
1
  6
CONTINUOUS
 62
     7
 10
-158.4333333333333
 20
208.2289911218365
 30
0.0
 40
2.123330400209869
 50
256.3801323491034
 51
283.6198676508966
  0
CIRCLE
  5
385
  8
1
  6
CONTINUOUS
 62
     9
 10
-158.4333333333333
 20
208.2289911218365
 30
0.0
 40
2.462739841861822
  0
POLYLINE
  5
386
  8
1
  6
CONTINUOUS
 62
     7
 66
     1
 10
0.0
 20
0.0
 30
0.0
  0
VERTEX
  5
839
  8
1
  6
CONTINUOUS
 62
     7
 10
-157.1333333333334
 20
207.7289911218365
 30
0.0
  0
VERTEX
  5
83A
  8
1
  6
CONTINUOUS
 62
     7
 10
-157.1660690439146
 20
207.728318498654
 30
0.0
  0
VERTEX
  5
83B
  8
1
  6
CONTINUOUS
 62
     7
 10
-157.1988057056061
 20
207.7263028869281
 30
0.0
  0
VERTEX
  5
83C
  8
1
  6
CONTINUOUS
 62
     7
 10
-157.2314602062896
 20
207.7229476733909
 30
0.0
  0
VERTEX
  5
83D
  8
1
  6
CONTINUOUS
 62
     7
 10
-157.2639494338468
 20
207.7182562447747
 30
0.0
  0
VERTEX
  5
83E
  8
1
  6
CONTINUOUS
 62
     7
 10
-157.2971661226588
 20
207.7120326432224
 30
0.0
  0
VERTEX
  5
83F
  8
1
  6
CONTINUOUS
 62
     7
 10
-157.3301472351186
 20
207.7043979632883
 30
0.0
  0
VERTEX
  5
840
  8
1
  6
CONTINUOUS
 62
     7
 10
-157.3628022444497
 20
207.6953717276494
 30
0.0
  0
VERTEX
  5
841
  8
1
  6
CONTINUOUS
 62
     7
 10
-157.3950406238754
 20
207.6849734589827
 30
0.0
  0
VERTEX
  5
842
  8
1
  6
CONTINUOUS
 62
     7
 10
-157.425979103366
 20
207.6735406609841
 30
0.0
  0
VERTEX
  5
843
  8
1
  6
CONTINUOUS
 62
     7
 10
-157.4564660628068
 20
207.6608226269824
 30
0.0
  0
VERTEX
  5
844
  8
1
  6
CONTINUOUS
 62
     7
 10
-157.4864210356322
 20
207.6468522798472
 30
0.0
  0
VERTEX
  5
845
  8
1
  6
CONTINUOUS
 62
     7
 10
-157.5157635552768
 20
207.6316625424481
 30
0.0
  0
VERTEX
  5
846
  8
1
  6
CONTINUOUS
 62
     7
 10
-157.5453067602812
 20
207.6147555097996
 30
0.0
  0
VERTEX
  5
847
  8
1
  6
CONTINUOUS
 62
     7
 10
-157.5741431866028
 20
207.596582018926
 30
0.0
  0
VERTEX
  5
848
  8
1
  6
CONTINUOUS
 62
     7
 10
-157.6021917601546
 20
207.5771937746433
 30
0.0
  0
VERTEX
  5
849
  8
1
  6
CONTINUOUS
 62
     7
 10
-157.6293714068492
 20
207.5566424817671
 30
0.0
  0
VERTEX
  5
84A
  8
1
  6
CONTINUOUS
 62
     7
 10
-157.6546266214339
 20
207.5358262974962
 30
0.0
  0
VERTEX
  5
84B
  8
1
  6
CONTINUOUS
 62
     7
 10
-157.6790337267682
 20
207.5139725709247
 30
0.0
  0
VERTEX
  5
84C
  8
1
  6
CONTINUOUS
 62
     7
 10
-157.7025299429141
 20
207.4911395388407
 30
0.0
  0
VERTEX
  5
84D
  8
1
  6
CONTINUOUS
 62
     7
 10
-157.7250524899336
 20
207.4673854380326
 30
0.0
  0
VERTEX
  5
84E
  8
1
  6
CONTINUOUS
 62
     7
 10
-157.7471948792075
 20
207.4419912278438
 30
0.0
  0
VERTEX
  5
84F
  8
1
  6
CONTINUOUS
 62
     7
 10
-157.7682646288877
 20
207.4156671376018
 30
0.0
  0
VERTEX
  5
850
  8
1
  6
CONTINUOUS
 62
     7
 10
-157.7882058319605
 20
207.3884877103018
 30
0.0
  0
VERTEX
  5
851
  8
1
  6
CONTINUOUS
 62
     7
 10
-157.8069625814125
 20
207.3605274889393
 30
0.0
  0
VERTEX
  5
852
  8
1
  6
CONTINUOUS
 62
     7
 10
-157.8239520318974
 20
207.332775235118
 30
0.0
  0
VERTEX
  5
853
  8
1
  6
CONTINUOUS
 62
     7
 10
-157.8398060044815
 20
207.3043428056009
 30
0.0
  0
VERTEX
  5
854
  8
1
  6
CONTINUOUS
 62
     7
 10
-157.8544870575568
 20
207.2753047071206
 30
0.0
  0
VERTEX
  5
855
  8
1
  6
CONTINUOUS
 62
     7
 10
-157.8679577495152
 20
207.2457354464098
 30
0.0
  0
VERTEX
  5
856
  8
1
  6
CONTINUOUS
 62
     7
 10
-157.8805368263202
 20
207.2147923914519
 30
0.0
  0
VERTEX
  5
857
  8
1
  6
CONTINUOUS
 62
     7
 10
-157.8918163768853
 20
207.1833438918809
 30
0.0
  0
VERTEX
  5
858
  8
1
  6
CONTINUOUS
 62
     7
 10
-157.901770793776
 20
207.1514754787849
 30
0.0
  0
VERTEX
  5
859
  8
1
  6
CONTINUOUS
 62
     7
 10
-157.910374469558
 20
207.1192726832521
 30
0.0
  0
VERTEX
  5
85A
  8
1
  6
CONTINUOUS
 62
     7
 10
-157.9186112000805
 20
207.0817159164571
 30
0.0
  0
VERTEX
  5
85B
  8
1
  6
CONTINUOUS
 62
     7
 10
-157.9250361243831
 20
207.0437759414316
 30
0.0
  0
VERTEX
  5
85C
  8
1
  6
CONTINUOUS
 62
     7
 10
-157.9296385698019
 20
207.0055861936621
 30
0.0
  0
VERTEX
  5
85D
  8
1
  6
CONTINUOUS
 62
     7
 10
-157.9324078636732
 20
206.967280108635
 30
0.0
  0
VERTEX
  5
85E
  8
1
  6
CONTINUOUS
 62
     7
 10
-157.9333333333333
 20
206.9289911218365
 30
0.0
  0
SEQEND
  5
984
  8
1
  6
CONTINUOUS
 62
     7
  0
ARC
  5
387
  8
1
  6
CONTINUOUS
 62
     9
 10
-158.4333333333333
 20
208.2289911218365
 30
0.0
 40
1.20022311697666
 50
153.686281051365
 51
206.3137189486361
  0
ARC
  5
388
  8
1
  6
CONTINUOUS
 62
     9
 10
-158.4333333333333
 20
208.2289911218365
 30
0.0
 40
1.200223116976635
 50
333.6862810513651
 51
26.31371894863605
  0
ARC
  5
389
  8
1
  6
CONTINUOUS
 62
     9
 10
-158.4333333333333
 20
208.2289911218365
 30
0.0
 40
1.200223116976635
 50
243.686281051365
 51
296.3137189486361
  0
ARC
  5
38A
  8
1
  6
CONTINUOUS
 62
     9
 10
-158.4333333333333
 20
208.2289911218365
 30
0.0
 40
1.200223116976623
 50
63.68628105136499
 51
116.3137189486361
  0
ARC
  5
38B
  8
1
  6
CONTINUOUS
 62
     9
 10
-158.4333333333333
 20
208.2289911218365
 30
0.0
 40
3.402063861112192
 50
282.2795704472239
 51
180.0
  0
ARC
  5
38C
  8
1
  6
CONTINUOUS
 62
     9
 10
-158.4333333333333
 20
208.2289911218365
 30
0.0
 40
3.40206386111218
 50
180.0
 51
258.7204295527761
  0
ARC
  5
38D
  8
1
  6
CONTINUOUS
 62
     7
 10
-158.4333333333333
 20
208.2289911218365
 30
0.0
 40
3.500000000000003
 50
288.4086898480934
 51
0.0
  0
ARC
  5
38E
  8
1
  6
CONTINUOUS
 62
     7
 10
-158.4333333333333
 20
208.2289911218365
 30
0.0
 40
3.499999999999995
 50
0.0
 51
252.5913101519065
  0
CIRCLE
  5
38F
  8
1
  6
CONTINUOUS
 62
     9
 10
-158.4333333333333
 20
208.2289911218365
 30
0.0
 40
1.021236244656248
  0
LINE
  5
390
  8
1
  6
CONTINUOUS
 62
     7
 10
-172.3333333333333
 20
232.2289911218365
 30
0.0
 11
-172.3333333333333
 21
202.2289911218365
 31
0.0
  0
LINE
  5
391
  8
1
  6
CONTINUOUS
 62
     7
 10
-172.3333333333333
 20
232.2289911218365
 30
0.0
 11
-166.9333333333333
 21
232.2289911218365
 31
0.0
  0
LINE
  5
392
  8
1
  6
CONTINUOUS
 62
     7
 10
-166.9333333333333
 20
232.2289911218365
 30
0.0
 11
-166.9333333333333
 21
202.2289911218365
 31
0.0
  0
LINE
  5
393
  8
1
  6
CONTINUOUS
 62
     7
 10
-172.3333333333333
 20
202.2289911218365
 30
0.0
 11
-166.9333333333333
 21
202.2289911218365
 31
0.0
  0
LINE
  5
394
  8
1
  6
CONTINUOUS
 62
     7
 10
-149.9333333333334
 20
232.2289911218365
 30
0.0
 11
-149.9333333333333
 21
202.2289911218365
 31
0.0
  0
LINE
  5
395
  8
1
  6
CONTINUOUS
 62
     7
 10
-144.5333333333333
 20
232.2289911218365
 30
0.0
 11
-144.5333333333333
 21
202.2289911218365
 31
0.0
  0
LINE
  5
396
  8
1
  6
CONTINUOUS
 62
     7
 10
-144.5333333333333
 20
232.2289911218365
 30
0.0
 11
-149.9333333333333
 21
232.2289911218365
 31
0.0
  0
LINE
  5
397
  8
1
  6
CONTINUOUS
 62
     7
 10
-144.5333333333333
 20
202.2289911218365
 30
0.0
 11
-149.9333333333333
 21
202.2289911218365
 31
0.0
  0
LINE
  5
398
  8
1
  6
CONTINUOUS
 62
     7
 10
-169.4333333333333
 20
197.2289911218365
 30
0.0
 11
-167.6839432382245
 21
198.6285031979236
 31
0.0
  0
ARC
  5
399
  8
1
  6
CONTINUOUS
 62
     7
 10
-168.9333333333336
 20
200.1902408168097
 30
0.0
 40
2.000000000000224
 50
308.6598082540932
 51
359.9999999999968
  0
LINE
  5
39A
  8
1
  6
CONTINUOUS
 62
     9
 10
-166.9333333333333
 20
201.0289911218364
 30
0.0
 11
-149.9333333333333
 21
201.0289911218364
 31
0.0
  0
ARC
  5
39B
  8
1
  6
CONTINUOUS
 62
     7
 10
-147.9332362265595
 20
200.190287488738
 30
0.0
 40
2.000097107318414
 50
180.0013369873434
 51
231.3388547585662
  0
LINE
  5
39C
  8
1
  6
CONTINUOUS
 62
     7
 10
-149.1827234284422
 20
198.6285031979236
 30
0.0
 11
-147.4333333333334
 21
197.2289911218365
 31
0.0
  0
LINE
  5
39D
  8
1
  6
CONTINUOUS
 62
     7
 10
-147.4333333333334
 20
197.2289911218365
 30
0.0
 11
-147.4333333333334
 21
196.0289911218364
 31
0.0
  0
LINE
  5
39E
  8
1
  6
CONTINUOUS
 62
     7
 10
-147.4333333333334
 20
196.0289911218364
 30
0.0
 11
-169.4333333333333
 21
196.0289911218364
 31
0.0
  0
LINE
  5
39F
  8
1
  6
CONTINUOUS
 62
     7
 10
-169.4333333333333
 20
196.0289911218364
 30
0.0
 11
-169.4333333333333
 21
197.2289911218365
 31
0.0
  0
LINE
  5
3A0
  8
1
  6
CONTINUOUS
 62
     7
 10
-166.9333333333333
 20
200.1902408168096
 30
0.0
 11
-166.9333333333333
 21
201.0289911218364
 31
0.0
  0
LINE
  5
3A1
  8
1
  6
CONTINUOUS
 62
     7
 10
-149.9333333333333
 20
201.0289911218364
 30
0.0
 11
-149.9333333333333
 21
200.1902408168096
 31
0.0
  0
LINE
  5
3A2
  8
1
  6
CONTINUOUS
 62
     7
 10
-166.9333333333333
 20
202.2289911218365
 30
0.0
 11
-166.9333333333333
 21
201.0289911218364
 31
0.0
  0
LINE
  5
3A3
  8
1
  6
CONTINUOUS
 62
     7
 10
-149.9333333333333
 20
202.2289911218365
 30
0.0
 11
-149.9333333333333
 21
201.0289911218364
 31
0.0
  0
LINE
  5
3A4
  8
1
  6
CONTINUOUS
 62
     7
 10
-166.9333333333333
 20
232.2289911218365
 30
0.0
 11
-166.4333333333333
 21
232.2289911218365
 31
0.0
  0
LINE
  5
3A5
  8
1
  6
CONTINUOUS
 62
     7
 10
-150.4333333333333
 20
232.2289911218365
 30
0.0
 11
-149.9333333333334
 21
232.2289911218365
 31
0.0
  0
LINE
  5
3A6
  8
1
  6
CONTINUOUS
 62
     7
 10
-169.4333333333333
 20
201.6370985738849
 30
0.0
 11
-166.9333333333333
 21
201.6370985738849
 31
0.0
  0
LINE
  5
3A7
  8
1
  6
CONTINUOUS
 62
     7
 10
-149.9333333333333
 20
201.6370985738849
 30
0.0
 11
-147.4333333333334
 21
201.6370985738849
 31
0.0
  0
LINE
  5
3A8
  8
1
  6
CONTINUOUS
 62
     7
 10
-169.4333333333333
 20
201.6370985738849
 30
0.0
 11
-169.4333333333333
 21
202.2289911218365
 31
0.0
  0
LINE
  5
3A9
  8
1
  6
CONTINUOUS
 62
     7
 10
-147.4333333333334
 20
201.6370985738849
 30
0.0
 11
-147.4333333333334
 21
202.2289911218365
 31
0.0
  0
LINE
  5
3AA
  8
1
  6
CONTINUOUS
 62
     7
 10
-169.4333333333333
 20
201.6370985738849
 30
0.0
 11
-169.4333333333333
 21
197.2289911218365
 31
0.0
  0
LINE
  5
3AB
  8
1
  6
CONTINUOUS
 62
     7
 10
-147.4333333333334
 20
201.6370985738849
 30
0.0
 11
-147.4333333333334
 21
197.2289911218365
 31
0.0
  0
LINE
  5
3AC
  8
1
  6
CONTINUOUS
 62
     7
 10
-158.4333333333333
 20
262.2289911218365
 30
0.0
 11
-158.4333333333333
 21
254.2292957373231
 31
0.0
  0
LINE
  5
3AD
  8
1
  6
CONTINUOUS
 62
     9
 10
-158.4333333333333
 20
254.2292957373231
 30
0.0
 11
-161.3287886902416
 21
254.2040274812293
 31
0.0
  0
LINE
  5
3AE
  8
1
  6
CONTINUOUS
 62
     7
 10
-161.276580482003
 20
262.2041784798736
 30
0.0
 11
-161.3287886902417
 21
254.2040274812293
 31
0.0
  0
LINE
  5
3AF
  8
1
  6
CONTINUOUS
 62
     7
 10
-161.276580482003
 20
262.2041784798736
 30
0.0
 11
-158.4333333333333
 21
262.2289911218365
 31
0.0
  0
LINE
  5
3B0
  8
1
  6
CONTINUOUS
 62
     7
 10
-158.4333333333333
 20
262.2289911218365
 30
0.0
 11
-155.5900861846636
 21
262.2041784798736
 31
0.0
  0
LINE
  5
3B1
  8
1
  6
CONTINUOUS
 62
     7
 10
-155.537877976425
 20
254.2040274812293
 30
0.0
 11
-155.5900861846636
 21
262.2041784798736
 31
0.0
  0
LINE
  5
3B2
  8
1
  6
CONTINUOUS
 62
     9
 10
-155.537877976425
 20
254.2040274812293
 30
0.0
 11
-158.4333333333333
 21
254.2292957373231
 31
0.0
  0
LINE
  5
3B3
  8
1
  6
CONTINUOUS
 62
     7
 10
-154.5726711906027
 20
260.1955280982469
 30
0.0
 11
-154.5204629823641
 21
254.2130599905113
 31
0.0
  0
LINE
  5
3B4
  8
1
  6
CONTINUOUS
 62
     7
 10
-154.5204629823641
 20
254.2130599905113
 30
0.0
 11
-155.537877976425
 21
254.2040274812293
 31
0.0
  0
LINE
  5
3B5
  8
1
  6
CONTINUOUS
 62
     7
 10
-161.3287886902417
 20
254.2040274812293
 30
0.0
 11
-162.3462036843026
 21
254.2130599905113
 31
0.0
  0
LINE
  5
3B6
  8
1
  6
CONTINUOUS
 62
     7
 10
-162.3462036843026
 20
254.2130599905113
 30
0.0
 11
-162.2939954760639
 21
260.1955280982469
 31
0.0
  0
LINE
  5
3B7
  8
1
  6
CONTINUOUS
 62
     7
 10
-154.5204629823641
 20
254.2130599905113
 30
0.0
 11
-154.4333333333333
 21
244.2289911218365
 31
0.0
  0
LINE
  5
3B8
  8
1
  6
CONTINUOUS
 62
     7
 10
-155.4509046493302
 20
244.2378713321789
 30
0.0
 11
-155.537877976425
 21
254.2040274812293
 31
0.0
  0
LINE
  5
3B9
  8
1
  6
CONTINUOUS
 62
     7
 10
-161.3287886902417
 20
254.2040274812293
 30
0.0
 11
-161.4157620173365
 21
244.2378713321789
 31
0.0
  0
LINE
  5
3BA
  8
1
  6
CONTINUOUS
 62
     7
 10
-162.4333333333333
 20
244.2289911218365
 30
0.0
 11
-162.3462036843026
 21
254.2130599905113
 31
0.0
  0
LINE
  5
3BB
  8
1
  6
CONTINUOUS
 62
     7
 10
-158.4333333333335
 20
242.2289911218365
 30
0.0
 11
-158.4333333333333
 21
254.2292957373231
 31
0.0
  0
LINE
  5
3BC
  8
1
  6
CONTINUOUS
 62
     7
 10
-163.4595129398285
 20
242.272853926755
 30
0.0
 11
-158.4333333333335
 21
242.2289911218365
 31
0.0
  0
LINE
  5
3BD
  8
1
  6
CONTINUOUS
 62
     9
 10
-163.4595129398285
 20
244.220035788081
 30
0.0
 11
-163.4595129398285
 21
242.272853926755
 31
0.0
  0
LINE
  5
3BE
  8
1
  6
CONTINUOUS
 62
     7
 10
-163.4595129398285
 20
244.220035788081
 30
0.0
 11
-161.4157620173365
 21
244.2378713321789
 31
0.0
  0
LINE
  5
3BF
  8
1
  6
CONTINUOUS
 62
     9
 10
-153.4071537268382
 20
242.272853926755
 30
0.0
 11
-153.4071537268382
 21
244.220035788081
 31
0.0
  0
LINE
  5
3C0
  8
1
  6
CONTINUOUS
 62
     7
 10
-158.4333333333335
 20
242.2289911218365
 30
0.0
 11
-153.4071537268382
 21
242.272853926755
 31
0.0
  0
LINE
  5
3C1
  8
1
  6
CONTINUOUS
 62
     7
 10
-155.4509046493302
 20
244.2378713321789
 30
0.0
 11
-153.4071537268382
 21
244.220035788081
 31
0.0
  0
LINE
  5
3C2
  8
1
  6
CONTINUOUS
 62
     7
 10
-166.4333333333333
 20
242.2988060641626
 30
0.0
 11
-166.4333333333333
 21
244.1940836506735
 31
0.0
  0
LINE
  5
3C3
  8
1
  6
CONTINUOUS
 62
     7
 10
-166.4333333333333
 20
244.1940836506735
 30
0.0
 11
-163.4595129398285
 21
244.220035788081
 31
0.0
  0
LINE
  5
3C4
  8
1
  6
CONTINUOUS
 62
     7
 10
-163.4595129398285
 20
242.272853926755
 30
0.0
 11
-166.4333333333333
 21
242.2988060641626
 31
0.0
  0
LINE
  5
3C5
  8
1
  6
CONTINUOUS
 62
     7
 10
-150.4333333333333
 20
244.1940836506735
 30
0.0
 11
-150.4333333333333
 21
242.2988060641626
 31
0.0
  0
LINE
  5
3C6
  8
1
  6
CONTINUOUS
 62
     7
 10
-153.4071537268382
 20
244.220035788081
 30
0.0
 11
-150.4333333333333
 21
244.1940836506735
 31
0.0
  0
LINE
  5
3C7
  8
1
  6
CONTINUOUS
 62
     7
 10
-150.4333333333333
 20
242.2988060641626
 30
0.0
 11
-153.4071537268382
 21
242.272853926755
 31
0.0
  0
LINE
  5
3C8
  8
1
  6
CONTINUOUS
 62
     9
 10
-161.1833333333333
 20
235.3606436194239
 30
0.0
 11
-155.6833333333333
 21
235.3606436194239
 31
0.0
  0
LINE
  5
3C9
  8
1
  6
CONTINUOUS
 62
     7
 10
-155.6833333333333
 20
235.9289911218365
 30
0.0
 11
-161.1833333333333
 21
235.9289911218365
 31
0.0
  0
LINE
  5
3CA
  8
1
  6
CONTINUOUS
 62
     9
 10
-155.7174075070443
 20
235.1018245743214
 30
0.0
 11
-161.1492591596224
 21
235.1018245743214
 31
0.0
  0
LINE
  5
3CB
  8
1
  6
CONTINUOUS
 62
     7
 10
-156.012616281106
 20
234.0000904320895
 30
0.0
 11
-157.2133272454296
 21
229.5995815992852
 31
0.0
  0
LINE
  5
3CC
  8
1
  6
CONTINUOUS
 62
     9
 10
-159.653339421237
 20
229.5995815992854
 30
0.0
 11
-157.2133272454296
 21
229.5995815992851
 31
0.0
  0
LINE
  5
3CD
  8
1
  6
CONTINUOUS
 62
     7
 10
-159.6533394212371
 20
229.5995815992854
 30
0.0
 11
-160.8540657202249
 21
234.00014766204
 31
0.0
  0
POLYLINE
  5
3CE
  8
1
  6
CONTINUOUS
 62
     7
 66
     1
 10
0.0
 20
0.0
 30
0.0
  0
VERTEX
  5
85F
  8
1
  6
CONTINUOUS
 62
     7
 10
-161.1192815954747
 20
241.7785799761416
 30
0.0
  0
VERTEX
  5
860
  8
1
  6
CONTINUOUS
 62
     7
 10
-161.120510368191
 20
241.7946387976704
 30
0.0
  0
VERTEX
  5
861
  8
1
  6
CONTINUOUS
 62
     7
 10
-161.1223764489708
 20
241.8106347458071
 30
0.0
  0
VERTEX
  5
862
  8
1
  6
CONTINUOUS
 62
     7
 10
-161.1249157269762
 20
241.8267877122039
 30
0.0
  0
VERTEX
  5
863
  8
1
  6
CONTINUOUS
 62
     7
 10
-161.1280775112369
 20
241.8427550465231
 30
0.0
  0
VERTEX
  5
864
  8
1
  6
CONTINUOUS
 62
     7
 10
-161.131878245964
 20
241.8586541953988
 30
0.0
  0
VERTEX
  5
865
  8
1
  6
CONTINUOUS
 62
     7
 10
-161.1362618800028
 20
241.8742997151218
 30
0.0
  0
VERTEX
  5
866
  8
1
  6
CONTINUOUS
 62
     7
 10
-161.1412925554153
 20
241.8899368594867
 30
0.0
  0
VERTEX
  5
867
  8
1
  6
CONTINUOUS
 62
     7
 10
-161.1468769049448
 20
241.9052932645893
 30
0.0
  0
VERTEX
  5
868
  8
1
  6
CONTINUOUS
 62
     7
 10
-161.1526572697362
 20
241.919578490027
 30
0.0
  0
VERTEX
  5
869
  8
1
  6
CONTINUOUS
 62
     7
 10
-161.1588812673529
 20
241.9335746320053
 30
0.0
  0
VERTEX
  5
86A
  8
1
  6
CONTINUOUS
 62
     7
 10
-161.1655866592688
 20
241.9473963699519
 30
0.0
  0
VERTEX
  5
86B
  8
1
  6
CONTINUOUS
 62
     7
 10
-161.1726803990895
 20
241.9608834181645
 30
0.0
  0
VERTEX
  5
86C
  8
1
  6
CONTINUOUS
 62
     7
 10
-161.1801763583188
 20
241.9740997680434
 30
0.0
  0
VERTEX
  5
86D
  8
1
  6
CONTINUOUS
 62
     7
 10
-161.1880125767711
 20
241.9869714797636
 30
0.0
  0
VERTEX
  5
86E
  8
1
  6
CONTINUOUS
 62
     7
 10
-161.1962445991825
 20
241.9996163511346
 30
0.0
  0
VERTEX
  5
86F
  8
1
  6
CONTINUOUS
 62
     7
 10
-161.2047846370552
 20
242.0119228625433
 30
0.0
  0
VERTEX
  5
870
  8
1
  6
CONTINUOUS
 62
     7
 10
-161.218846649633
 20
242.0306691393691
 30
0.0
  0
VERTEX
  5
871
  8
1
  6
CONTINUOUS
 62
     7
 10
-161.2335571759954
 20
242.0485914111556
 30
0.0
  0
VERTEX
  5
872
  8
1
  6
CONTINUOUS
 62
     7
 10
-161.24890796779
 20
242.0657627066252
 30
0.0
  0
VERTEX
  5
873
  8
1
  6
CONTINUOUS
 62
     7
 10
-161.2647784607981
 20
242.082120539407
 30
0.0
  0
VERTEX
  5
874
  8
1
  6
CONTINUOUS
 62
     7
 10
-161.2813966935287
 20
242.0979378849667
 30
0.0
  0
VERTEX
  5
875
  8
1
  6
CONTINUOUS
 62
     7
 10
-161.2984414974561
 20
242.1129408570546
 30
0.0
  0
VERTEX
  5
876
  8
1
  6
CONTINUOUS
 62
     7
 10
-161.3159135334665
 20
242.1271813781851
 30
0.0
  0
VERTEX
  5
877
  8
1
  6
CONTINUOUS
 62
     7
 10
-161.3337247421998
 20
242.1406318812143
 30
0.0
  0
VERTEX
  5
878
  8
1
  6
CONTINUOUS
 62
     7
 10
-161.3592245509051
 20
242.1582038312621
 30
0.0
  0
VERTEX
  5
879
  8
1
  6
CONTINUOUS
 62
     7
 10
-161.3852421324233
 20
242.1742892530585
 30
0.0
  0
VERTEX
  5
87A
  8
1
  6
CONTINUOUS
 62
     7
 10
-161.4117989295231
 20
242.188967500311
 30
0.0
  0
VERTEX
  5
87B
  8
1
  6
CONTINUOUS
 62
     7
 10
-161.4387266754302
 20
242.2021969148186
 30
0.0
  0
VERTEX
  5
87C
  8
1
  6
CONTINUOUS
 62
     7
 10
-161.4664469924226
 20
242.2141904748742
 30
0.0
  0
VERTEX
  5
87D
  8
1
  6
CONTINUOUS
 62
     7
 10
-161.4944294995561
 20
242.2247145495822
 30
0.0
  0
VERTEX
  5
87E
  8
1
  6
CONTINUOUS
 62
     7
 10
-161.5227095288381
 20
242.2338024551325
 30
0.0
  0
VERTEX
  5
87F
  8
1
  6
CONTINUOUS
 62
     7
 10
-161.5511516812653
 20
242.2414212572187
 30
0.0
  0
VERTEX
  5
880
  8
1
  6
CONTINUOUS
 62
     7
 10
-161.5818442211647
 20
242.2479670225084
 30
0.0
  0
VERTEX
  5
881
  8
1
  6
CONTINUOUS
 62
     7
 10
-161.6126744050588
 20
242.2528091850451
 30
0.0
  0
VERTEX
  5
882
  8
1
  6
CONTINUOUS
 62
     7
 10
-161.6435387562426
 20
242.255916979623
 30
0.0
  0
VERTEX
  5
883
  8
1
  6
CONTINUOUS
 62
     7
 10
-161.6744392440609
 20
242.2572661149178
 30
0.0
  0
VERTEX
  5
884
  8
1
  6
CONTINUOUS
 62
     7
 10
-161.677646844901
 20
242.2573038169237
 30
0.0
  0
SEQEND
  5
985
  8
1
  6
CONTINUOUS
 62
     7
  0
LINE
  5
3CF
  8
1
  6
CONTINUOUS
 62
     7
 10
-158.4333333333333
 20
242.2289911218365
 30
0.0
 11
-158.4333333333333
 21
241.7289720826436
 31
0.0
  0
LINE
  5
3D0
  8
1
  6
CONTINUOUS
 62
     9
 10
-158.4333333333333
 20
241.7289720826436
 30
0.0
 11
-161.1185361710394
 21
241.756666112828
 31
0.0
  0
LINE
  5
3D1
  8
1
  6
CONTINUOUS
 62
     7
 10
-161.1185361710394
 20
241.756666112828
 30
0.0
 11
-161.1192815954747
 21
241.7785799761416
 31
0.0
  0
POLYLINE
  5
3D2
  8
1
  6
CONTINUOUS
 62
     7
 66
     1
 10
0.0
 20
0.0
 30
0.0
  0
VERTEX
  5
885
  8
1
  6
CONTINUOUS
 62
     7
 10
-155.1890198217656
 20
242.2573038169237
 30
0.0
  0
VERTEX
  5
886
  8
1
  6
CONTINUOUS
 62
     7
 10
-155.1922274226058
 20
242.2572661149178
 30
0.0
  0
VERTEX
  5
887
  8
1
  6
CONTINUOUS
 62
     7
 10
-155.2228657896026
 20
242.2559358787711
 30
0.0
  0
VERTEX
  5
888
  8
1
  6
CONTINUOUS
 62
     7
 10
-155.2536252813687
 20
242.252856381093
 30
0.0
  0
VERTEX
  5
889
  8
1
  6
CONTINUOUS
 62
     7
 10
-155.2845607320743
 20
242.2480154231354
 30
0.0
  0
VERTEX
  5
88A
  8
1
  6
CONTINUOUS
 62
     7
 10
-155.3155149854014
 20
242.2414212572187
 30
0.0
  0
VERTEX
  5
88B
  8
1
  6
CONTINUOUS
 62
     7
 10
-155.343003586332
 20
242.2340823796416
 30
0.0
  0
VERTEX
  5
88C
  8
1
  6
CONTINUOUS
 62
     7
 10
-155.3704193734907
 20
242.2253449003105
 30
0.0
  0
VERTEX
  5
88D
  8
1
  6
CONTINUOUS
 62
     7
 10
-155.3977973042868
 20
242.2151632942941
 30
0.0
  0
VERTEX
  5
88E
  8
1
  6
CONTINUOUS
 62
     7
 10
-155.4250113885529
 20
242.2035401846218
 30
0.0
  0
VERTEX
  5
88F
  8
1
  6
CONTINUOUS
 62
     7
 10
-155.4524454080071
 20
242.1902239145776
 30
0.0
  0
VERTEX
  5
890
  8
1
  6
CONTINUOUS
 62
     7
 10
-155.4795948983403
 20
242.1753551346901
 30
0.0
  0
VERTEX
  5
891
  8
1
  6
CONTINUOUS
 62
     7
 10
-155.5064887874555
 20
242.1588248931146
 30
0.0
  0
VERTEX
  5
892
  8
1
  6
CONTINUOUS
 62
     7
 10
-155.5329419244669
 20
242.1406318812143
 30
0.0
  0
VERTEX
  5
893
  8
1
  6
CONTINUOUS
 62
     7
 10
-155.550203556757
 20
242.1276119505048
 30
0.0
  0
VERTEX
  5
894
  8
1
  6
CONTINUOUS
 62
     7
 10
-155.5671863283931
 20
242.1138185258227
 30
0.0
  0
VERTEX
  5
895
  8
1
  6
CONTINUOUS
 62
     7
 10
-155.5838924261752
 20
242.0991942682441
 30
0.0
  0
VERTEX
  5
896
  8
1
  6
CONTINUOUS
 62
     7
 10
-155.6002382295197
 20
242.0837479832291
 30
0.0
  0
VERTEX
  5
897
  8
1
  6
CONTINUOUS
 62
     7
 10
-155.6164077109171
 20
242.0672073607213
 30
0.0
  0
VERTEX
  5
898
  8
1
  6
CONTINUOUS
 62
     7
 10
-155.6320990740582
 20
242.0497668343521
 30
0.0
  0
VERTEX
  5
899
  8
1
  6
CONTINUOUS
 62
     7
 10
-155.6473027947279
 20
242.0313266501479
 30
0.0
  0
VERTEX
  5
89A
  8
1
  6
CONTINUOUS
 62
     7
 10
-155.6618820296115
 20
242.0119228625433
 30
0.0
  0
VERTEX
  5
89B
  8
1
  6
CONTINUOUS
 62
     7
 10
-155.6702091909381
 20
241.9999326306227
 30
0.0
  0
VERTEX
  5
89C
  8
1
  6
CONTINUOUS
 62
     7
 10
-155.6782522388812
 20
241.9876084450308
 30
0.0
  0
VERTEX
  5
89D
  8
1
  6
CONTINUOUS
 62
     7
 10
-155.6860215597037
 20
241.9748952236426
 30
0.0
  0
VERTEX
  5
89E
  8
1
  6
CONTINUOUS
 62
     7
 10
-155.6934594380138
 20
241.9618447126504
 30
0.0
  0
VERTEX
  5
89F
  8
1
  6
CONTINUOUS
 62
     7
 10
-155.7006440297968
 20
241.9482564794266
 30
0.0
  0
VERTEX
  5
8A0
  8
1
  6
CONTINUOUS
 62
     7
 10
-155.7074348179199
 20
241.9343270356878
 30
0.0
  0
VERTEX
  5
8A1
  8
1
  6
CONTINUOUS
 62
     7
 10
-155.7138407991665
 20
241.9199746683509
 30
0.0
  0
VERTEX
  5
8A2
  8
1
  6
CONTINUOUS
 62
     7
 10
-155.7197897617218
 20
241.9052932645893
 30
0.0
  0
VERTEX
  5
8A3
  8
1
  6
CONTINUOUS
 62
     7
 10
-155.7251225996415
 20
241.8906686025784
 30
0.0
  0
VERTEX
  5
8A4
  8
1
  6
CONTINUOUS
 62
     7
 10
-155.72997163352
 20
241.8757305073633
 30
0.0
  0
VERTEX
  5
8A5
  8
1
  6
CONTINUOUS
 62
     7
 10
-155.7343224274775
 20
241.8604337481411
 30
0.0
  0
VERTEX
  5
8A6
  8
1
  6
CONTINUOUS
 62
     7
 10
-155.7381243310953
 20
241.8448564508388
 30
0.0
  0
VERTEX
  5
8A7
  8
1
  6
CONTINUOUS
 62
     7
 10
-155.741415360917
 20
241.8286534606014
 30
0.0
  0
VERTEX
  5
8A8
  8
1
  6
CONTINUOUS
 62
     7
 10
-155.7440713595952
 20
241.8122120104962
 30
0.0
  0
VERTEX
  5
8A9
  8
1
  6
CONTINUOUS
 62
     7
 10
-155.7451586953529
 20
241.8038625122203
 30
0.0
  0
VERTEX
  5
8AA
  8
1
  6
CONTINUOUS
 62
     7
 10
-155.7460743367453
 20
241.7954781942694
 30
0.0
  0
VERTEX
  5
8AB
  8
1
  6
CONTINUOUS
 62
     7
 10
-155.7468179535732
 20
241.7870408478039
 30
0.0
  0
VERTEX
  5
8AC
  8
1
  6
CONTINUOUS
 62
     7
 10
-155.7473850711919
 20
241.7785799761416
 30
0.0
  0
SEQEND
  5
986
  8
1
  6
CONTINUOUS
 62
     7
  0
LINE
  5
3D3
  8
1
  6
CONTINUOUS
 62
     7
 10
-155.7473850711919
 20
241.7785799761416
 30
0.0
 11
-155.7481304956273
 21
241.756666112828
 31
0.0
  0
LINE
  5
3D4
  8
1
  6
CONTINUOUS
 62
     9
 10
-155.7481304956273
 20
241.756666112828
 30
0.0
 11
-158.4333333333333
 21
241.7289720826436
 31
0.0
  0
LINE
  5
3D5
  8
1
  6
CONTINUOUS
 62
     7
 10
-161.1185361710394
 20
241.756666112828
 30
0.0
 11
-161.0322824548929
 21
235.9289911218365
 31
0.0
  0
LINE
  5
3D6
  8
1
  6
CONTINUOUS
 62
     7
 10
-155.8343842117738
 20
235.9289911218365
 30
0.0
 11
-155.7481304956273
 21
241.756666112828
 31
0.0
  0
LINE
  5
3D7
  8
1
  6
CONTINUOUS
 62
     7
 10
-157.7170675306525
 20
229.2289911218365
 30
0.0
 11
-159.1495991360142
 21
229.2289911218365
 31
0.0
  0
POLYLINE
  5
3D8
  8
1
  6
CONTINUOUS
 62
     7
 66
     1
 10
0.0
 20
0.0
 30
0.0
  0
VERTEX
  5
8AD
  8
1
  6
CONTINUOUS
 62
     7
 10
-159.1495991360142
 20
229.2289911218365
 30
0.0
  0
VERTEX
  5
8AE
  8
1
  6
CONTINUOUS
 62
     7
 10
-159.1733066782462
 20
229.2294937595477
 30
0.0
  0
VERTEX
  5
8AF
  8
1
  6
CONTINUOUS
 62
     7
 10
-159.1970142204782
 20
229.2310099170629
 30
0.0
  0
VERTEX
  5
8B0
  8
1
  6
CONTINUOUS
 62
     7
 10
-159.2207664027741
 20
229.2335618592568
 30
0.0
  0
VERTEX
  5
8B1
  8
1
  6
CONTINUOUS
 62
     7
 10
-159.2444293049422
 20
229.2371546686901
 30
0.0
  0
VERTEX
  5
8B2
  8
1
  6
CONTINUOUS
 62
     7
 10
-159.2684273245172
 20
229.2418989456571
 30
0.0
  0
VERTEX
  5
8B3
  8
1
  6
CONTINUOUS
 62
     7
 10
-159.2922339460765
 20
229.2477378681636
 30
0.0
  0
VERTEX
  5
8B4
  8
1
  6
CONTINUOUS
 62
     7
 10
-159.3158960585585
 20
229.254704916383
 30
0.0
  0
VERTEX
  5
8B5
  8
1
  6
CONTINUOUS
 62
     7
 10
-159.3392594738702
 20
229.2627769808294
 30
0.0
  0
VERTEX
  5
8B6
  8
1
  6
CONTINUOUS
 62
     7
 10
-159.3601715816406
 20
229.2710615703965
 30
0.0
  0
VERTEX
  5
8B7
  8
1
  6
CONTINUOUS
 62
     7
 10
-159.3807476244355
 20
229.2802476446343
 30
0.0
  0
VERTEX
  5
8B8
  8
1
  6
CONTINUOUS
 62
     7
 10
-159.4010207537542
 20
229.2903668658541
 30
0.0
  0
VERTEX
  5
8B9
  8
1
  6
CONTINUOUS
 62
     7
 10
-159.4208718480416
 20
229.3013770034398
 30
0.0
  0
VERTEX
  5
8BA
  8
1
  6
CONTINUOUS
 62
     7
 10
-159.4406383959976
 20
229.3135107060313
 30
0.0
  0
VERTEX
  5
8BB
  8
1
  6
CONTINUOUS
 62
     7
 10
-159.459878537022
 20
229.326544092528
 30
0.0
  0
VERTEX
  5
8BC
  8
1
  6
CONTINUOUS
 62
     7
 10
-159.4786233958638
 20
229.3405188186946
 30
0.0
  0
VERTEX
  5
8BD
  8
1
  6
CONTINUOUS
 62
     7
 10
-159.4967483656092
 20
229.3553632970946
 30
0.0
  0
VERTEX
  5
8BE
  8
1
  6
CONTINUOUS
 62
     7
 10
-159.5127704098903
 20
229.3697060655598
 30
0.0
  0
VERTEX
  5
8BF
  8
1
  6
CONTINUOUS
 62
     7
 10
-159.5281992901261
 20
229.3847382990297
 30
0.0
  0
VERTEX
  5
8C0
  8
1
  6
CONTINUOUS
 62
     7
 10
-159.5430548685019
 20
229.4004969518251
 30
0.0
  0
VERTEX
  5
8C1
  8
1
  6
CONTINUOUS
 62
     7
 10
-159.5572478358325
 20
229.41690570912
 30
0.0
  0
VERTEX
  5
8C2
  8
1
  6
CONTINUOUS
 62
     7
 10
-159.5709983608292
 20
229.4342721615237
 30
0.0
  0
VERTEX
  5
8C3
  8
1
  6
CONTINUOUS
 62
     7
 10
-159.5839957506396
 20
229.4522606010566
 30
0.0
  0
VERTEX
  5
8C4
  8
1
  6
CONTINUOUS
 62
     7
 10
-159.5962549430453
 20
229.4709154992209
 30
0.0
  0
VERTEX
  5
8C5
  8
1
  6
CONTINUOUS
 62
     7
 10
-159.6076924936784
 20
229.4901353454747
 30
0.0
  0
VERTEX
  5
8C6
  8
1
  6
CONTINUOUS
 62
     7
 10
-159.6147494601071
 20
229.5030618963519
 30
0.0
  0
VERTEX
  5
8C7
  8
1
  6
CONTINUOUS
 62
     7
 10
-159.621421939646
 20
229.5161904866079
 30
0.0
  0
VERTEX
  5
8C8
  8
1
  6
CONTINUOUS
 62
     7
 10
-159.6277247637476
 20
229.5295570384735
 30
0.0
  0
VERTEX
  5
8C9
  8
1
  6
CONTINUOUS
 62
     7
 10
-159.6336280112879
 20
229.5431043057976
 30
0.0
  0
VERTEX
  5
8CA
  8
1
  6
CONTINUOUS
 62
     7
 10
-159.6391828757212
 20
229.5569694428004
 30
0.0
  0
VERTEX
  5
8CB
  8
1
  6
CONTINUOUS
 62
     7
 10
-159.6443182053912
 20
229.5709949372793
 30
0.0
  0
VERTEX
  5
8CC
  8
1
  6
CONTINUOUS
 62
     7
 10
-159.6490450654151
 20
229.5852202140633
 30
0.0
  0
VERTEX
  5
8CD
  8
1
  6
CONTINUOUS
 62
     7
 10
-159.6533394212371
 20
229.5995815992854
 30
0.0
  0
SEQEND
  5
987
  8
1
  6
CONTINUOUS
 62
     7
  0
POLYLINE
  5
3D9
  8
1
  6
CONTINUOUS
 62
     7
 66
     1
 10
0.0
 20
0.0
 30
0.0
  0
VERTEX
  5
8CE
  8
1
  6
CONTINUOUS
 62
     7
 10
-157.2133272454296
 20
229.5995815992852
 30
0.0
  0
VERTEX
  5
8CF
  8
1
  6
CONTINUOUS
 62
     7
 10
-157.2193825601939
 20
229.579750669049
 30
0.0
  0
VERTEX
  5
8D0
  8
1
  6
CONTINUOUS
 62
     7
 10
-157.2262749941417
 20
229.5601556588212
 30
0.0
  0
VERTEX
  5
8D1
  8
1
  6
CONTINUOUS
 62
     7
 10
-157.234024353256
 20
229.5407640285256
 30
0.0
  0
VERTEX
  5
8D2
  8
1
  6
CONTINUOUS
 62
     7
 10
-157.242597139573
 20
229.5216807032561
 30
0.0
  0
VERTEX
  5
8D3
  8
1
  6
CONTINUOUS
 62
     7
 10
-157.2521610271978
 20
229.5025996749504
 30
0.0
  0
VERTEX
  5
8D4
  8
1
  6
CONTINUOUS
 62
     7
 10
-157.2625519456624
 20
229.4839101807833
 30
0.0
  0
VERTEX
  5
8D5
  8
1
  6
CONTINUOUS
 62
     7
 10
-157.273796598076
 20
229.4655812051514
 30
0.0
  0
VERTEX
  5
8D6
  8
1
  6
CONTINUOUS
 62
     7
 10
-157.2858401590316
 20
229.4477177648149
 30
0.0
  0
VERTEX
  5
8D7
  8
1
  6
CONTINUOUS
 62
     7
 10
-157.298148368325
 20
229.4310219690633
 30
0.0
  0
VERTEX
  5
8D8
  8
1
  6
CONTINUOUS
 62
     7
 10
-157.3111564927879
 20
229.414818861489
 30
0.0
  0
VERTEX
  5
8D9
  8
1
  6
CONTINUOUS
 62
     7
 10
-157.3248922461327
 20
229.3990845449513
 30
0.0
  0
VERTEX
  5
8DA
  8
1
  6
CONTINUOUS
 62
     7
 10
-157.3392906026677
 20
229.3839034627978
 30
0.0
  0
VERTEX
  5
8DB
  8
1
  6
CONTINUOUS
 62
     7
 10
-157.3546001685782
 20
229.3690499363041
 30
0.0
  0
VERTEX
  5
8DC
  8
1
  6
CONTINUOUS
 62
     7
 10
-157.3705471285202
 20
229.3548246659493
 30
0.0
  0
VERTEX
  5
8DD
  8
1
  6
CONTINUOUS
 62
     7
 10
-157.3871644559775
 20
229.3412071754836
 30
0.0
  0
VERTEX
  5
8DE
  8
1
  6
CONTINUOUS
 62
     7
 10
-157.4043687782095
 20
229.3282742184697
 30
0.0
  0
VERTEX
  5
8DF
  8
1
  6
CONTINUOUS
 62
     7
 10
-157.4217000382035
 20
229.316333520003
 30
0.0
  0
VERTEX
  5
8E0
  8
1
  6
CONTINUOUS
 62
     7
 10
-157.4395338052403
 20
229.3050893285104
 30
0.0
  0
VERTEX
  5
8E1
  8
1
  6
CONTINUOUS
 62
     7
 10
-157.4579030265598
 20
229.294527185678
 30
0.0
  0
VERTEX
  5
8E2
  8
1
  6
CONTINUOUS
 62
     7
 10
-157.4767187597275
 20
229.2847041874912
 30
0.0
  0
VERTEX
  5
8E3
  8
1
  6
CONTINUOUS
 62
     7
 10
-157.4962841495495
 20
229.2754880455749
 30
0.0
  0
VERTEX
  5
8E4
  8
1
  6
CONTINUOUS
 62
     7
 10
-157.516246914019
 20
229.2670700712923
 30
0.0
  0
VERTEX
  5
8E5
  8
1
  6
CONTINUOUS
 62
     7
 10
-157.5366432557208
 20
229.2594402800112
 30
0.0
  0
VERTEX
  5
8E6
  8
1
  6
CONTINUOUS
 62
     7
 10
-157.5573711159576
 20
229.2526417800792
 30
0.0
  0
VERTEX
  5
8E7
  8
1
  6
CONTINUOUS
 62
     7
 10
-157.5765756197076
 20
229.2471650948148
 30
0.0
  0
VERTEX
  5
8E8
  8
1
  6
CONTINUOUS
 62
     7
 10
-157.5959709877002
 20
229.2424060157042
 30
0.0
  0
VERTEX
  5
8E9
  8
1
  6
CONTINUOUS
 62
     7
 10
-157.615638671164
 20
229.2383474088967
 30
0.0
  0
VERTEX
  5
8EA
  8
1
  6
CONTINUOUS
 62
     7
 10
-157.63544338664
 20
229.2350187116901
 30
0.0
  0
VERTEX
  5
8EB
  8
1
  6
CONTINUOUS
 62
     7
 10
-157.6556948712607
 20
229.232383094041
 30
0.0
  0
VERTEX
  5
8EC
  8
1
  6
CONTINUOUS
 62
     7
 10
-157.6760305697431
 20
229.2305015298296
 30
0.0
  0
VERTEX
  5
8ED
  8
1
  6
CONTINUOUS
 62
     7
 10
-157.696535058144
 20
229.2293680975786
 30
0.0
  0
VERTEX
  5
8EE
  8
1
  6
CONTINUOUS
 62
     7
 10
-157.7170675306525
 20
229.2289911218365
 30
0.0
  0
SEQEND
  5
988
  8
1
  6
CONTINUOUS
 62
     7
  0
ARC
  5
3DA
  8
1
  6
CONTINUOUS
 62
     7
 10
-165.4333333333333
 20
245.7027724400785
 30
0.0
 40
1.0
 50
90.4999999999989
 51
180.0
  0
LINE
  5
3DB
  8
1
  6
CONTINUOUS
 62
     7
 10
-162.411514502173
 20
246.7291815318914
 30
0.0
 11
-165.4420598688317
 21
246.7027343631427
 31
0.0
  0
LINE
  5
3DC
  8
1
  6
CONTINUOUS
 62
     7
 10
-166.4333333333333
 20
245.7027724400785
 30
0.0
 11
-166.4333333333333
 21
244.1940836506735
 31
0.0
  0
ARC
  5
3DD
  8
1
  6
CONTINUOUS
 62
     7
 10
-151.4333333333333
 20
245.7027724400785
 30
0.0
 40
1.0
 50
0.0
 51
89.50000000000111
  0
LINE
  5
3DE
  8
1
  6
CONTINUOUS
 62
     7
 10
-151.424606797835
 20
246.7027343631427
 30
0.0
 11
-154.4551521644936
 21
246.7291815318914
 31
0.0
  0
LINE
  5
3DF
  8
1
  6
CONTINUOUS
 62
     7
 10
-150.4333333333333
 20
245.7027724400785
 30
0.0
 11
-150.4333333333333
 21
244.1940836506735
 31
0.0
  0
LINE
  5
3E0
  8
1
  6
CONTINUOUS
 62
     7
 10
-166.4333333333333
 20
246.6679030473012
 30
0.0
 11
-165.6691415655539
 21
246.6745720478254
 31
0.0
  0
LINE
  5
3E1
  8
1
  6
CONTINUOUS
 62
     7
 10
-166.4333333333333
 20
246.6679030473012
 30
0.0
 11
-166.4333333333333
 21
245.7027724400785
 31
0.0
  0
LINE
  5
3E2
  8
1
  6
CONTINUOUS
 62
     7
 10
-151.1975251011128
 20
246.6745720478254
 30
0.0
 11
-150.4333333333333
 21
246.6679030473012
 31
0.0
  0
LINE
  5
3E3
  8
1
  6
CONTINUOUS
 62
     7
 10
-150.4333333333333
 20
246.6679030473012
 30
0.0
 11
-150.4333333333333
 21
245.7027724400785
 31
0.0
  0
LINE
  5
3E4
  8
1
  6
CONTINUOUS
 62
     9
 10
-150.4333333333333
 20
239.29892029497
 30
0.0
 11
-155.7805412885225
 21
239.2522559180954
 31
0.0
  0
LINE
  5
3E5
  8
1
  6
CONTINUOUS
 62
     7
 10
-150.4333333333333
 20
239.29892029497
 30
0.0
 11
-150.4333333333333
 21
242.2988060641626
 31
0.0
  0
LINE
  5
3E6
  8
1
  6
CONTINUOUS
 62
     9
 10
-161.0861253781442
 20
239.2522559180954
 30
0.0
 11
-166.4333333333333
 21
239.29892029497
 31
0.0
  0
LINE
  5
3E7
  8
1
  6
CONTINUOUS
 62
     7
 10
-166.4333333333333
 20
242.2988060641626
 30
0.0
 11
-166.4333333333333
 21
239.29892029497
 31
0.0
  0
LINE
  5
3E8
  8
1
  6
CONTINUOUS
 62
     9
 10
-161.7853267242425
 20
261.1997767956144
 30
0.0
 11
-166.4333333333333
 21
261.1592142564463
 31
0.0
  0
LINE
  5
3E9
  8
1
  6
CONTINUOUS
 62
     7
 10
-166.4333333333333
 20
262.1591761795104
 30
0.0
 11
-161.276580482003
 21
262.2041784798736
 31
0.0
  0
LINE
  5
3EA
  8
1
  6
CONTINUOUS
 62
     7
 10
-166.4333333333333
 20
261.1592142564463
 30
0.0
 11
-166.4333333333333
 21
262.1591761795104
 31
0.0
  0
LINE
  5
3EB
  8
1
  6
CONTINUOUS
 62
     7
 10
-150.4333333333333
 20
262.1591761795104
 30
0.0
 11
-150.4333333333333
 21
261.1592142564463
 31
0.0
  0
LINE
  5
3EC
  8
1
  6
CONTINUOUS
 62
     9
 10
-150.4333333333333
 20
261.1592142564463
 30
0.0
 11
-155.0813399424242
 21
261.1997767956144
 31
0.0
  0
LINE
  5
3ED
  8
1
  6
CONTINUOUS
 62
     7
 10
-155.5900861846636
 20
262.2041784798736
 30
0.0
 11
-150.4333333333333
 21
262.1591761795104
 31
0.0
  0
LINE
  5
3EE
  8
1
  6
CONTINUOUS
 62
     7
 10
-166.4333333333333
 20
261.1592142564463
 30
0.0
 11
-166.4333333333333
 21
246.6679030473012
 31
0.0
  0
LINE
  5
3EF
  8
1
  6
CONTINUOUS
 62
     7
 10
-150.4333333333333
 20
261.1592142564463
 30
0.0
 11
-150.4333333333333
 21
257.3289911218365
 31
0.0
  0
LINE
  5
3F0
  8
1
  6
CONTINUOUS
 62
     7
 10
-144.4333333333334
 20
257.3289911218365
 30
0.0
 11
-150.4333333333333
 21
257.3289911218365
 31
0.0
  0
ARC
  5
3F1
  8
1
  6
CONTINUOUS
 62
     7
 10
-144.4333333333334
 20
252.2289911218365
 30
0.0
 40
5.1
 50
42.36979856937582
 51
90.0
  0
POLYLINE
  5
3F2
  8
1
  6
CONTINUOUS
 62
     7
 66
     1
 10
0.0
 20
0.0
 30
0.0
  0
VERTEX
  5
8EF
  8
1
  6
CONTINUOUS
 62
     7
 10
-141.0348042397401
 20
254.8289911218365
 30
0.0
  0
VERTEX
  5
8F0
  8
1
  6
CONTINUOUS
 62
     7
 10
-141.0107480218438
 20
254.8295701587397
 30
0.0
  0
VERTEX
  5
8F1
  8
1
  6
CONTINUOUS
 62
     7
 10
-140.9867475216992
 20
254.8313059283144
 30
0.0
  0
VERTEX
  5
8F2
  8
1
  6
CONTINUOUS
 62
     7
 10
-140.9628583280073
 20
254.834194410262
 30
0.0
  0
VERTEX
  5
8F3
  8
1
  6
CONTINUOUS
 62
     7
 10
-140.9391357716671
 20
254.838228914432
 30
0.0
  0
VERTEX
  5
8F4
  8
1
  6
CONTINUOUS
 62
     7
 10
-140.9156347976209
 20
254.8434000963171
 30
0.0
  0
VERTEX
  5
8F5
  8
1
  6
CONTINUOUS
 62
     7
 10
-140.8924098375936
 20
254.8496959786968
 30
0.0
  0
VERTEX
  5
8F6
  8
1
  6
CONTINUOUS
 62
     7
 10
-140.8695146840209
 20
254.8571019793781
 30
0.0
  0
VERTEX
  5
8F7
  8
1
  6
CONTINUOUS
 62
     7
 10
-140.8470023654581
 20
254.8656009449702
 30
0.0
  0
VERTEX
  5
8F8
  8
1
  6
CONTINUOUS
 62
     7
 10
-140.8249250237581
 20
254.8751731906143
 30
0.0
  0
VERTEX
  5
8F9
  8
1
  6
CONTINUOUS
 62
     7
 10
-140.8033337933032
 20
254.8857965455765
 30
0.0
  0
VERTEX
  5
8FA
  8
1
  6
CONTINUOUS
 62
     7
 10
-140.7822786825703
 20
254.8974464045984
 30
0.0
  0
VERTEX
  5
8FB
  8
1
  6
CONTINUOUS
 62
     7
 10
-140.7618084583037
 20
254.9100957848871
 30
0.0
  0
VERTEX
  5
8FC
  8
1
  6
CONTINUOUS
 62
     7
 10
-140.7419705325646
 20
254.9237153886105
 30
0.0
  0
VERTEX
  5
8FD
  8
1
  6
CONTINUOUS
 62
     7
 10
-140.7228108529175
 20
254.9382736707559
 30
0.0
  0
VERTEX
  5
8FE
  8
1
  6
CONTINUOUS
 62
     7
 10
-140.7043737960083
 20
254.9537369121929
 30
0.0
  0
VERTEX
  5
8FF
  8
1
  6
CONTINUOUS
 62
     7
 10
-140.6867020647827
 20
254.9700692977718
 30
0.0
  0
VERTEX
  5
900
  8
1
  6
CONTINUOUS
 62
     7
 10
-140.6698365895786
 20
254.9872329992767
 30
0.0
  0
VERTEX
  5
901
  8
1
  6
CONTINUOUS
 62
     7
 10
-140.6538164333262
 20
255.0051882630413
 30
0.0
  0
VERTEX
  5
902
  8
1
  6
CONTINUOUS
 62
     7
 10
-140.6386787010721
 20
255.0238935020244
 30
0.0
  0
VERTEX
  5
903
  8
1
  6
CONTINUOUS
 62
     7
 10
-140.6244584540388
 20
255.0433053921312
 30
0.0
  0
VERTEX
  5
904
  8
1
  6
CONTINUOUS
 62
     7
 10
-140.6111886284175
 20
255.063378972559
 30
0.0
  0
VERTEX
  5
905
  8
1
  6
CONTINUOUS
 62
     7
 10
-140.5988999590832
 20
255.0840677499322
 30
0.0
  0
VERTEX
  5
906
  8
1
  6
CONTINUOUS
 62
     7
 10
-140.5876209084078
 20
255.1053238059886
 30
0.0
  0
VERTEX
  5
907
  8
1
  6
CONTINUOUS
 62
     7
 10
-140.5773776003379
 20
255.1270979085647
 30
0.0
  0
VERTEX
  5
908
  8
1
  6
CONTINUOUS
 62
     7
 10
-140.5681937598868
 20
255.1493396256247
 30
0.0
  0
VERTEX
  5
909
  8
1
  6
CONTINUOUS
 62
     7
 10
-140.5600906581848
 20
255.1719974420689
 30
0.0
  0
VERTEX
  5
90A
  8
1
  6
CONTINUOUS
 62
     7
 10
-140.5530870632115
 20
255.1950188790496
 30
0.0
  0
VERTEX
  5
90B
  8
1
  6
CONTINUOUS
 62
     7
 10
-140.5471991963267
 20
255.2183506155207
 30
0.0
  0
VERTEX
  5
90C
  8
1
  6
CONTINUOUS
 62
     7
 10
-140.5424406946991
 20
255.2419386117364
 30
0.0
  0
VERTEX
  5
90D
  8
1
  6
CONTINUOUS
 62
     7
 10
-140.5388225797211
 20
255.2657282344155
 30
0.0
  0
VERTEX
  5
90E
  8
1
  6
CONTINUOUS
 62
     7
 10
-140.5363532314809
 20
255.2896643832803
 30
0.0
  0
VERTEX
  5
90F
  8
1
  6
CONTINUOUS
 62
     7
 10
-140.5350383693537
 20
255.3136916186767
 30
0.0
  0
VERTEX
  5
910
  8
1
  6
CONTINUOUS
 62
     7
 10
-140.5348810387541
 20
255.3377542899808
 30
0.0
  0
VERTEX
  5
911
  8
1
  6
CONTINUOUS
 62
     7
 10
-140.535881604083
 20
255.3617966644941
 30
0.0
  0
VERTEX
  5
912
  8
1
  6
CONTINUOUS
 62
     7
 10
-140.5380377478836
 20
255.3857630565279
 30
0.0
  0
VERTEX
  5
913
  8
1
  6
CONTINUOUS
 62
     7
 10
-140.5413444762084
 20
255.4095979563807
 30
0.0
  0
VERTEX
  5
914
  8
1
  6
CONTINUOUS
 62
     7
 10
-140.5457941301865
 20
255.4332461589062
 30
0.0
  0
VERTEX
  5
915
  8
1
  6
CONTINUOUS
 62
     7
 10
-140.5513764037625
 20
255.4566528913764
 30
0.0
  0
VERTEX
  5
916
  8
1
  6
CONTINUOUS
 62
     7
 10
-140.5580783675668
 20
255.4797639403438
 30
0.0
  0
VERTEX
  5
917
  8
1
  6
CONTINUOUS
 62
     7
 10
-140.5658844988619
 20
255.5025257772076
 30
0.0
  0
VERTEX
  5
918
  8
1
  6
CONTINUOUS
 62
     7
 10
-140.5747767174955
 20
255.5248856821935
 30
0.0
  0
VERTEX
  5
919
  8
1
  6
CONTINUOUS
 62
     7
 10
-140.5847344277765
 20
255.5467918664612
 30
0.0
  0
VERTEX
  5
91A
  8
1
  6
CONTINUOUS
 62
     7
 10
-140.5957345661781
 20
255.5681935920541
 30
0.0
  0
VERTEX
  5
91B
  8
1
  6
CONTINUOUS
 62
     7
 10
-140.607751654756
 20
255.5890412894167
 30
0.0
  0
VERTEX
  5
91C
  8
1
  6
CONTINUOUS
 62
     7
 10
-140.6207578601592
 20
255.6092866722043
 30
0.0
  0
VERTEX
  5
91D
  8
1
  6
CONTINUOUS
 62
     7
 10
-140.6347230580961
 20
255.6288828491221
 30
0.0
  0
VERTEX
  5
91E
  8
1
  6
CONTINUOUS
 62
     7
 10
-140.6496149031067
 20
255.6477844325317
 30
0.0
  0
VERTEX
  5
91F
  8
1
  6
CONTINUOUS
 62
     7
 10
-140.6653989034799
 20
255.6659476435756
 30
0.0
  0
SEQEND
  5
989
  8
1
  6
CONTINUOUS
 62
     7
  0
LINE
  5
3F3
  8
1
  6
CONTINUOUS
 62
     7
 10
-141.0348042397401
 20
254.8289911218365
 30
0.0
 11
-144.0333333333333
 21
254.8289911218365
 31
0.0
  0
ARC
  5
3F4
  8
1
  6
CONTINUOUS
 62
     7
 10
-144.0333333333333
 20
252.2289911218365
 30
0.0
 40
2.6
 50
90.0
 51
270.0
  0
LINE
  5
3F5
  8
1
  6
CONTINUOUS
 62
     7
 10
-144.0333333333333
 20
249.6289911218365
 30
0.0
 11
-141.0348042397401
 21
249.6289911218365
 31
0.0
  0
POLYLINE
  5
3F6
  8
1
  6
CONTINUOUS
 62
     7
 66
     1
 10
0.0
 20
0.0
 30
0.0
  0
VERTEX
  5
920
  8
1
  6
CONTINUOUS
 62
     7
 10
-140.6653989034799
 20
248.7920346000974
 30
0.0
  0
VERTEX
  5
921
  8
1
  6
CONTINUOUS
 62
     7
 10
-140.6496149031067
 20
248.8101978111414
 30
0.0
  0
VERTEX
  5
922
  8
1
  6
CONTINUOUS
 62
     7
 10
-140.6347230580961
 20
248.8290993945509
 30
0.0
  0
VERTEX
  5
923
  8
1
  6
CONTINUOUS
 62
     7
 10
-140.6207578601592
 20
248.8486955714687
 30
0.0
  0
VERTEX
  5
924
  8
1
  6
CONTINUOUS
 62
     7
 10
-140.607751654756
 20
248.8689409542564
 30
0.0
  0
VERTEX
  5
925
  8
1
  6
CONTINUOUS
 62
     7
 10
-140.5957345661781
 20
248.8897886516189
 30
0.0
  0
VERTEX
  5
926
  8
1
  6
CONTINUOUS
 62
     7
 10
-140.5847344277765
 20
248.9111903772118
 30
0.0
  0
VERTEX
  5
927
  8
1
  6
CONTINUOUS
 62
     7
 10
-140.5747767174954
 20
248.9330965614794
 30
0.0
  0
VERTEX
  5
928
  8
1
  6
CONTINUOUS
 62
     7
 10
-140.5658844988619
 20
248.9554564664654
 30
0.0
  0
VERTEX
  5
929
  8
1
  6
CONTINUOUS
 62
     7
 10
-140.5580783675668
 20
248.9782183033292
 30
0.0
  0
VERTEX
  5
92A
  8
1
  6
CONTINUOUS
 62
     7
 10
-140.5513764037625
 20
249.0013293522966
 30
0.0
  0
VERTEX
  5
92B
  8
1
  6
CONTINUOUS
 62
     7
 10
-140.5457941301865
 20
249.0247360847668
 30
0.0
  0
VERTEX
  5
92C
  8
1
  6
CONTINUOUS
 62
     7
 10
-140.5413444762084
 20
249.0483842872923
 30
0.0
  0
VERTEX
  5
92D
  8
1
  6
CONTINUOUS
 62
     7
 10
-140.5380377478835
 20
249.0722191871451
 30
0.0
  0
VERTEX
  5
92E
  8
1
  6
CONTINUOUS
 62
     7
 10
-140.535881604083
 20
249.096185579179
 30
0.0
  0
VERTEX
  5
92F
  8
1
  6
CONTINUOUS
 62
     7
 10
-140.5348810387541
 20
249.1202279536921
 30
0.0
  0
VERTEX
  5
930
  8
1
  6
CONTINUOUS
 62
     7
 10
-140.5350383693537
 20
249.1442906249963
 30
0.0
  0
VERTEX
  5
931
  8
1
  6
CONTINUOUS
 62
     7
 10
-140.5363532314809
 20
249.1683178603927
 30
0.0
  0
VERTEX
  5
932
  8
1
  6
CONTINUOUS
 62
     7
 10
-140.5388225797211
 20
249.1922540092575
 30
0.0
  0
VERTEX
  5
933
  8
1
  6
CONTINUOUS
 62
     7
 10
-140.5424406946991
 20
249.2160436319367
 30
0.0
  0
VERTEX
  5
934
  8
1
  6
CONTINUOUS
 62
     7
 10
-140.5471991963267
 20
249.2396316281523
 30
0.0
  0
VERTEX
  5
935
  8
1
  6
CONTINUOUS
 62
     7
 10
-140.5530870632115
 20
249.2629633646234
 30
0.0
  0
VERTEX
  5
936
  8
1
  6
CONTINUOUS
 62
     7
 10
-140.5600906581848
 20
249.2859848016041
 30
0.0
  0
VERTEX
  5
937
  8
1
  6
CONTINUOUS
 62
     7
 10
-140.5681937598868
 20
249.3086426180483
 30
0.0
  0
VERTEX
  5
938
  8
1
  6
CONTINUOUS
 62
     7
 10
-140.5773776003379
 20
249.3308843351083
 30
0.0
  0
VERTEX
  5
939
  8
1
  6
CONTINUOUS
 62
     7
 10
-140.5876209084078
 20
249.3526584376844
 30
0.0
  0
VERTEX
  5
93A
  8
1
  6
CONTINUOUS
 62
     7
 10
-140.5988999590831
 20
249.3739144937408
 30
0.0
  0
VERTEX
  5
93B
  8
1
  6
CONTINUOUS
 62
     7
 10
-140.6111886284175
 20
249.394603271114
 30
0.0
  0
VERTEX
  5
93C
  8
1
  6
CONTINUOUS
 62
     7
 10
-140.6244584540388
 20
249.4146768515418
 30
0.0
  0
VERTEX
  5
93D
  8
1
  6
CONTINUOUS
 62
     7
 10
-140.6386787010721
 20
249.4340887416487
 30
0.0
  0
VERTEX
  5
93E
  8
1
  6
CONTINUOUS
 62
     7
 10
-140.6538164333262
 20
249.4527939806317
 30
0.0
  0
VERTEX
  5
93F
  8
1
  6
CONTINUOUS
 62
     7
 10
-140.6698365895786
 20
249.4707492443963
 30
0.0
  0
VERTEX
  5
940
  8
1
  6
CONTINUOUS
 62
     7
 10
-140.6867020647827
 20
249.4879129459012
 30
0.0
  0
VERTEX
  5
941
  8
1
  6
CONTINUOUS
 62
     7
 10
-140.7043737960083
 20
249.5042453314801
 30
0.0
  0
VERTEX
  5
942
  8
1
  6
CONTINUOUS
 62
     7
 10
-140.7228108529174
 20
249.5197085729171
 30
0.0
  0
VERTEX
  5
943
  8
1
  6
CONTINUOUS
 62
     7
 10
-140.7419705325646
 20
249.5342668550626
 30
0.0
  0
VERTEX
  5
944
  8
1
  6
CONTINUOUS
 62
     7
 10
-140.7618084583037
 20
249.5478864587859
 30
0.0
  0
VERTEX
  5
945
  8
1
  6
CONTINUOUS
 62
     7
 10
-140.7822786825702
 20
249.5605358390746
 30
0.0
  0
VERTEX
  5
946
  8
1
  6
CONTINUOUS
 62
     7
 10
-140.8033337933032
 20
249.5721856980965
 30
0.0
  0
VERTEX
  5
947
  8
1
  6
CONTINUOUS
 62
     7
 10
-140.8249250237581
 20
249.5828090530587
 30
0.0
  0
VERTEX
  5
948
  8
1
  6
CONTINUOUS
 62
     7
 10
-140.8470023654581
 20
249.5923812987028
 30
0.0
  0
VERTEX
  5
949
  8
1
  6
CONTINUOUS
 62
     7
 10
-140.8695146840209
 20
249.6008802642949
 30
0.0
  0
VERTEX
  5
94A
  8
1
  6
CONTINUOUS
 62
     7
 10
-140.8924098375936
 20
249.6082862649762
 30
0.0
  0
VERTEX
  5
94B
  8
1
  6
CONTINUOUS
 62
     7
 10
-140.9156347976209
 20
249.6145821473559
 30
0.0
  0
VERTEX
  5
94C
  8
1
  6
CONTINUOUS
 62
     7
 10
-140.9391357716671
 20
249.619753329241
 30
0.0
  0
VERTEX
  5
94D
  8
1
  6
CONTINUOUS
 62
     7
 10
-140.9628583280073
 20
249.623787833411
 30
0.0
  0
VERTEX
  5
94E
  8
1
  6
CONTINUOUS
 62
     7
 10
-140.9867475216991
 20
249.6266763153586
 30
0.0
  0
VERTEX
  5
94F
  8
1
  6
CONTINUOUS
 62
     7
 10
-141.0107480218438
 20
249.6284120849333
 30
0.0
  0
VERTEX
  5
950
  8
1
  6
CONTINUOUS
 62
     7
 10
-141.0348042397401
 20
249.6289911218365
 30
0.0
  0
SEQEND
  5
98A
  8
1
  6
CONTINUOUS
 62
     7
  0
ARC
  5
3F7
  8
1
  6
CONTINUOUS
 62
     7
 10
-144.4333333333334
 20
252.2289911218365
 30
0.0
 40
5.1
 50
270.0
 51
317.6302014306247
  0
LINE
  5
3F8
  8
1
  6
CONTINUOUS
 62
     7
 10
-150.4333333333333
 20
247.1289911218365
 30
0.0
 11
-144.4333333333334
 21
247.1289911218365
 31
0.0
  0
LINE
  5
3F9
  8
1
  6
CONTINUOUS
 62
     7
 10
-150.4333333333333
 20
247.1289911218365
 30
0.0
 11
-150.4333333333333
 21
246.6679030473012
 31
0.0
  0
LINE
  5
3FA
  8
1
  6
CONTINUOUS
 62
     7
 10
-158.4333333333333
 20
211.9595351591041
 30
0.0
 11
-165.4420598688317
 21
212.020699388961
 31
0.0
  0
ARC
  5
3FB
  8
1
  6
CONTINUOUS
 62
     7
 10
-165.4333333333333
 20
213.0206613120252
 30
0.0
 40
1.0
 50
180.0
 51
269.4999999999995
  0
LINE
  5
3FC
  8
1
  6
CONTINUOUS
 62
     7
 10
-158.4333333333333
 20
211.9595351591041
 30
0.0
 11
-158.4333333333333
 21
229.2289911218365
 31
0.0
  0
LINE
  5
3FD
  8
1
  6
CONTINUOUS
 62
     7
 10
-166.4333333333333
 20
239.29892029497
 30
0.0
 11
-166.4333333333333
 21
213.0206613120252
 31
0.0
  0
ARC
  5
3FE
  8
1
  6
CONTINUOUS
 62
     7
 10
-151.4333333333333
 20
203.2901172747575
 30
0.0
 40
1.0
 50
270.4999999999989
 51
0.0
  0
LINE
  5
3FF
  8
1
  6
CONTINUOUS
 62
     7
 10
-158.4333333333333
 20
202.2289911218365
 30
0.0
 11
-151.424606797835
 21
202.2901553516934
 31
0.0
  0
LINE
  5
400
  8
1
  6
CONTINUOUS
 62
     7
 10
-158.4333333333333
 20
202.2289911218365
 30
0.0
 11
-158.4333333333333
 21
204.8984470845688
 31
0.0
  0
LINE
  5
401
  8
1
  6
CONTINUOUS
 62
     7
 10
-158.4333333333333
 20
204.8984470845688
 30
0.0
 11
-155.924606797835
 21
204.9203404093673
 31
0.0
  0
ARC
  5
402
  8
1
  6
CONTINUOUS
 62
     7
 10
-155.9333333333333
 20
205.9203023324315
 30
0.0
 40
1.0
 50
270.4999999999989
 51
0.0
  0
LINE
  5
403
  8
1
  6
CONTINUOUS
 62
     7
 10
-154.9333333333333
 20
205.9203023324315
 30
0.0
 11
-154.9333333333333
 21
210.9376799112415
 31
0.0
  0
ARC
  5
404
  8
1
  6
CONTINUOUS
 62
     7
 10
-155.9333333333333
 20
210.9376799112415
 30
0.0
 40
1.0
 50
0.0
 51
89.50000000000114
  0
LINE
  5
405
  8
1
  6
CONTINUOUS
 62
     7
 10
-155.924606797835
 20
211.9376418343057
 30
0.0
 11
-158.4333333333333
 21
211.9595351591041
 31
0.0
  0
LINE
  5
406
  8
1
  6
CONTINUOUS
 62
     7
 10
-150.4333333333333
 20
239.29892029497
 30
0.0
 11
-150.4333333333333
 21
203.2901172747575
 31
0.0
  0
LINE
  5
407
  8
1
  6
CONTINUOUS
 62
     7
 10
-165.4420598688317
 20
202.2901553516934
 30
0.0
 11
-158.4333333333333
 21
202.2289911218365
 31
0.0
  0
ARC
  5
408
  8
1
  6
CONTINUOUS
 62
     7
 10
-165.4333333333333
 20
203.2901172747575
 30
0.0
 40
1.0
 50
180.0
 51
269.4999999999995
  0
ARC
  5
409
  8
1
  6
CONTINUOUS
 62
     7
 10
-165.4333333333333
 20
203.8373209316478
 30
0.0
 40
1.0
 50
90.5000000000005
 51
180.0
  0
LINE
  5
40A
  8
1
  6
CONTINUOUS
 62
     7
 10
-165.4420598688317
 20
204.837282854712
 30
0.0
 11
-158.4333333333333
 21
204.8984470845688
 31
0.0
  0
LINE
  5
40B
  8
1
  6
CONTINUOUS
 62
     7
 10
-166.4333333333333
 20
203.8373209316478
 30
0.0
 11
-166.4333333333333
 21
203.2901172747575
 31
0.0
  0
LINE
  5
40C
  8
1
  6
CONTINUOUS
 62
     7
 10
-155.9067392978068
 20
210.6510403739455
 30
0.0
 11
-154.9333333333334
 21
210.6595351591041
 31
0.0
  0
LINE
  5
40D
  8
1
  6
CONTINUOUS
 62
     7
 10
-155.5785607609414
 20
206.2040778990246
 30
0.0
 11
-154.9333333333334
 21
206.1984470845688
 31
0.0
  0
LINE
  5
40E
  8
1
  6
CONTINUOUS
 62
     7
 10
-166.4333333333333
 20
203.8373209316478
 30
0.0
 11
-166.4333333333333
 21
213.0206613120252
 31
0.0
  0
ARC
  5
40F
  8
1
  6
CONTINUOUS
 62
     7
 10
-144.4333333333334
 20
252.2289911218365
 30
0.0
 40
2.19999999999998
 50
270.0000000000001
 51
90.00000000000006
  0
LINE
  5
410
  8
1
  6
CONTINUOUS
 62
     7
 10
-145.4054127470914
 20
254.4374743303625
 30
0.0
 11
-144.4333333333334
 21
254.4289911218365
 31
0.0
  0
LINE
  5
411
  8
1
  6
CONTINUOUS
 62
     7
 10
-144.4333333333334
 20
250.0289911218365
 30
0.0
 11
-145.4054127470914
 21
250.0205079133105
 31
0.0
  0
ARC
  5
412
  8
1
  6
CONTINUOUS
 62
     7
 10
-144.4333333333334
 20
252.2289911218365
 30
0.0
 40
5.100000000000012
 50
317.6302014306243
 51
42.36979856937592
  0
LINE
  5
413
  8
1
  6
CONTINUOUS
 62
     7
 10
-154.572671593725
 20
260.1955742914862
 30
0.0
 11
-155.5899466473754
 21
262.2041672705634
 31
0.0
  0
LINE
  5
414
  8
1
  6
CONTINUOUS
 62
     7
 10
-161.2767200192913
 20
262.2041672705634
 30
0.0
 11
-162.2939950729416
 21
260.1955742914862
 31
0.0
  0
ARC
  5
415
  8
1
  6
CONTINUOUS
 62
     7
 10
-156.6833333333333
 20
235.3606436194239
 30
0.0
 40
0.9999999999999972
 50
344.9999999999998
 51
0.0
  0
ARC
  5
416
  8
1
  6
CONTINUOUS
 62
     7
 10
-160.1833333333333
 20
235.3606436194239
 30
0.0
 40
1.000000000000001
 50
180.0
 51
195.0000000000001
  0
LINE
  5
417
  8
1
  6
CONTINUOUS
 62
     7
 10
-161.1833333333333
 20
235.9289911218365
 30
0.0
 11
-161.1833333333333
 21
235.3606436194239
 31
0.0
  0
LINE
  5
418
  8
1
  6
CONTINUOUS
 62
     7
 10
-155.6833333333333
 20
235.3606436194239
 30
0.0
 11
-155.6833333333333
 21
235.9289911218365
 31
0.0
  0
LINE
  5
419
  8
1
  6
CONTINUOUS
 62
     7
 10
-161.1492591596224
 20
235.1018245743214
 30
0.0
 11
-160.8540652855947
 21
234.0001460383666
 31
0.0
  0
LINE
  5
41A
  8
1
  6
CONTINUOUS
 62
     7
 10
-156.0126167069303
 20
234.0000888414849
 30
0.0
 11
-155.7174075070443
 21
235.1018245743214
 31
0.0
  0
ENDBLK
  8
0
  0
ENDSEC
  0
SECTION
  2
ENTITIES
  0
POINT
  5
70
  8
1
 62
     7
 10
-230.0
 20
125.8333333333333
 30
0.0
  0
POINT
  5
71
  8
1
 62
     7
 10
-150.8333333333333
 20
269.1666666666667
 30
0.0
  0
POINT
  5
72
  8
1
 62
     7
 10
-150.8333333333333
 20
189.1666666666667
 30
0.0
  0
POINT
  5
73
  8
1
 62
     7
 10
-370.0000000000001
 20
125.8333333333333
 30
0.0
  0
LINE
  5
74
  8
1
  6
CENTER
 62
     1
 10
-370.0000000000001
 20
133.4333333333333
 30
0.0
 11
-230.0
 21
133.4333333333333
 31
0.0
  0
LINE
  5
76
  8
1
  6
CENTER
 62
     1
 10
-158.4333333333333
 20
269.1666666666667
 30
0.0
 11
-158.4333333333333
 21
189.1666666666667
 31
0.0
  0
INSERT
  5
29E
  8
1
  6
CONTINUOUS
 62
     7
  2
D_FRAME_VIEW_1492
 10
0.0
 20
0.0
 30
0.0
  0
LINE
  5
29F
  8
1
  6
CENTER
 62
     1
 10
-266.3713919890303
 20
250.5789911218365
 30
0.0
 11
-266.3713919890303
 21
259.8789911218365
 31
0.0
  0
LINE
  5
2A0
  8
1
  6
CENTER
 62
     1
 10
-271.0213919890302
 20
255.2289911218365
 30
0.0
 11
-261.7213919890303
 21
255.2289911218365
 31
0.0
  0
INSERT
  5
372
  8
1
  6
CONTINUOUS
 62
     7
  2
D_FRAME_VIEW_2314
 10
0.0
 20
0.0
 30
0.0
  0
INSERT
  5
41B
  8
1
  6
CONTINUOUS
 62
     7
  2
D_FRAME_VIEW_2481
 10
0.0
 20
0.0
 30
0.0
  0
LINE
  5
41C
  8
1
  6
CENTER
 62
     1
 10
-254.0213919890302
 20
255.2289911218365
 30
0.0
 11
-244.7213919890303
 21
255.2289911218365
 31
0.0
  0
TEXT
  5
41D
  8
1
  6
CONTINUOUS
 62
     7
 10
-172.6182089116752
 20
119.9950866991789
 30
0.0
 40
3.0
  1
MRK-6
  0
LINE
  5
41E
  8
1
  6
CONTINUOUS
 62
     2
 10
-172.5333333333333
 20
119.4371212121212
 30
0.0
 11
-164.1333333333334
 21
119.4371212121212
 31
0.0
  0
LINE
  5
41F
  8
1
  6
CENTER
 62
     1
 10
-144.4333333333334
 20
248.0289911218365
 30
0.0
 11
-144.4333333333334
 21
256.4289911218365
 31
0.0
  0
LINE
  5
420
  8
1
  6
CENTER
 62
     1
 10
-285.3713919890303
 20
128.1789700655841
 30
0.0
 11
-285.3713919890303
 21
138.6789700655841
 31
0.0
  0
LINE
  5
421
  8
1
  6
CENTER
 62
     1
 10
-252.6213919890303
 20
133.4289700655841
 30
0.0
 11
-242.1213919890303
 21
133.4289700655841
 31
0.0
  0
LINE
  5
422
  8
1
  6
CENTER
 62
     1
 10
-148.6333333333333
 20
252.2289911218365
 30
0.0
 11
-140.2333333333334
 21
252.2289911218365
 31
0.0
  0
LINE
  5
423
  8
1
  6
CENTER
 62
     1
 10
-290.6213919890303
 20
133.4289700655841
 30
0.0
 11
-280.1213919890303
 21
133.4289700655841
 31
0.0
  0
LINE
  5
424
  8
1
  6
CENTER
 62
     1
 10
-247.3713919890303
 20
128.1789700655841
 30
0.0
 11
-247.3713919890303
 21
138.6789700655841
 31
0.0
  0
LINE
  5
425
  8
1
  6
CENTER
 62
     1
 10
-163.8353971944455
 20
208.2289911218365
 30
0.0
 11
-153.0312694722211
 21
208.2289911218365
 31
0.0
  0
LINE
  5
426
  8
1
  6
CENTER
 62
     1
 10
-249.3713919890302
 20
250.5789911218365
 30
0.0
 11
-249.3713919890302
 21
259.8789911218365
 31
0.0
  0
LINE
  5
427
  8
1
  6
CENTER
 62
     1
 10
-158.4333333333333
 20
202.8269272607243
 30
0.0
 11
-158.4333333333333
 21
213.6310549829487
 31
0.0
  0
ENDSEC
  0
EOF
