  0
SECTION
  2
HEADER
  9
$ACADVER
  1
AC1006
  9
$DWGCODEPAGE
  3
ansi_932
  9
$INSBASE
 10
0.0
 20
0.0
 30
0.0
  9
$EXTMIN
 10
41.90957684820884
 20
208.5569275978492
  9
$EXTMAX
 10
823.1081401509462
 20
1963.906121408689
  9
$LIMMIN
 10
0.0
 20
0.0
  9
$LIMMAX
 10
12.0
 20
9.0
  9
$ORTHOMODE
 70
     0
  9
$REGENMODE
 70
     1
  9
$FILLMODE
 70
     1
  9
$QTEXTMODE
 70
     0
  9
$MIRRTEXT
 70
     1
  9
$DRAGMODE
 70
     2
  9
$LTSCALE
 40
1.0
  9
$OSMODE
 70
    37
  9
$ATTMODE
 70
     1
  9
$TEXTSIZE
 40
0.2
  9
$TRACEWID
 40
0.05
  9
$TEXTSTYLE
  7
STANDARD
  9
$CLAYER
  8
0
  9
$CELTYPE
  6
BYLAYER
  9
$CECOLOR
 62
   256
  9
$DIMSCALE
 40
1.0
  9
$DIMASZ
 40
3.0
  9
$DIMEXO
 40
0.0625
  9
$DIMDLI
 40
0.38
  9
$DIMRND
 40
0.0
  9
$DIMDLE
 40
0.0
  9
$DIMEXE
 40
1.5
  9
$DIMTP
 40
0.0
  9
$DIMTM
 40
0.0
  9
$DIMTXT
 40
3.0
  9
$DIMCEN
 40
0.09
  9
$DIMTSZ
 40
0.0
  9
$DIMTOL
 70
     0
  9
$DIMLIM
 70
     0
  9
$DIMTIH
 70
     1
  9
$DIMTOH
 70
     1
  9
$DIMSE1
 70
     0
  9
$DIMSE2
 70
     0
  9
$DIMTAD
 70
     1
  9
$DIMZIN
 70
     0
  9
$DIMBLK
  1

  9
$DIMASO
 70
     1
  9
$DIMSHO
 70
     1
  9
$DIMPOST
  1

  9
$DIMAPOST
  1

  9
$DIMALT
 70
     0
  9
$DIMALTD
 70
     2
  9
$DIMALTF
 40
25.4
  9
$DIMLFAC
 40
1.0
  9
$DIMTOFL
 70
     0
  9
$DIMTVP
 40
0.0
  9
$DIMTIX
 70
     0
  9
$DIMSOXD
 70
     0
  9
$DIMSAH
 70
     0
  9
$DIMBLK1
  1

  9
$DIMBLK2
  1

  9
$LUNITS
 70
     2
  9
$LUPREC
 70
     4
  9
$SKETCHINC
 40
0.1
  9
$FILLETRAD
 40
0.5
  9
$AUNITS
 70
     0
  9
$AUPREC
 70
     0
  9
$MENU
  1
.
  9
$ELEVATION
 40
0.0
  9
$THICKNESS
 40
0.0
  9
$LIMCHECK
 70
     0
  9
$CHAMFERA
 40
0.0
  9
$CHAMFERB
 40
0.0
  9
$SKPOLY
 70
     0
  9
$TDCREATE
 40
2458900.65976912
  9
$TDUPDATE
 40
2458900.65976993
  9
$TDINDWG
 40
0.0000000116
  9
$TDUSRTIMER
 40
0.0000000116
  9
$USRTIMER
 70
     1
  9
$ANGBASE
 50
0.0
  9
$ANGDIR
 70
     0
  9
$PDMODE
 70
     0
  9
$PDSIZE
 40
0.0
  9
$PLINEWID
 40
0.0
  9
$COORDS
 70
     1
  9
$SPLFRAME
 70
     0
  9
$SPLINETYPE
 70
     6
  9
$SPLINESEGS
 70
     8
  9
$ATTDIA
 70
     0
  9
$ATTREQ
 70
     1
  9
$HANDLING
 70
     1
  9
$HANDSEED
  5
52A
  9
$SURFTAB1
 70
     6
  9
$SURFTAB2
 70
     6
  9
$SURFTYPE
 70
     6
  9
$SURFU
 70
     6
  9
$SURFV
 70
     6
  9
$UCSNAME
  2

  9
$UCSORG
 10
0.0
 20
0.0
 30
0.0
  9
$UCSXDIR
 10
1.0
 20
0.0
 30
0.0
  9
$UCSYDIR
 10
0.0
 20
1.0
 30
0.0
  9
$USERI1
 70
     0
  9
$USERI2
 70
     0
  9
$USERI3
 70
     0
  9
$USERI4
 70
     0
  9
$USERI5
 70
     0
  9
$USERR1
 40
0.0
  9
$USERR2
 40
0.0
  9
$USERR3
 40
0.0
  9
$USERR4
 40
0.0
  9
$USERR5
 40
0.0
  9
$WORLDVIEW
 70
     1
  0
ENDSEC
  0
SECTION
  2
TABLES
  0
TABLE
  2
VPORT
 70
     1
  0
VPORT
  2
*ACTIVE
 70
     0
 10
0.0
 20
0.0
 11
1.0
 21
1.0
 12
432.5088584995775
 22
1086.231524503269
 13
0.0
 23
0.0
 14
0.5
 24
0.5
 15
0.5
 25
0.5
 16
0.0
 26
0.0
 36
1.0
 17
0.0
 27
0.0
 37
0.0
 40
1755.34919381084
 41
1.6
 42
50.0
 43
0.0
 44
0.0
 50
0.0
 51
0.0
 71
     0
 72
   100
 73
     1
 74
     3
 75
     0
 76
     0
 77
     0
 78
     0
  0
ENDTAB
  0
TABLE
  2
LTYPE
 70
     2
  0
LTYPE
  2
CONTINUOUS
 70
     0
  3
Solid line
 72
    65
 73
     0
 40
0.0
  0
LTYPE
  2
CENTER
 70
     0
  3

 72
    65
 73
     0
 40
0.0
  0
ENDTAB
  0
TABLE
  2
LAYER
 70
     1
  0
LAYER
  2
0
 70
     0
 62
     7
  6
CONTINUOUS
  0
ENDTAB
  0
TABLE
  2
STYLE
 70
     2
  0
STYLE
  2
STANDARD
 70
     0
 40
0.0
 41
1.0
 50
0.0
 71
     0
 42
0.2
  3
txt
  4

  0
STYLE
  2
ＭＳ_ゴシック
 70
     0
 40
0.0
 41
1.0
 50
0.0
 71
     0
 42
0.2
  3
ＭＳ ゴシック.shx
  4

  0
ENDTAB
  0
TABLE
  2
VIEW
 70
     0
  0
ENDTAB
  0
TABLE
  2
UCS
 70
     0
  0
ENDTAB
  0
ENDSEC
  0
SECTION
  2
BLOCKS
  0
ENDSEC
  0
SECTION
  2
ENTITIES
  0
LINE
  5
6F
  8
0
  6
CONTINUOUS
 62
     7
 10
142.3837802755386
 20
368.8568390826937
 30
0.0
 11
141.6520886999931
 21
369.7357966126259
 31
0.0
  0
LINE
  5
70
  8
0
  6
CONTINUOUS
 62
     7
 10
141.6520886999931
 20
369.7357966126259
 30
0.0
 11
141.5032500878667
 21
369.7610920323172
 31
0.0
  0
LINE
  5
71
  8
0
  6
CONTINUOUS
 62
     7
 10
49.38378027553841
 20
368.8568390826937
 30
0.0
 11
48.65208869999304
 21
369.7357966126259
 31
0.0
  0
LINE
  5
72
  8
0
  6
CONTINUOUS
 62
     7
 10
48.65208869999304
 20
369.7357966126259
 30
0.0
 11
48.50325008786655
 21
369.7610920323172
 31
0.0
  0
LINE
  5
73
  8
0
  6
CONTINUOUS
 62
     7
 10
53.56676455299425
 20
1767.262598200233
 30
0.0
 11
52.57983859695992
 21
1767.880240932655
 31
0.0
  0
LINE
  5
74
  8
0
  6
CONTINUOUS
 62
     7
 10
137.0733823255462
 20
1764.336568704396
 30
0.0
 11
136.1835430470712
 21
1763.728451473514
 31
0.0
  0
LINE
  5
75
  8
0
  6
CONTINUOUS
 62
     7
 10
136.1835430470712
 20
1763.728451473514
 30
0.0
 11
134.99900974039
 21
1763.292257734719
 31
0.0
  0
LINE
  5
76
  8
0
  6
CONTINUOUS
 62
     7
 10
718.723138354821
 20
1870.392656083361
 30
0.0
 11
717.7128941804677
 21
1870.697230015681
 31
0.0
  0
LINE
  5
77
  8
0
  6
CONTINUOUS
 62
     7
 10
717.7128941804677
 20
1870.697230015681
 30
0.0
 11
717.0351448410361
 21
1871.508461939847
 31
0.0
  0
LINE
  5
78
  8
0
  6
CONTINUOUS
 62
     7
 10
717.0351448410361
 20
1871.508461939847
 30
0.0
 11
716.903479572232
 21
1872.488206655908
 31
0.0
  0
TEXT
  5
79
  8
0
  6
CONTINUOUS
 62
     7
 10
627.0900962861073
 20
205.1365824684256
 30
0.0
 40
30.0
  1
MRPD-1
 41
1.5
  0
LINE
  5
7A
  8
0
  6
CONTINUOUS
 62
     7
 10
48.5010514888824
 20
327.7610920323172
 30
0.0
 11
51.53658342119994
 21
327.7610920323172
 31
0.0
  0
ARC
  5
7B
  8
0
  6
CONTINUOUS
 62
     7
 10
444.5549556001735
 20
358.375092032501
 30
0.0
 40
14.99999999999998
 50
357.0151102024875
 51
2.984865496641532
  0
LINE
  5
7C
  8
0
  6
CONTINUOUS
 62
     7
 10
95.50325008786642
 20
1757.061092032317
 30
0.0
 11
96.30325008786646
 21
1756.261092032317
 31
0.0
  0
ARC
  5
7D
  8
0
  6
CONTINUOUS
 62
     7
 10
444.5549556002195
 20
346.741092032501
 30
0.0
 40
15.00000000000001
 50
0.0000000002264555
 51
2.984865496641351
  0
ARC
  5
7E
  8
0
  6
CONTINUOUS
 62
     7
 10
459.0352834823166
 20
347.4961446320582
 30
0.0
 40
0.4999999999999924
 50
2.984160758261878
 51
88.00000015297518
  0
ARC
  5
7F
  8
0
  6
CONTINUOUS
 62
     7
 10
444.5549556001582
 20
362.253092032501
 30
0.0
 40
14.99999999999998
 50
357.0151102024875
 51
2.984865496641532
  0
ARC
  5
80
  8
0
  6
CONTINUOUS
 62
     7
 10
459.0352834823012
 20
351.3741446320583
 30
0.0
 40
0.4999999999999808
 50
2.984160758236341
 51
88.00000015294893
  0
LINE
  5
81
  8
0
  6
CENTER
 62
     1
 10
82.50325008786652
 20
685.2610920323173
 30
0.0
 11
137.5032500878666
 21
685.2610920323173
 31
0.0
  0
ARC
  5
83
  8
0
  6
CONTINUOUS
 62
     7
 10
459.0352834822857
 20
355.2521446320581
 30
0.0
 40
0.4999999999999924
 50
2.984160758261878
 51
88.00000015334001
  0
ARC
  5
84
  8
0
  6
CONTINUOUS
 62
     7
 10
459.0352834822705
 20
359.1301446320581
 30
0.0
 40
0.4999999999999808
 50
2.984160758236341
 51
88.00000015294849
  0
LINE
  5
85
  8
0
  6
CONTINUOUS
 62
     7
 10
69.03137765335188
 20
327.7610920323172
 30
0.0
 11
120.9751225223812
 21
327.7610920323172
 31
0.0
  0
ARC
  5
86
  8
0
  6
CONTINUOUS
 62
     7
 10
444.5549556001428
 20
366.131092032501
 30
0.0
 40
14.99999999999998
 50
357.0151102024875
 51
2.984865496641646
  0
LINE
  5
87
  8
0
  6
CONTINUOUS
 62
     7
 10
138.4699167545333
 20
348.7610920323173
 30
0.0
 11
138.4699167545332
 21
327.7610920323173
 31
0.0
  0
ARC
  5
88
  8
0
  6
CONTINUOUS
 62
     7
 10
444.5549556001889
 20
354.4970920325009
 30
0.0
 40
14.99999999999998
 50
357.0151102024875
 51
2.984865496640623
  0
ARC
  5
89
  8
0
  6
CONTINUOUS
 62
     7
 10
459.0352834822553
 20
363.0081446320582
 30
0.0
 40
0.4999999999999808
 50
2.984160758236341
 51
88.00000015294921
  0
CIRCLE
  5
8A
  8
0
  6
CONTINUOUS
 62
     7
 10
95.00325008786648
 20
542.7610920323175
 30
0.0
 40
1.999999999999946
  0
ARC
  5
8B
  8
0
  6
CONTINUOUS
 62
     7
 10
459.0352834822399
 20
366.8861446320582
 30
0.0
 40
0.4999999999999924
 50
2.984160758261878
 51
48.48933210752718
  0
ARC
  5
8C
  8
0
  6
CONTINUOUS
 62
     7
 10
459.0352834823071
 20
349.8640394330582
 30
0.0
 40
0.5000000000001054
 50
271.9999999984109
 51
357.0151102026181
  0
LINE
  5
8D
  8
0
  6
CONTINUOUS
 62
     7
 10
42.2354841217078
 20
1777.316836613298
 30
0.0
 11
42.2354841217078
 21
327.7610920323173
 31
0.0
  0
CIRCLE
  5
8E
  8
0
  6
CONTINUOUS
 62
     7
 10
95.00325008786659
 20
347.7610920323172
 30
0.0
 40
4.250000000000031
  0
CIRCLE
  5
8F
  8
0
  6
CONTINUOUS
 62
     7
 10
110.0032500878665
 20
685.2610920323173
 30
0.0
 40
7.499999999999951
  0
LINE
  5
90
  8
0
  6
CONTINUOUS
 62
     7
 10
74.00325008786656
 20
502.7610920323173
 30
0.0
 11
74.00325008786656
 21
392.7610920323173
 31
0.0
  0
LINE
  5
91
  8
0
  6
CONTINUOUS
 62
     7
 10
48.5010514888824
 20
348.7610920323175
 30
0.0
 11
50.01881745504114
 21
366.9520173335109
 31
0.0
  0
LINE
  5
92
  8
0
  6
CONTINUOUS
 62
     7
 10
137.0087219032533
 20
327.7610920323172
 30
0.0
 11
120.9751225223813
 21
327.7610920323172
 31
0.0
  0
LINE
  5
93
  8
0
  6
CONTINUOUS
 62
     7
 10
92.94989699797995
 20
1756.261092032317
 30
0.0
 11
93.70325008786645
 21
1756.261092032317
 31
0.0
  0
LINE
  5
94
  8
0
  6
CONTINUOUS
 62
   253
 10
42.25089158644185
 20
1777.29788204541
 30
0.0
 11
42.25089158644185
 21
327.7610920323175
 31
0.0
  0
LINE
  5
95
  8
0
  6
CONTINUOUS
 62
   253
 10
147.7556085892913
 20
327.7610920323172
 30
0.0
 11
147.7556085892913
 21
1777.29788204541
 31
0.0
  0
LINE
  5
96
  8
0
  6
CONTINUOUS
 62
   253
 10
120.9751225223812
 20
327.7610920323172
 30
0.0
 11
120.9751225223812
 21
1761.876048578225
 31
0.0
  0
ARC
  5
97
  8
0
  6
CONTINUOUS
 62
     7
 10
209.2992263832697
 20
351.3365247716341
 30
0.0
 40
70.8761169667057
 50
165.6883341664217
 51
182.082421060748
  0
LINE
  5
98
  8
0
  6
CONTINUOUS
 62
     7
 10
144.5365834211999
 20
327.7610920323172
 30
0.0
 11
144.5365834211999
 21
348.7610920323174
 31
0.0
  0
LINE
  5
99
  8
0
  6
CONTINUOUS
 62
     7
 10
48.50325008786655
 20
369.7610920323172
 30
0.0
 11
47.62271990019467
 21
368.8568390826937
 31
0.0
  0
LINE
  5
9A
  8
0
  6
CONTINUOUS
 62
     7
 10
94.50325008786648
 20
1757.061092032317
 30
0.0
 11
94.50325008786648
 21
1757.814445122204
 31
0.0
  0
LINE
  5
9B
  8
0
  6
CONTINUOUS
 62
     7
 10
51.53658342119993
 20
327.7610920323172
 30
0.0
 11
52.9977782724798
 21
327.7610920323172
 31
0.0
  0
LINE
  5
9C
  8
0
  6
CONTINUOUS
 62
     7
 10
45.46991675453327
 20
327.7610920323172
 30
0.0
 11
48.50105148888237
 21
327.7610920323172
 31
0.0
  0
CIRCLE
  5
9D
  8
0
  6
CONTINUOUS
 62
   253
 10
95.00325008786648
 20
1755.761092032317
 30
0.0
 40
1.021236244656221
  0
LINE
  5
9E
  8
0
  6
CONTINUOUS
 62
     7
 10
97.05660317775299
 20
1755.261092032317
 30
0.0
 11
96.3032500878665
 21
1755.261092032317
 31
0.0
  0
LINE
  5
9F
  8
0
  6
CONTINUOUS
 62
     7
 10
137.0087219032533
 20
327.7610920323172
 30
0.0
 11
138.4699167545332
 21
327.7610920323172
 31
0.0
  0
LINE
  5
A0
  8
0
  6
CONTINUOUS
 62
     7
 10
51.53658342119993
 20
327.7610920323172
 30
0.0
 11
51.5365834212
 21
348.7610920323172
 31
0.0
  0
LINE
  5
A1
  8
0
  6
CONTINUOUS
 62
   253
 10
48.5010514888824
 20
348.7610920323175
 30
0.0
 11
45.46991675453329
 21
348.7610920323175
 31
0.0
  0
ARC
  5
A2
  8
0
  6
CONTINUOUS
 62
     7
 10
-24.36436033721087
 20
350.7932142950124
 30
0.0
 40
75.92814224191173
 50
358.466366617591
 51
13.76287815523938
  0
LINE
  5
A3
  8
0
  6
CONTINUOUS
 62
     7
 10
139.987682720692
 20
366.9520173335113
 30
0.0
 11
141.5054486868509
 21
348.7610920323175
 31
0.0
  0
LINE
  5
A4
  8
0
  6
CONTINUOUS
 62
     7
 10
48.5010514888824
 20
327.7610920323172
 30
0.0
 11
48.5010514888824
 21
348.7610920323174
 31
0.0
  0
LINE
  5
A5
  8
0
  6
CONTINUOUS
 62
     7
 10
147.7710160540254
 20
327.7610920323172
 30
0.0
 11
147.7710160540254
 21
1777.316836613298
 31
0.0
  0
LINE
  5
A6
  8
0
  6
CONTINUOUS
 62
     7
 10
93.70325008786645
 20
1756.261092032317
 30
0.0
 11
94.50325008786649
 21
1757.061092032317
 31
0.0
  0
ARC
  5
A7
  8
0
  6
CONTINUOUS
 62
     7
 10
95.00325008786648
 20
1755.761092032317
 30
0.0
 40
2.113352528980022
 50
166.3145799001897
 51
193.6854200997983
  0
LINE
  5
A8
  8
0
  6
CONTINUOUS
 62
     7
 10
147.7710160540254
 20
327.7610920323172
 30
0.0
 11
147.7556085892913
 21
327.7610920323172
 31
0.0
  0
LINE
  5
A9
  8
0
  6
CONTINUOUS
 62
     7
 10
116.0032500878665
 20
392.7610920323173
 30
0.0
 11
116.0032500878665
 21
502.7610920323171
 31
0.0
  0
LINE
  5
AA
  8
0
  6
CONTINUOUS
 62
     7
 10
45.46991675453327
 20
348.7610920323175
 30
0.0
 11
45.46991675453327
 21
327.7610920323173
 31
0.0
  0
LINE
  5
AB
  8
0
  6
CONTINUOUS
 62
     7
 10
144.5365834211999
 20
327.7610920323172
 30
0.0
 11
147.7556085892913
 21
327.7610920323172
 31
0.0
  0
LINE
  5
AC
  8
0
  6
CONTINUOUS
 62
     7
 10
144.5365834211999
 20
327.7610920323172
 30
0.0
 11
141.5054486868508
 21
327.7610920323172
 31
0.0
  0
LINE
  5
AD
  8
0
  6
CONTINUOUS
 62
     7
 10
141.5032500878667
 20
369.7610920323172
 30
0.0
 11
140.6227199001948
 21
368.8568390826937
 31
0.0
  0
LINE
  5
AE
  8
0
  6
CENTER
 62
     1
 10
110.0032500878665
 20
657.7610920323173
 30
0.0
 11
110.0032500878665
 21
712.7610920323173
 31
0.0
  0
LINE
  5
AF
  8
0
  6
CONTINUOUS
 62
   253
 10
144.5365834211999
 20
348.7610920323175
 30
0.0
 11
141.5054486868508
 21
348.7610920323175
 31
0.0
  0
LINE
  5
B0
  8
0
  6
CONTINUOUS
 62
     7
 10
42.25089158644185
 20
327.7610920323172
 30
0.0
 11
42.23548412170776
 21
327.7610920323172
 31
0.0
  0
LINE
  5
B1
  8
0
  6
CONTINUOUS
 62
     7
 10
459.5549556002195
 20
346.7410920325603
 30
0.0
 11
448.304955599821
 21
346.7410920325158
 31
0.0
  0
LINE
  5
B2
  8
0
  6
CONTINUOUS
 62
     7
 10
69.03137765335188
 20
327.7610920323172
 30
0.0
 11
52.99777827247977
 21
327.7610920323172
 31
0.0
  0
ARC
  5
B3
  8
0
  6
CONTINUOUS
 62
     7
 10
68.6356396627818
 20
350.7932142950115
 30
0.0
 40
75.92814224191912
 50
358.466366617592
 51
13.76287815523881
  0
ARC
  5
B4
  8
0
  6
CONTINUOUS
 62
     7
 10
116.2992263832748
 20
351.3365247716337
 30
0.0
 40
70.87611696671085
 50
165.6883341664225
 51
182.0824210607476
  0
LINE
  5
B5
  8
0
  6
CONTINUOUS
 62
     7
 10
138.4699167545332
 20
327.7610920323172
 30
0.0
 11
141.5054486868508
 21
327.7610920323172
 31
0.0
  0
ARC
  5
B6
  8
0
  6
CONTINUOUS
 62
     7
 10
95.00325008786659
 20
392.7610920323173
 30
0.0
 40
21.00000000000002
 50
180.0
 51
359.9999999999998
  0
LINE
  5
B7
  8
0
  6
CONTINUOUS
 62
     7
 10
141.5054486868508
 20
348.7610920323175
 30
0.0
 11
141.5054486868508
 21
327.7610920323173
 31
0.0
  0
LINE
  5
B8
  8
0
  6
CONTINUOUS
 62
     7
 10
96.3032500878665
 20
1756.261092032317
 30
0.0
 11
97.05660317775299
 21
1756.261092032317
 31
0.0
  0
LINE
  5
B9
  8
0
  6
CONTINUOUS
 62
   253
 10
137.0087219032533
 20
1764.339793853884
 30
0.0
 11
137.0087219032533
 21
327.761092032317
 31
0.0
  0
ARC
  5
BA
  8
0
  6
CONTINUOUS
 62
     7
 10
444.5549556002041
 20
350.6190920325009
 30
0.0
 40
15.00000000000009
 50
357.0151102024878
 51
2.984865496641817
  0
LINE
  5
BB
  8
0
  6
CONTINUOUS
 62
     7
 10
748.4484091917118
 20
1681.888300372722
 30
0.0
 11
748.1948844529372
 21
1681.88830037272
 31
0.0
  0
LINE
  5
BC
  8
0
  6
CONTINUOUS
 62
     7
 10
750.8972284308635
 20
1681.888300372731
 30
0.0
 11
750.6284521648952
 21
1681.888300372731
 31
0.0
  0
LINE
  5
BD
  8
0
  6
CONTINUOUS
 62
     7
 10
456.9444857512103
 20
349.29072239535
 30
0.0
 11
459.0527332306453
 21
349.3643440195482
 31
0.0
  0
LINE
  5
BE
  8
0
  6
CONTINUOUS
 62
     7
 10
456.654955600213
 20
348.3692789179487
 30
0.0
 11
456.6549556002105
 21
348.9909051472488
 31
0.0
  0
ARC
  5
BF
  8
0
  6
CONTINUOUS
 62
     7
 10
459.0352834822457
 20
365.3760394330582
 30
0.0
 40
0.4999999999999959
 50
271.9999999987805
 51
357.0151102026232
  0
LINE
  5
C0
  8
0
  6
CONTINUOUS
 62
     7
 10
750.6284521648943
 20
1681.888300372728
 30
0.0
 11
749.9386548977766
 21
1681.888300372725
 31
0.0
  0
LINE
  5
C1
  8
0
  6
CONTINUOUS
 62
     7
 10
459.0527332306548
 20
347.9958400456603
 30
0.0
 11
456.9444857512125
 21
348.0694616698439
 31
0.0
  0
LINE
  5
C2
  8
0
  6
CONTINUOUS
 62
     7
 10
765.1096124691885
 20
1680.888300372739
 30
0.0
 11
765.1096124692114
 21
1675.138558111549
 31
0.0
  0
ARC
  5
C3
  8
0
  6
CONTINUOUS
 62
     7
 10
456.9549556002131
 20
348.3692789179501
 30
0.0
 40
0.300000000000003
 50
180.0000000002158
 51
268.0000000021616
  0
ARC
  5
C4
  8
0
  6
CONTINUOUS
 62
     7
 10
456.9549556001953
 20
352.8689051472501
 30
0.0
 40
0.299999999999967
 50
92.00000001530559
 51
180.0000000002544
  0
ARC
  5
C5
  8
0
  6
CONTINUOUS
 62
     7
 10
456.9549556001977
 20
352.2472789179499
 30
0.0
 40
0.3000000000001115
 50
180.0000000002331
 51
268.0000000015681
  0
LINE
  5
C6
  8
0
  6
CONTINUOUS
 62
     7
 10
456.9444857511948
 20
353.16872239535
 30
0.0
 11
459.0527332306301
 21
353.2423440195482
 31
0.0
  0
LINE
  5
C7
  8
0
  6
CONTINUOUS
 62
     7
 10
760.6743449826563
 20
1681.888300372752
 30
0.0
 11
759.9778070853058
 21
1681.888300372749
 31
0.0
  0
LINE
  5
C8
  8
0
  6
CONTINUOUS
 62
     7
 10
748.1948844529373
 20
1681.888300372719
 30
0.0
 11
746.5541658054452
 21
1680.888300372712
 31
0.0
  0
LINE
  5
C9
  8
0
  6
CONTINUOUS
 62
     7
 10
822.7367326088986
 20
1777.462829797224
 30
0.0
 11
823.0337808311534
 21
1777.753036398898
 31
0.0
  0
LINE
  5
CA
  8
0
  6
CONTINUOUS
 62
   253
 10
718.7231383683272
 20
1777.761092032318
 30
0.0
 11
718.5364847852846
 21
1777.758871431026
 31
0.0
  0
LINE
  5
CB
  8
0
  6
CONTINUOUS
 62
     7
 10
759.608484503031
 20
1681.888300372752
 30
0.0
 11
758.2488829427199
 21
1680.888300372751
 31
0.0
  0
LINE
  5
CC
  8
0
  6
CONTINUOUS
 62
   253
 10
823.0521524977074
 20
1778.815845421434
 30
0.0
 11
823.0337808311536
 21
1777.753036398897
 31
0.0
  0
LINE
  5
CD
  8
0
  6
CONTINUOUS
 62
   253
 10
718.5364847852846
 20
1777.758871431026
 30
0.0
 11
718.4798113897082
 21
1777.757328889353
 31
0.0
  0
LINE
  5
CE
  8
0
  6
CONTINUOUS
 62
     7
 10
746.5541658054451
 20
1680.888300372712
 30
0.0
 11
746.554165805468
 21
1675.138558111522
 31
0.0
  0
LINE
  5
CF
  8
0
  6
CONTINUOUS
 62
     7
 10
716.9597189931188
 20
1777.753036398647
 30
0.0
 11
716.9590354573711
 21
1777.823206716727
 31
0.0
  0
LINE
  5
D0
  8
0
  6
CONTINUOUS
 62
     7
 10
765.9727721124779
 20
1681.888300372732
 30
0.0
 11
765.6604370536776
 21
1681.888300372731
 31
0.0
  0
LINE
  5
D1
  8
0
  6
CONTINUOUS
 62
     7
 10
821.270361469407
 20
1782.192684514083
 30
0.0
 11
821.270361469407
 21
1782.185453033417
 31
0.0
  0
ARC
  5
D2
  8
0
  6
CONTINUOUS
 62
     7
 10
456.9549556001671
 20
360.00327891795
 30
0.0
 40
0.300000000000003
 50
180.0000000002184
 51
268.0000000021616
  0
LINE
  5
D3
  8
0
  6
CONTINUOUS
 62
     7
 10
459.0527332305934
 20
363.5078400456603
 30
0.0
 11
456.9444857511511
 21
363.5814616698439
 31
0.0
  0
LINE
  5
D4
  8
0
  6
CONTINUOUS
 62
     7
 10
459.0527332306089
 20
359.6298400456602
 30
0.0
 11
456.9444857511664
 21
359.7034616698438
 31
0.0
  0
LINE
  5
D5
  8
0
  6
CONTINUOUS
 62
     7
 10
456.6549556001823
 20
356.1252789179487
 30
0.0
 11
456.65495560018
 21
356.7469051472487
 31
0.0
  0
LINE
  5
D6
  8
0
  6
CONTINUOUS
 62
     7
 10
768.2908657127949
 20
1673.991108073289
 30
0.0
 11
768.2908550540565
 21
1674.004636878751
 31
0.0
  0
LINE
  5
D7
  8
0
  6
CONTINUOUS
 62
     7
 10
768.2908550540564
 20
1674.00463687875
 30
0.0
 11
767.9171480875589
 21
1674.487599791893
 31
0.0
  0
LINE
  5
D8
  8
0
  6
CONTINUOUS
 62
     7
 10
752.5516094068347
 20
1680.888300372737
 30
0.0
 11
750.8972284308635
 21
1681.88830037273
 31
0.0
  0
ARC
  5
D9
  8
0
  6
CONTINUOUS
 62
     7
 10
459.0352834822765
 20
357.6200394330583
 30
0.0
 40
0.5000000000001054
 50
271.9999999984109
 51
357.0151102025925
  0
ARC
  5
DA
  8
0
  6
CONTINUOUS
 62
     7
 10
456.9549556002106
 20
348.99090514725
 30
0.0
 40
0.299999999999967
 50
92.00000001530559
 51
180.0000000002544
  0
LINE
  5
DB
  8
0
  6
CONTINUOUS
 62
     7
 10
456.6549556001517
 20
363.881278917949
 30
0.0
 11
456.6549556001492
 21
364.5029051472488
 31
0.0
  0
ARC
  5
DC
  8
0
  6
CONTINUOUS
 62
     7
 10
456.9549556001646
 20
360.62490514725
 30
0.0
 40
0.300000000000078
 50
92.00000001530559
 51
180.0000000002544
  0
ARC
  5
DD
  8
0
  6
CONTINUOUS
 62
     7
 10
456.9549556001799
 20
356.7469051472499
 30
0.0
 40
0.2999999999998559
 50
92.00000001469749
 51
180.0000000002544
  0
LINE
  5
DE
  8
0
  6
CONTINUOUS
 62
     7
 10
456.6549556001671
 20
360.0032789179487
 30
0.0
 11
456.6549556001646
 21
360.6249051472486
 31
0.0
  0
ARC
  5
DF
  8
0
  6
CONTINUOUS
 62
     7
 10
456.9549556001492
 20
364.50290514725
 30
0.0
 40
0.2999999999998559
 50
92.00000001530559
 51
180.0000000002544
  0
LINE
  5
E0
  8
0
  6
CONTINUOUS
 62
     7
 10
762.6135510510583
 20
1675.138558111526
 30
0.0
 11
765.1096124691986
 21
1675.138558111536
 31
0.0
  0
LINE
  5
E1
  8
0
  6
CONTINUOUS
 62
     7
 10
752.5516094068347
 20
1680.888300372737
 30
0.0
 11
752.5516094068574
 21
1675.138558111546
 31
0.0
  0
LINE
  5
E2
  8
0
  6
CONTINUOUS
 62
     7
 10
764.4967499121202
 20
1682.888300372723
 30
0.0
 11
744.9967499121358
 21
1682.888300372646
 31
0.0
  0
LINE
  5
E3
  8
0
  6
CONTINUOUS
 62
     7
 10
459.0527332306241
 20
355.7518400456604
 30
0.0
 11
456.9444857511818
 21
355.8254616698439
 31
0.0
  0
LINE
  5
E4
  8
0
  6
CONTINUOUS
 62
     7
 10
456.9444857511796
 20
357.0467223953501
 30
0.0
 11
459.0527332306147
 21
357.1203440195482
 31
0.0
  0
LINE
  5
E5
  8
0
  6
CONTINUOUS
 62
     7
 10
456.6549556001978
 20
352.2472789179486
 30
0.0
 11
456.6549556001953
 21
352.8689051472488
 31
0.0
  0
ARC
  5
E6
  8
0
  6
CONTINUOUS
 62
     7
 10
459.035283482292
 20
353.7420394330583
 30
0.0
 40
0.5000000000001054
 50
271.9999999984109
 51
357.0151102026186
  0
ARC
  5
E7
  8
0
  6
CONTINUOUS
 62
     7
 10
459.0352834822611
 20
361.4980394330581
 30
0.0
 40
0.4999999999999959
 50
271.9999999987805
 51
357.0151102026239
  0
LINE
  5
E8
  8
0
  6
CONTINUOUS
 62
     7
 10
768.2908657127994
 20
1672.88830037274
 30
0.0
 11
768.2908657127949
 21
1673.991108073289
 31
0.0
  0
LINE
  5
E9
  8
0
  6
CONTINUOUS
 62
     7
 10
759.9778070853054
 20
1681.888300372754
 30
0.0
 11
759.608484503031
 21
1681.888300372752
 31
0.0
  0
LINE
  5
EA
  8
0
  6
CONTINUOUS
 62
     7
 10
765.6604370536782
 20
1681.888300372734
 30
0.0
 11
765.39166078771
 21
1681.888300372734
 31
0.0
  0
LINE
  5
EB
  8
0
  6
CONTINUOUS
 62
     7
 10
749.9386548977765
 20
1681.888300372666
 30
0.0
 11
749.1211274740537
 21
1681.888300372662
 31
0.0
  0
LINE
  5
EC
  8
0
  6
CONTINUOUS
 62
     7
 10
459.0527332306395
 20
351.8738400456604
 30
0.0
 11
456.9444857511971
 21
351.9474616698439
 31
0.0
  0
ARC
  5
ED
  8
0
  6
CONTINUOUS
 62
     7
 10
456.9549556001517
 20
363.8812789179501
 30
0.0
 40
0.3000000000000069
 50
180.0000000001945
 51
268.0000000021404
  0
LINE
  5
EE
  8
0
  6
CONTINUOUS
 62
     7
 10
752.5516094068556
 20
1675.138558111486
 30
0.0
 11
758.248882942733
 21
1675.138558111508
 31
0.0
  0
LINE
  5
EF
  8
0
  6
CONTINUOUS
 62
     7
 10
823.0354249425567
 20
1777.822265740491
 30
0.0
 11
823.0337808311525
 21
1777.753036398896
 31
0.0
  0
LINE
  5
F0
  8
0
  6
CONTINUOUS
 62
     7
 10
823.0900202520351
 20
1781.00651173059
 30
0.0
 11
823.0536217229477
 21
1778.900840750351
 31
0.0
  0
LINE
  5
F1
  8
0
  6
CONTINUOUS
 62
     7
 10
717.2567672153685
 20
1777.462829797224
 30
0.0
 11
716.9597189930737
 21
1777.753036401197
 31
0.0
  0
LINE
  5
F2
  8
0
  6
CONTINUOUS
 62
     7
 10
758.2488829427199
 20
1680.888300372751
 30
0.0
 11
758.2488829427427
 21
1675.138558111561
 31
0.0
  0
LINE
  5
F3
  8
0
  6
CONTINUOUS
 62
   253
 10
762.5639176621917
 20
1680.888300372758
 30
0.0
 11
762.6135510510463
 21
1680.888300372752
 31
0.0
  0
LINE
  5
F4
  8
0
  6
CONTINUOUS
 62
     7
 10
753.9967499121334
 20
1672.78727263569
 30
0.0
 11
744.9967499121334
 21
1672.78727263569
 31
0.0
  0
ARC
  5
F5
  8
0
  6
CONTINUOUS
 62
     7
 10
456.9549556001824
 20
356.12527891795
 30
0.0
 40
0.3000000000001154
 50
180.0000000002093
 51
268.0000000015471
  0
LINE
  5
F6
  8
0
  6
CONTINUOUS
 62
     7
 10
766.9712735000169
 20
1674.736634322897
 30
0.0
 11
766.9966378502149
 21
1674.736634322897
 31
0.0
  0
LINE
  5
F7
  8
0
  6
CONTINUOUS
 62
     7
 10
753.9967499121334
 20
1672.78727263569
 30
0.0
 11
753.9967499121334
 21
1672.761092032317
 31
0.0
  0
LINE
  5
F8
  8
0
  6
CONTINUOUS
 62
     7
 10
456.944485751158
 20
360.9247223953499
 30
0.0
 11
459.0527332305995
 21
360.9983440195483
 31
0.0
  0
LINE
  5
F9
  8
0
  6
CONTINUOUS
 62
     7
 10
456.9444857511426
 20
364.8027223953499
 30
0.0
 11
459.0527332305841
 21
364.8763440195483
 31
0.0
  0
LINE
  5
FA
  8
0
  6
CONTINUOUS
 62
     7
 10
749.1211274740527
 20
1681.888300372722
 30
0.0
 11
748.4484091917126
 21
1681.888300372719
 31
0.0
  0
LINE
  5
FB
  8
0
  6
CONTINUOUS
 62
     7
 10
718.7289839459746
 20
1777.761092032317
 30
0.0
 11
819.0786181132794
 21
1777.761092032317
 31
0.0
  0
ARC
  5
FC
  8
0
  6
CONTINUOUS
 62
     7
 10
513.6074962214832
 20
1781.192684514083
 30
0.0
 40
0.999999999999985
 50
358.9999999999958
 51
99.99999999998657
  0
LINE
  5
FD
  8
0
  6
CONTINUOUS
 62
   253
 10
717.2198905651792
 20
1781.112757172525
 30
0.0
 11
717.1933269536937
 21
1781.109668225382
 31
0.0
  0
LINE
  5
FE
  8
0
  6
CONTINUOUS
 62
   253
 10
821.2655158782921
 20
1777.761092032318
 30
0.0
 11
821.2645158782797
 21
1777.761092032318
 31
0.0
  0
LINE
  5
FF
  8
0
  6
CONTINUOUS
 62
     7
 10
148.0586526734404
 20
1778.815845421434
 30
0.0
 11
148.0965204277682
 21
1781.006511730599
 31
0.0
  0
LINE
  5
100
  8
0
  6
CONTINUOUS
 62
   253
 10
821.338651848692
 20
1777.76079106696
 30
0.0
 11
821.27036146944
 21
1777.761092032318
 31
0.0
  0
LINE
  5
101
  8
0
  6
CONTINUOUS
 62
   253
 10
41.94784750229263
 20
1778.815845421434
 30
0.0
 11
41.96621916884649
 21
1777.753036398897
 31
0.0
  0
LINE
  5
102
  8
0
  6
CONTINUOUS
 62
   253
 10
146.2768616451791
 20
1782.177492267096
 30
0.0
 11
43.72963853060149
 21
1782.177492267096
 31
0.0
  0
LINE
  5
103
  8
0
  6
CONTINUOUS
 62
   253
 10
148.0586526734404
 20
1778.815845421434
 30
0.0
 11
148.0402810068822
 21
1777.753036398648
 31
0.0
  0
LINE
  5
104
  8
0
  6
CONTINUOUS
 62
     7
 10
514.6073439166395
 20
1781.175232107646
 30
0.0
 11
514.572486725907
 21
1779.178264988027
 31
0.0
  0
LINE
  5
105
  8
0
  6
CONTINUOUS
 62
   253
 10
718.7279839459745
 20
1777.761092032318
 30
0.0
 11
718.7231383683211
 21
1777.761092032318
 31
0.0
  0
ARC
  5
106
  8
0
  6
CONTINUOUS
 62
     7
 10
438.0521856339594
 20
1768.780857083625
 30
0.0
 40
0.1032218859823996
 50
99.9999999999352
 51
204.7097761435423
  0
LINE
  5
107
  8
0
  6
CONTINUOUS
 62
     7
 10
765.3916607877098
 20
1681.888300372734
 30
0.0
 11
765.1096124691885
 21
1680.88830037274
 31
0.0
  0
ARC
  5
108
  8
0
  6
CONTINUOUS
 62
     7
 10
761.5633376286412
 20
1680.888300372754
 30
0.0
 40
1.000580033550725
 50
0.0000000002318075
 51
22.48526562455124
  0
LINE
  5
109
  8
0
  6
CONTINUOUS
 62
     7
 10
823.0900202520351
 20
1781.00651173059
 30
0.0
 11
823.0904231489114
 21
1781.046091899202
 31
0.0
  0
LINE
  5
10A
  8
0
  6
CONTINUOUS
 62
     7
 10
514.3049555998186
 20
1777.761092032318
 30
0.0
 11
514.5528154550656
 21
1778.05129863629
 31
0.0
  0
LINE
  5
10B
  8
0
  6
CONTINUOUS
 62
     7
 10
821.270361469407
 20
1782.192684514083
 30
0.0
 11
718.7231383548211
 21
1782.192684514083
 31
0.0
  0
LINE
  5
10C
  8
0
  6
CONTINUOUS
 62
     7
 10
716.9403365422708
 20
1778.901497269989
 30
0.0
 11
716.9589437958964
 21
1777.828577601319
 31
0.0
  0
LINE
  5
10D
  8
0
  6
CONTINUOUS
 62
     7
 10
812.4201697929499
 20
1946.930932551219
 30
0.0
 11
823.0900202520351
 21
1872.488206655908
 31
0.0
  0
LINE
  5
10E
  8
0
  6
CONTINUOUS
 62
     7
 10
716.9034795722318
 20
1872.488206655908
 30
0.0
 11
727.5733300313171
 21
1946.930932551219
 31
0.0
  0
LINE
  5
10F
  8
0
  6
CONTINUOUS
 62
   253
 10
821.4455375048512
 20
1777.759128991438
 30
0.0
 11
821.3386518486919
 21
1777.76079106696
 31
0.0
  0
LINE
  5
110
  8
0
  6
CONTINUOUS
 62
   253
 10
121.0062235933969
 20
1763.185407837769
 30
0.0
 11
121.0062235933969
 21
1765.521638496556
 31
0.0
  0
LINE
  5
111
  8
0
  6
CONTINUOUS
 62
     7
 10
512.4769872368189
 20
1782.00877189004
 30
0.0
 11
513.433848043816
 21
1782.177492267096
 31
0.0
  0
LINE
  5
112
  8
0
  6
CONTINUOUS
 62
   253
 10
69.0002765823362
 20
1763.185407837769
 30
0.0
 11
69.0002765823362
 21
1762.170812856295
 31
0.0
  0
LINE
  5
113
  8
0
  6
CONTINUOUS
 62
   253
 10
821.2645158782797
 20
1777.761092032318
 30
0.0
 11
718.7289839459744
 21
1777.761092032318
 31
0.0
  0
ARC
  5
114
  8
0
  6
CONTINUOUS
 62
   253
 10
122.6424807843046
 20
1813.66126538079
 30
0.0
 40
47.16575748720317
 50
268.0119168781287
 51
285.9684136059922
  0
LINE
  5
115
  8
0
  6
CONTINUOUS
 62
   253
 10
135.6181289075512
 20
1768.315469157509
 30
0.0
 11
136.4365092277003
 21
1768.88251079722
 31
0.0
  0
LINE
  5
116
  8
0
  6
CONTINUOUS
 62
     7
 10
744.9967499121361
 20
1675.138558111456
 30
0.0
 11
746.5541658054692
 21
1675.138558111462
 31
0.0
  0
ARC
  5
117
  8
0
  6
CONTINUOUS
 62
     7
 10
437.6589651324447
 20
1768.599914566553
 30
0.0
 40
0.3296320816511816
 50
355.9973944805282
 51
24.70977614377426
  0
ARC
  5
118
  8
0
  6
CONTINUOUS
 62
     7
 10
761.5639336891215
 20
1680.888316434468
 30
0.0
 40
1.000065555045953
 50
44.9949430636475
 51
67.48526042174791
  0
LINE
  5
119
  8
0
  6
CONTINUOUS
 62
     7
 10
822.7454850942127
 20
1777.538599295157
 30
0.0
 11
822.7491084135582
 21
1777.458789801796
 31
0.0
  0
LINE
  5
11A
  8
0
  6
CONTINUOUS
 62
   253
 10
438.0690674487817
 20
1767.88025063777
 30
0.0
 11
438.0743773315073
 21
1765.689584328605
 31
0.0
  0
LINE
  5
11B
  8
0
  6
CONTINUOUS
 62
     7
 10
823.0533704215
 20
1778.902242318301
 30
0.0
 11
823.0904236445579
 21
1781.04608692043
 31
0.0
  0
LINE
  5
11C
  8
0
  6
CONTINUOUS
 62
     7
 10
766.9966378502018
 20
1680.888300372734
 30
0.0
 11
766.9966378502262
 21
1674.736634322897
 31
0.0
  0
LINE
  5
11D
  8
0
  6
CONTINUOUS
 62
   253
 10
821.2703614694461
 20
1777.761092032318
 30
0.0
 11
821.2655158782921
 21
1777.761092032318
 31
0.0
  0
LINE
  5
11E
  8
0
  6
CONTINUOUS
 62
     7
 10
765.996644442066
 20
1681.888300372729
 30
0.0
 11
765.9727721124679
 21
1681.888300372729
 31
0.0
  0
ARC
  5
11F
  8
0
  6
CONTINUOUS
 62
     7
 10
764.4967499121307
 20
1681.888300372723
 30
0.0
 40
0.9999999999998899
 50
0.0000000002410161
 51
90.00000000015268
  0
LINE
  5
120
  8
0
  6
CONTINUOUS
 62
     7
 10
761.2693044539094
 20
1681.888300372711
 30
0.0
 11
760.6743449826478
 21
1681.888300372708
 31
0.0
  0
LINE
  5
121
  8
0
  6
CONTINUOUS
 62
     7
 10
762.6135510510466
 20
1680.888300372752
 30
0.0
 11
762.6135510510693
 21
1675.138558111562
 31
0.0
  0
LINE
  5
122
  8
0
  6
CONTINUOUS
 62
     7
 10
716.9413473265597
 20
1778.815845421434
 30
0.0
 11
716.9034795722318
 21
1781.006511730599
 31
0.0
  0
LINE
  5
123
  8
0
  6
CONTINUOUS
 62
     7
 10
498.5431960216637
 20
1774.981868555248
 30
0.0
 11
438.1707005131445
 21
1764.336568704395
 31
0.0
  0
LINE
  5
124
  8
0
  6
CONTINUOUS
 62
     7
 10
716.9030760979115
 20
1781.046090826006
 30
0.0
 11
716.9401293887624
 21
1778.902242318295
 31
0.0
  0
LINE
  5
125
  8
0
  6
CONTINUOUS
 62
     7
 10
718.7231383548544
 20
1782.185453846583
 30
0.0
 11
717.1984257544469
 21
1781.110276728828
 31
0.0
  0
LINE
  5
126
  8
0
  6
CONTINUOUS
 62
     7
 10
718.723138354821
 20
1782.185453417043
 30
0.0
 11
718.723138354821
 21
1782.192684514083
 31
0.0
  0
LINE
  5
127
  8
0
  6
CONTINUOUS
 62
     7
 10
514.572486725907
 20
1779.178264988027
 30
0.0
 11
514.5528154550656
 21
1778.05129863629
 31
0.0
  0
LINE
  5
128
  8
0
  6
CONTINUOUS
 62
     7
 10
821.2703614694461
 20
1870.392656083361
 30
0.0
 11
718.723138354821
 21
1870.392656083361
 31
0.0
  0
ARC
  5
129
  8
0
  6
CONTINUOUS
 62
     7
 10
765.9966441911554
 20
1680.888306713675
 30
0.0
 40
0.9999923977669963
 50
359.9999999378127
 51
44.99992171605805
  0
LINE
  5
12A
  8
0
  6
CONTINUOUS
 62
     7
 10
743.9937764066034
 20
1961.168292331925
 30
0.0
 11
795.999723417664
 21
1961.168292331925
 31
0.0
  0
LINE
  5
12B
  8
0
  6
CONTINUOUS
 62
     7
 10
823.0938036533184
 20
1781.043961996768
 30
0.0
 11
821.2703614694126
 21
1782.185453846583
 31
0.0
  0
LINE
  5
12C
  8
0
  6
CONTINUOUS
 62
     7
 10
766.9966378502262
 20
1674.736664349802
 30
0.0
 11
767.6651926644495
 21
1674.557525627238
 31
0.0
  0
ARC
  5
12D
  8
0
  6
CONTINUOUS
 62
     7
 10
761.564327358097
 20
1680.888710033959
 30
0.0
 40
0.9995088721722206
 50
22.48526562449689
 51
44.99494306361845
  0
LINE
  5
12E
  8
0
  6
CONTINUOUS
 62
     7
 10
761.575128186925
 20
1681.888300372752
 30
0.0
 11
761.5643437286229
 21
1681.888300372754
 31
0.0
  0
ARC
  5
12F
  8
0
  6
CONTINUOUS
 62
     7
 10
439.4020217660913
 20
1768.477948519969
 30
0.0
 40
1.417686476774522
 50
175.997394480582
 51
190.3746215100415
  0
LINE
  5
130
  8
0
  6
CONTINUOUS
 62
     7
 10
438.0769534387098
 20
1764.626775308368
 30
0.0
 11
438.1707005131445
 21
1764.336568704396
 31
0.0
  0
LINE
  5
131
  8
0
  6
CONTINUOUS
 62
     7
 10
819.0786181132794
 20
1777.761092032317
 30
0.0
 11
821.2645158782923
 21
1777.761092032317
 31
0.0
  0
ARC
  5
132
  8
0
  6
CONTINUOUS
 62
     7
 10
761.5643437286268
 20
1680.889305637552
 30
0.0
 40
0.9989947352027073
 50
67.48526042186505
 51
89.99999999246086
  0
ARC
  5
133
  8
0
  6
CONTINUOUS
 62
     7
 10
765.9966444420804
 20
1680.888315932024
 30
0.0
 40
0.9999844407051484
 50
44.99992171594698
 51
89.99999993781285
  0
LINE
  5
134
  8
0
  6
CONTINUOUS
 62
     7
 10
438.0342613415634
 20
1768.88251079722
 30
0.0
 11
512.476987236819
 21
1782.00877189004
 31
0.0
  0
LINE
  5
135
  8
0
  6
CONTINUOUS
 62
     7
 10
761.5643437286221
 20
1681.888300372754
 30
0.0
 11
761.2693044539186
 21
1681.888300372752
 31
0.0
  0
ARC
  5
136
  8
0
  6
CONTINUOUS
 62
     7
 10
821.270046012174
 20
1872.230750195064
 30
0.0
 40
1.8380941387721
 50
270.0098332125626
 51
8.051727330278766
  0
LINE
  5
137
  8
0
  6
CONTINUOUS
 62
   253
 10
438.0743773315073
 20
1765.689584328606
 30
0.0
 11
438.0769534387098
 21
1764.626775308381
 31
0.0
  0
LINE
  5
138
  8
0
  6
CONTINUOUS
 62
     7
 10
512.5905144558382
 20
1777.458789801796
 30
0.0
 11
498.5431960216637
 21
1774.981868555248
 31
0.0
  0
ARC
  5
139
  8
0
  6
CONTINUOUS
 62
     7
 10
384.6292329493273
 20
1758.450336774281
 30
0.0
 40
54.26544734387274
 50
10.00730897316786
 51
10.37462151006124
  0
LINE
  5
13A
  8
0
  6
CONTINUOUS
 62
     7
 10
514.3049555998186
 20
1777.761092032318
 30
0.0
 11
512.613426408455
 21
1777.462829797225
 31
0.0
  0
ARC
  5
13B
  8
0
  6
CONTINUOUS
 62
     7
 10
53.58898138559387
 20
1767.911251186518
 30
0.0
 40
0.9721573860097942
 50
91.12012616214241
 51
107.467770908336
  0
ARC
  5
13C
  8
0
  6
CONTINUOUS
 62
     7
 10
42.93808267424903
 20
1780.977286910152
 30
0.0
 40
1.035294251918979
 50
129.1063806461883
 51
150.7449903854814
  0
LINE
  5
13D
  8
0
  6
CONTINUOUS
 62
     7
 10
52.6360696278918
 20
1764.626775308379
 30
0.0
 11
52.93311785018651
 21
1764.336568704396
 31
0.0
  0
LINE
  5
13E
  8
0
  6
CONTINUOUS
 62
     7
 10
137.3704305478409
 20
1764.626775308368
 30
0.0
 11
137.0733823255462
 21
1764.336568704396
 31
0.0
  0
LINE
  5
13F
  8
0
  6
CONTINUOUS
 62
     7
 10
423.8724867259125
 20
1763.185407837769
 30
0.0
 11
423.89019654719
 21
1762.170812856295
 31
0.0
  0
LINE
  5
140
  8
0
  6
CONTINUOUS
 62
   253
 10
69.0002765823362
 20
1766.523898656005
 30
0.0
 11
69.0002765823362
 21
1765.521638496556
 31
0.0
  0
LINE
  5
141
  8
0
  6
CONTINUOUS
 62
   253
 10
137.3888022143551
 20
1765.689584328606
 30
0.0
 11
137.3704305478412
 21
1764.626775308381
 31
0.0
  0
ARC
  5
142
  8
0
  6
CONTINUOUS
 62
     7
 10
67.39038727607993
 20
1810.585224940672
 30
0.0
 40
48.73121817845589
 50
253.5226250224184
 51
271.8931734648379
  0
LINE
  5
143
  8
0
  6
CONTINUOUS
 62
   253
 10
137.4266699686829
 20
1767.88025063777
 30
0.0
 11
136.4102888243511
 21
1767.250288464235
 31
0.0
  0
LINE
  5
144
  8
0
  6
CONTINUOUS
 62
   253
 10
52.61769796137789
 20
1765.689584328606
 30
0.0
 11
52.63606962789187
 21
1764.626775308379
 31
0.0
  0
ARC
  5
145
  8
0
  6
CONTINUOUS
 62
   253
 10
67.63813667242185
 20
1816.9493290746
 30
0.0
 40
50.44382477602858
 50
255.0266170713928
 51
271.5473520502698
  0
ARC
  5
146
  8
0
  6
CONTINUOUS
 62
     7
 10
42.91913092650895
 20
1781.037512279339
 30
0.0
 40
0.9721573860149932
 50
91.12012616209172
 51
107.4677709069553
  0
LINE
  5
147
  8
0
  6
CONTINUOUS
 62
     7
 10
438.188991244806
 20
1764.339793853884
 30
0.0
 11
498.5431960216637
 21
1774.981868555248
 31
0.0
  0
LINE
  5
148
  8
0
  6
CONTINUOUS
 62
     7
 10
423.8901965471899
 20
1762.170812856295
 30
0.0
 11
424.2422453090369
 21
1761.880606252323
 31
0.0
  0
ARC
  5
149
  8
0
  6
CONTINUOUS
 62
     7
 10
136.4536510082367
 20
1767.88188064747
 30
0.0
 40
0.9721573860183246
 50
6.192405267763745
 51
29.25500961476518
  0
ARC
  5
14A
  8
0
  6
CONTINUOUS
 62
     7
 10
136.4175187901394
 20
1767.911251186506
 30
0.0
 40
0.9721573860199416
 50
72.53222909351085
 51
88.87987383795702
  0
ARC
  5
14B
  8
0
  6
CONTINUOUS
 62
     7
 10
42.88299870841444
 20
1781.008141740297
 30
0.0
 40
0.9721573860217503
 50
150.7449903855888
 51
173.8075947325032
  0
LINE
  5
14C
  8
0
  6
CONTINUOUS
 62
     7
 10
52.63606962789147
 20
1764.626775308379
 30
0.0
 11
52.99395245214489
 21
1764.317002154426
 31
0.0
  0
LINE
  5
14D
  8
0
  6
CONTINUOUS
 62
     7
 10
121.006223593397
 20
1762.170812856295
 30
0.0
 11
121.006223593397
 21
1761.880606252323
 31
0.0
  0
LINE
  5
14E
  8
0
  6
CONTINUOUS
 62
   253
 10
53.5699909480315
 20
1768.882510797222
 30
0.0
 11
54.60495098571276
 21
1768.218276049958
 31
0.0
  0
ARC
  5
14F
  8
0
  6
CONTINUOUS
 62
     7
 10
136.398567042398
 20
1767.851025817323
 30
0.0
 40
1.035294251919909
 50
29.25500961482667
 51
50.89361935411658
  0
LINE
  5
150
  8
0
  6
CONTINUOUS
 62
   253
 10
52.57983020705009
 20
1767.88025063777
 30
0.0
 11
41.90997974796497
 21
1781.00651173059
 31
0.0
  0
LINE
  5
151
  8
0
  6
CONTINUOUS
 62
   253
 10
52.61769796137789
 20
1765.689584328606
 30
0.0
 11
52.57983020705009
 21
1767.880250637771
 31
0.0
  0
LINE
  5
152
  8
0
  6
CONTINUOUS
 62
     7
 10
41.94637827705233
 20
1778.900840750351
 30
0.0
 11
41.94784750229262
 21
1778.815845421434
 31
0.0
  0
ARC
  5
153
  8
0
  6
CONTINUOUS
 62
     7
 10
147.0911616395113
 20
1781.004632847989
 30
0.0
 40
1.004687015403908
 50
0.1070781095297662
 51
6.192405279182482
  0
LINE
  5
154
  8
0
  6
CONTINUOUS
 62
   253
 10
148.0965204277682
 20
1781.006511730599
 30
0.0
 11
137.4266699686828
 21
1767.880250637771
 31
0.0
  0
ARC
  5
155
  8
0
  6
CONTINUOUS
 62
     7
 10
53.58518899530473
 20
1767.878371755168
 30
0.0
 40
1.004687015402413
 50
173.807594733775
 51
179.8929218909517
  0
ARC
  5
156
  8
0
  6
CONTINUOUS
 62
     7
 10
147.0684175015004
 20
1780.977286910153
 30
0.0
 40
1.035294251903728
 50
29.25500962592018
 51
50.89361936558483
  0
ARC
  5
157
  8
0
  6
CONTINUOUS
 62
     7
 10
42.9380826742436
 20
1780.977286910159
 30
0.0
 40
1.035294251910333
 50
107.4677709067099
 51
129.1063806461898
  0
LINE
  5
158
  8
0
  6
CONTINUOUS
 62
   253
 10
121.0062235933969
 20
1763.185407837769
 30
0.0
 11
121.0062235933969
 21
1762.170812856295
 31
0.0
  0
LINE
  5
159
  8
0
  6
CONTINUOUS
 62
   253
 10
136.4365092277003
 20
1768.88251079722
 30
0.0
 11
147.1063596867778
 21
1782.00877189004
 31
0.0
  0
ARC
  5
15A
  8
0
  6
CONTINUOUS
 62
     7
 10
136.4213111804288
 20
1767.878371755168
 30
0.0
 40
1.004687015401994
 50
0.1070781091045774
 51
6.192405267749963
  0
ARC
  5
15B
  8
0
  6
CONTINUOUS
 62
     7
 10
743.9950260725329
 20
1944.579367084169
 30
0.0
 40
16.58892529482521
 50
90.0043161677073
 51
166.9599869335888
  0
ARC
  5
15C
  8
0
  6
CONTINUOUS
 62
     7
 10
147.08736924922
 20
1781.037512279316
 30
0.0
 40
0.9721573860295645
 50
72.53222910522376
 51
88.8798738381589
  0
ARC
  5
15D
  8
0
  6
CONTINUOUS
 62
     7
 10
53.60793313333567
 20
1767.851025817325
 30
0.0
 40
1.035294251919436
 50
129.1063806474664
 51
150.7449903867491
  0
LINE
  5
15E
  8
0
  6
CONTINUOUS
 62
   253
 10
43.72963853059325
 20
1782.177492267095
 30
0.0
 11
43.72963853059311
 21
1782.192684514083
 31
0.0
  0
LINE
  5
15F
  8
0
  6
CONTINUOUS
 62
     7
 10
41.90997974796501
 20
1781.00651173059
 30
0.0
 11
41.90957684820884
 21
1781.046091897481
 31
0.0
  0
ARC
  5
160
  8
0
  6
CONTINUOUS
 62
     7
 10
147.0684175014999
 20
1780.977286910153
 30
0.0
 40
1.035294251904284
 50
50.89361936556617
 51
72.5322291052106
  0
LINE
  5
161
  8
0
  6
CONTINUOUS
 62
   253
 10
42.90014048894724
 20
1782.00877189005
 30
0.0
 11
53.56999094803147
 21
1768.882510797221
 31
0.0
  0
ARC
  5
162
  8
0
  6
CONTINUOUS
 62
     7
 10
53.60793313333195
 20
1767.851025817329
 30
0.0
 40
1.035294251913752
 50
107.4677709080481
 51
129.1063806474523
  0
LINE
  5
163
  8
0
  6
CONTINUOUS
 62
     7
 10
423.8724867259125
 20
1763.185407837769
 30
0.0
 11
423.8317076680761
 21
1765.521638496556
 31
0.0
  0
LINE
  5
164
  8
0
  6
CONTINUOUS
 62
   253
 10
147.1104224066957
 20
1782.00794553048
 30
0.0
 11
146.2768616451791
 21
1782.177492267096
 31
0.0
  0
ARC
  5
165
  8
0
  6
CONTINUOUS
 62
     7
 10
424.8315553632323
 20
1765.539090902994
 30
0.0
 40
0.999999999999985
 50
99.99999999999943
 51
181.0000000000042
  0
LINE
  5
166
  8
0
  6
CONTINUOUS
 62
   253
 10
121.0062235933969
 20
1765.521638496556
 30
0.0
 11
69.0002765823362
 21
1765.521638496556
 31
0.0
  0
LINE
  5
167
  8
0
  6
CONTINUOUS
 62
     7
 10
727.5733300313171
 20
1946.930932551219
 30
0.0
 11
727.8338838661272
 21
1948.322350522767
 31
0.0
  0
ARC
  5
168
  8
0
  6
CONTINUOUS
 62
     7
 10
136.3985670423979
 20
1767.851025817323
 30
0.0
 40
1.035294251920114
 50
50.89361935412398
 51
72.53222909342112
  0
LINE
  5
169
  8
0
  6
CONTINUOUS
 62
     7
 10
424.6579071855654
 20
1766.523898656005
 30
0.0
 11
438.0342613415633
 21
1768.88251079722
 31
0.0
  0
LINE
  5
16A
  8
0
  6
CONTINUOUS
 62
     7
 10
43.72963853060152
 20
1782.177492267096
 30
0.0
 11
42.8928927446655
 21
1782.022974812927
 31
0.0
  0
LINE
  5
16B
  8
0
  6
CONTINUOUS
 62
     7
 10
69.0002765823362
 20
1762.170812856295
 30
0.0
 11
69.00027658243683
 21
1761.880606252323
 31
0.0
  0
LINE
  5
16C
  8
0
  6
CONTINUOUS
 62
   253
 10
137.4266699686829
 20
1767.88025063777
 30
0.0
 11
137.3888022143551
 21
1765.689584328605
 31
0.0
  0
LINE
  5
16D
  8
0
  6
CONTINUOUS
 62
   253
 10
69.0002765823362
 20
1765.521638496556
 30
0.0
 11
69.0002765823362
 21
1763.185407837769
 31
0.0
  0
LINE
  5
16E
  8
0
  6
CONTINUOUS
 62
     7
 10
41.90997974796495
 20
1781.00651173059
 30
0.0
 11
41.94637827705232
 21
1778.900840750351
 31
0.0
  0
ARC
  5
16F
  8
0
  6
CONTINUOUS
 62
     7
 10
147.1235014673112
 20
1781.008141740297
 30
0.0
 40
0.9721573860277937
 50
6.192405279155381
 51
29.25500962592769
  0
LINE
  5
170
  8
0
  6
CONTINUOUS
 62
   253
 10
69.0002765823362
 20
1766.523898656005
 30
0.0
 11
121.0062235933969
 21
1766.523898656005
 31
0.0
  0
LINE
  5
171
  8
0
  6
CONTINUOUS
 62
     7
 10
53.56842523116512
 20
1763.855309571765
 30
0.0
 11
52.9331178501868
 21
1764.336568704396
 31
0.0
  0
ARC
  5
172
  8
0
  6
CONTINUOUS
 62
     7
 10
53.55284916749442
 20
1767.88188064747
 30
0.0
 40
0.9721573860166084
 50
150.744990386739
 51
173.8075947337591
  0
ARC
  5
173
  8
0
  6
CONTINUOUS
 62
   253
 10
122.8254801970577
 20
1818.807602979085
 30
0.0
 40
53.3170114074608
 50
268.0446022828987
 51
284.7613279356341
  0
ARC
  5
174
  8
0
  6
CONTINUOUS
 62
     7
 10
42.9153385362192
 20
1781.004632847995
 30
0.0
 40
1.004687015402104
 50
173.8075947324994
 51
179.8929218913632
  0
LINE
  5
175
  8
0
  6
CONTINUOUS
 62
     7
 10
438.1707005131444
 20
1764.336568704396
 30
0.0
 11
424.2422453090368
 21
1761.880606252323
 31
0.0
  0
LINE
  5
176
  8
0
  6
CONTINUOUS
 62
     7
 10
498.5431960216637
 20
1774.981868555248
 30
0.0
 11
512.5905144558382
 21
1777.458789801796
 31
0.0
  0
ARC
  5
177
  8
0
  6
CONTINUOUS
 62
     7
 10
122.0785106715594
 20
1821.308254864471
 30
0.0
 40
59.43732176963456
 50
268.9662916281112
 51
282.5552081266299
  0
LINE
  5
178
  8
0
  6
CONTINUOUS
 62
   253
 10
121.006223593407
 20
1765.521638496556
 30
0.0
 11
121.0062235933985
 21
1766.523898656006
 31
0.0
  0
ARC
  5
179
  8
0
  6
CONTINUOUS
 62
     7
 10
67.26531421137382
 20
1819.420390032257
 30
0.0
 40
53.92666790685142
 50
255.2843696049413
 51
271.8436736803449
  0
CIRCLE
  5
17A
  8
0
  6
CONTINUOUS
 62
     7
 10
769.9967499121336
 20
1749.511092032317
 30
0.0
 40
4.000000000000004
  0
ARC
  5
17B
  8
0
  6
CONTINUOUS
 62
     7
 10
792.4967499121336
 20
1726.865751390635
 30
0.0
 40
14.20865675840277
 50
79.861776301908
 51
90.0
  0
LINE
  5
17C
  8
0
  6
CONTINUOUS
 62
     7
 10
769.4967499121334
 20
1748.211092032317
 30
0.0
 11
769.4967499121334
 21
1747.317350935469
 31
0.0
  0
LINE
  5
17D
  8
0
  6
CONTINUOUS
 62
     7
 10
785.9967499121334
 20
1670.261092032317
 30
0.0
 11
777.9967499121334
 21
1670.261092032317
 31
0.0
  0
LINE
  5
17E
  8
0
  6
CONTINUOUS
 62
   253
 10
747.4967499121336
 20
1741.074408149038
 30
0.0
 11
747.4967499121336
 21
1742.761092032317
 31
0.0
  0
LINE
  5
17F
  8
0
  6
CONTINUOUS
 62
     7
 10
753.9967499121336
 20
1744.511092032317
 30
0.0
 11
785.9967499121335
 21
1744.511092032317
 31
0.0
  0
ARC
  5
180
  8
0
  6
CONTINUOUS
 62
     7
 10
771.2967499121335
 20
1750.811092032317
 30
0.0
 40
0.7999999999999119
 50
180.0000000000004
 51
270.0
  0
LINE
  5
181
  8
0
  6
CONTINUOUS
 62
   253
 10
756.9967499121335
 20
1715.261092032317
 30
0.0
 11
756.9967499121335
 21
1682.888300372693
 31
0.0
  0
LINE
  5
182
  8
0
  6
CONTINUOUS
 62
     7
 10
822.6286368248408
 20
1777.606601059513
 30
0.0
 11
822.7454850942127
 21
1777.538599295157
 31
0.0
  0
LINE
  5
183
  8
0
  6
CONTINUOUS
 62
     7
 10
771.2967499121335
 20
1665.511092032317
 30
0.0
 11
772.1904910089816
 21
1665.511092032317
 31
0.0
  0
ARC
  5
184
  8
0
  6
CONTINUOUS
 62
     7
 10
771.2967499121335
 20
1664.711092032317
 30
0.0
 40
0.7999999999999119
 50
90.0
 51
180.0
  0
ARC
  5
185
  8
0
  6
CONTINUOUS
 62
     7
 10
771.2967499121335
 20
1667.311092032317
 30
0.0
 40
0.800000000000356
 50
180.0000000000004
 51
270.0
  0
ARC
  5
186
  8
0
  6
CONTINUOUS
 62
     7
 10
771.2967499121335
 20
1748.211092032317
 30
0.0
 40
0.7999999999999119
 50
90.0
 51
180.0
  0
LINE
  5
187
  8
0
  6
CONTINUOUS
 62
     7
 10
821.2645158782923
 20
1777.761092032317
 30
0.0
 11
822.6286368248408
 21
1777.606601059513
 31
0.0
  0
LINE
  5
188
  8
0
  6
CONTINUOUS
 62
     7
 10
769.4967499121334
 20
1751.704833129164
 30
0.0
 11
769.4967499121334
 21
1750.811092032317
 31
0.0
  0
LINE
  5
189
  8
0
  6
CONTINUOUS
 62
     7
 10
772.1904910089817
 20
1666.511092032317
 30
0.0
 11
771.2967499121336
 21
1666.511092032317
 31
0.0
  0
LINE
  5
18A
  8
0
  6
CONTINUOUS
 62
     7
 10
768.6967499121336
 20
1750.011092032317
 30
0.0
 11
767.8030088152855
 21
1750.011092032317
 31
0.0
  0
ARC
  5
18B
  8
0
  6
CONTINUOUS
 62
     7
 10
769.9967499121336
 20
1749.511092032317
 30
0.0
 40
2.250000000000441
 50
257.1604115930941
 51
282.8395884069028
  0
LINE
  5
18C
  8
0
  6
CONTINUOUS
 62
     7
 10
768.6967499121336
 20
1666.511092032317
 30
0.0
 11
767.8030088152855
 21
1666.511092032317
 31
0.0
  0
ARC
  5
18D
  8
0
  6
CONTINUOUS
 62
     7
 10
769.9967499121336
 20
1666.011092032317
 30
0.0
 40
2.250000000000225
 50
167.1604115930927
 51
192.8395884068983
  0
ARC
  5
18E
  8
0
  6
CONTINUOUS
 62
     7
 10
768.6967499121336
 20
1664.711092032317
 30
0.0
 40
0.7999999999999119
 50
0.0000000000004547
 51
90.0
  0
LINE
  5
18F
  8
0
  6
CONTINUOUS
 62
     7
 10
772.1904910089817
 20
1750.011092032317
 30
0.0
 11
771.2967499121336
 21
1750.011092032317
 31
0.0
  0
ARC
  5
190
  8
0
  6
CONTINUOUS
 62
     7
 10
769.9967499121336
 20
1666.011092032317
 30
0.0
 40
2.250000000000441
 50
77.16041159309405
 51
102.8395884069027
  0
LINE
  5
191
  8
0
  6
CONTINUOUS
 62
   253
 10
792.4967499121336
 20
1742.761092032317
 30
0.0
 11
792.4967499121336
 21
1741.074408149037
 31
0.0
  0
ARC
  5
192
  8
0
  6
CONTINUOUS
 62
     7
 10
768.6967499121336
 20
1667.311092032317
 30
0.0
 40
0.7999999999999119
 50
269.9999999999999
 51
0.0
  0
LINE
  5
193
  8
0
  6
CONTINUOUS
 62
   253
 10
756.9967499121335
 20
1715.261092032317
 30
0.0
 11
745.008908054143
 21
1721.603469742727
 31
0.0
  0
LINE
  5
194
  8
0
  6
CONTINUOUS
 62
   253
 10
782.9967499121335
 20
1682.888300372743
 30
0.0
 11
782.9967499121335
 21
1715.261092032317
 31
0.0
  0
LINE
  5
195
  8
0
  6
CONTINUOUS
 62
     7
 10
785.9967499121334
 20
1670.261092032317
 30
0.0
 11
785.9967499121334
 21
1668.211092032317
 31
0.0
  0
LINE
  5
196
  8
0
  6
CONTINUOUS
 62
     7
 10
770.4967499121335
 20
1750.811092032317
 30
0.0
 11
770.4967499121335
 21
1751.704833129165
 31
0.0
  0
ARC
  5
197
  8
0
  6
CONTINUOUS
 62
     7
 10
769.9967499121336
 20
1749.511092032317
 30
0.0
 40
2.250000000000126
 50
167.1604115931038
 51
192.8395884069094
  0
LINE
  5
198
  8
0
  6
CONTINUOUS
 62
     7
 10
767.8030088152854
 20
1749.011092032317
 30
0.0
 11
768.6967499121334
 21
1749.011092032317
 31
0.0
  0
LINE
  5
199
  8
0
  6
CONTINUOUS
 62
   253
 10
782.9967499121335
 20
1715.261092032317
 30
0.0
 11
756.9967499121335
 21
1715.261092032317
 31
0.0
  0
LINE
  5
19A
  8
0
  6
CONTINUOUS
 62
     7
 10
791.9967499121334
 20
1742.761092032317
 30
0.0
 11
785.9967499121334
 21
1742.761092032317
 31
0.0
  0
LINE
  5
19B
  8
0
  6
CONTINUOUS
 62
     7
 10
761.9967499121336
 20
1671.011092032317
 30
0.0
 11
761.9967499121336
 21
1670.261092032317
 31
0.0
  0
LINE
  5
19C
  8
0
  6
CONTINUOUS
 62
     7
 10
771.2967499121335
 20
1749.011092032317
 30
0.0
 11
772.1904910089816
 21
1749.011092032317
 31
0.0
  0
LINE
  5
19D
  8
0
  6
CONTINUOUS
 62
     7
 10
778.0622596362374
 20
1669.011092032317
 30
0.0
 11
777.9967499121336
 21
1670.261092032317
 31
0.0
  0
CIRCLE
  5
19E
  8
0
  6
CONTINUOUS
 62
   253
 10
769.9967499121336
 20
1749.511092032317
 30
0.0
 40
1.021236244655999
  0
LINE
  5
19F
  8
0
  6
CONTINUOUS
 62
     7
 10
769.4967499121334
 20
1668.204833129165
 30
0.0
 11
769.4967499121334
 21
1667.311092032317
 31
0.0
  0
ARC
  5
1A0
  8
0
  6
CONTINUOUS
 62
     7
 10
769.9967499121336
 20
1749.511092032317
 30
0.0
 40
2.249999999999093
 50
77.16041159309204
 51
102.8395884069007
  0
ARC
  5
1A1
  8
0
  6
CONTINUOUS
 62
     7
 10
769.9967499121336
 20
1749.511092032317
 30
0.0
 40
2.250000000000008
 50
347.1604115930916
 51
12.83958840689712
  0
LINE
  5
1A2
  8
0
  6
CONTINUOUS
 62
     7
 10
769.4967499121334
 20
1664.711092032317
 30
0.0
 11
769.4967499121334
 21
1663.817350935469
 31
0.0
  0
LINE
  5
1A3
  8
0
  6
CONTINUOUS
 62
     7
 10
770.4967499121335
 20
1663.817350935469
 30
0.0
 11
770.4967499121335
 21
1664.711092032317
 31
0.0
  0
CIRCLE
  5
1A4
  8
0
  6
CONTINUOUS
 62
     7
 10
769.9967499121336
 20
1666.011092032317
 30
0.0
 40
4.000000000000004
  0
ARC
  5
1A5
  8
0
  6
CONTINUOUS
 62
     7
 10
769.9967499121336
 20
1666.011092032317
 30
0.0
 40
2.250000000000008
 50
257.1604115930916
 51
282.8395884069002
  0
ARC
  5
1A6
  8
0
  6
CONTINUOUS
 62
     7
 10
768.6967499121336
 20
1748.211092032317
 30
0.0
 40
0.800000000000356
 50
0.0000000000004547
 51
90.0
  0
CIRCLE
  5
1A7
  8
0
  6
CONTINUOUS
 62
   253
 10
769.9967499121336
 20
1666.011092032317
 30
0.0
 40
1.021236244655999
  0
ARC
  5
1A8
  8
0
  6
CONTINUOUS
 62
   253
 10
892.2184923388531
 20
1779.681145232981
 30
0.0
 40
149.7827188940515
 50
194.9366924128813
 51
205.4732734419409
  0
LINE
  5
1A9
  8
0
  6
CONTINUOUS
 62
     7
 10
770.4967499121335
 20
1667.311092032317
 30
0.0
 11
770.4967499121335
 21
1668.204833129165
 31
0.0
  0
LINE
  5
1AA
  8
0
  6
CONTINUOUS
 62
     7
 10
767.8030088152854
 20
1665.511092032317
 30
0.0
 11
768.6967499121334
 21
1665.511092032317
 31
0.0
  0
LINE
  5
1AB
  8
0
  6
CONTINUOUS
 62
     7
 10
753.9967499121336
 20
1742.761092032317
 30
0.0
 11
785.9967499121335
 21
1742.761092032317
 31
0.0
  0
LINE
  5
1AC
  8
0
  6
CONTINUOUS
 62
     7
 10
822.7645158782923
 20
327.7610920323172
 30
0.0
 11
821.2645158782924
 21
327.7610920323172
 31
0.0
  0
LINE
  5
1AD
  8
0
  6
CONTINUOUS
 62
     7
 10
785.9967499121334
 20
1670.261092032317
 30
0.0
 11
785.9967499121334
 21
1672.761092032317
 31
0.0
  0
LINE
  5
1AE
  8
0
  6
CONTINUOUS
 62
     7
 10
770.4967499121335
 20
1747.317350935469
 30
0.0
 11
770.4967499121335
 21
1748.211092032317
 31
0.0
  0
LINE
  5
1AF
  8
0
  6
CONTINUOUS
 62
     7
 10
753.9967499121336
 20
1670.261092032317
 30
0.0
 11
753.9967499121336
 21
1672.761092032317
 31
0.0
  0
LINE
  5
1B0
  8
0
  6
CONTINUOUS
 62
     7
 10
761.9312401880298
 20
1669.011092032317
 30
0.0
 11
761.9967499121335
 21
1670.261092032317
 31
0.0
  0
LINE
  5
1B1
  8
0
  6
CONTINUOUS
 62
     7
 10
753.9967499121336
 20
1742.761092032317
 30
0.0
 11
753.9967499121336
 21
1744.511092032317
 31
0.0
  0
ARC
  5
1B2
  8
0
  6
CONTINUOUS
 62
     7
 10
768.6967499121336
 20
1750.811092032317
 30
0.0
 40
0.7999999999999119
 50
269.9999999999999
 51
0.0
  0
ARC
  5
1B3
  8
0
  6
CONTINUOUS
 62
     7
 10
747.4967499121336
 20
1726.865751390636
 30
0.0
 40
14.20865675840056
 50
90.0000000000005
 51
100.1382236980932
  0
LINE
  5
1B4
  8
0
  6
CONTINUOUS
 62
     7
 10
785.9967499121334
 20
1672.761092032317
 30
0.0
 11
753.9967499121335
 21
1672.761092032317
 31
0.0
  0
LINE
  5
1B5
  8
0
  6
CONTINUOUS
 62
   253
 10
794.9999411191346
 20
1721.611859702453
 30
0.0
 11
782.9967499121335
 21
1715.261092032317
 31
0.0
  0
ARC
  5
1B6
  8
0
  6
CONTINUOUS
 62
     7
 10
769.9967499121336
 20
1666.011092032317
 30
0.0
 40
2.249999999999909
 50
347.1604115931025
 51
12.83958840690809
  0
ARC
  5
1B7
  8
0
  6
CONTINUOUS
 62
     7
 10
769.9967499121334
 20
532.7610920323175
 30
0.0
 40
20.99999999999991
 50
359.9999999999993
 51
180.0
  0
LINE
  5
1B8
  8
0
  6
CONTINUOUS
 62
     7
 10
747.4967499121336
 20
1743.761092032317
 30
0.0
 11
747.4967499121336
 21
1742.761092032317
 31
0.0
  0
LINE
  5
1B9
  8
0
  6
CONTINUOUS
 62
     7
 10
490.3049555998209
 20
327.7610920323172
 30
0.0
 11
490.3049555998209
 21
348.7610920323174
 31
0.0
  0
LINE
  5
1BA
  8
0
  6
CONTINUOUS
 62
     7
 10
95.50325008786642
 20
1754.461092032317
 30
0.0
 11
95.50325008786642
 21
1753.707738942431
 31
0.0
  0
LINE
  5
1BB
  8
0
  6
CONTINUOUS
 62
     7
 10
791.4967499121333
 20
1744.761092032317
 30
0.0
 11
748.4967499121335
 21
1744.761092032317
 31
0.0
  0
LINE
  5
1BC
  8
0
  6
CONTINUOUS
 62
     7
 10
771.9967499121334
 20
1870.149790488737
 30
0.0
 11
771.9967499121334
 21
1870.392656083361
 31
0.0
  0
LINE
  5
1BD
  8
0
  6
CONTINUOUS
 62
     7
 10
744.9967499121335
 20
1672.78727263569
 30
0.0
 11
753.9967499121335
 21
1672.78727263569
 31
0.0
  0
LINE
  5
1BE
  8
0
  6
CONTINUOUS
 62
     7
 10
761.9312401880298
 20
1669.011092032317
 30
0.0
 11
761.8893139646034
 21
1668.211092032317
 31
0.0
  0
LINE
  5
1BF
  8
0
  6
CONTINUOUS
 62
     7
 10
747.9967499121336
 20
1742.761092032317
 30
0.0
 11
753.9967499121336
 21
1742.761092032317
 31
0.0
  0
LINE
  5
1C0
  8
0
  6
CONTINUOUS
 62
     7
 10
762.2467499121335
 20
1668.761092032317
 30
0.0
 11
762.2467499121335
 21
1670.761092032317
 31
0.0
  0
LINE
  5
1C1
  8
0
  6
CONTINUOUS
 62
     7
 10
785.9967499121334
 20
1742.761092032317
 30
0.0
 11
785.9967499121334
 21
1744.511092032317
 31
0.0
  0
LINE
  5
1C2
  8
0
  6
CONTINUOUS
 62
     7
 10
792.4967499121334
 20
1742.761092032317
 30
0.0
 11
793.9967499121336
 21
1742.761092032317
 31
0.0
  0
ARC
  5
1C3
  8
0
  6
CONTINUOUS
 62
     7
 10
791.4967499121333
 20
1743.761092032317
 30
0.0
 40
0.9999999999994458
 50
0.0
 51
90.0
  0
LINE
  5
1C4
  8
0
  6
CONTINUOUS
 62
     7
 10
793.9967499121336
 20
1670.761092032317
 30
0.0
 11
785.9967499121335
 21
1670.761092032317
 31
0.0
  0
LINE
  5
1C5
  8
0
  6
CONTINUOUS
 62
     7
 10
777.9967499121336
 20
1670.761092032317
 30
0.0
 11
777.7467499121336
 21
1670.761092032317
 31
0.0
  0
LINE
  5
1C6
  8
0
  6
CONTINUOUS
 62
     7
 10
753.9967499121336
 20
1668.211092032317
 30
0.0
 11
753.9967499121336
 21
1670.261092032317
 31
0.0
  0
LINE
  5
1C7
  8
0
  6
CONTINUOUS
 62
     7
 10
778.7467499121336
 20
1667.761092032317
 30
0.0
 11
793.9967499121336
 21
1667.761092032317
 31
0.0
  0
LINE
  5
1C8
  8
0
  6
CONTINUOUS
 62
     7
 10
762.2467499121335
 20
1670.761092032317
 30
0.0
 11
761.9967499121335
 21
1670.761092032317
 31
0.0
  0
ARC
  5
1C9
  8
0
  6
CONTINUOUS
 62
     7
 10
761.2467499121336
 20
1668.761092032317
 30
0.0
 40
0.9999999999998899
 50
270.0
 51
0.0
  0
LINE
  5
1CA
  8
0
  6
CONTINUOUS
 62
     7
 10
778.0622596362374
 20
1669.011092032317
 30
0.0
 11
778.1041858596637
 21
1668.211092032317
 31
0.0
  0
ARC
  5
1CB
  8
0
  6
CONTINUOUS
 62
     7
 10
769.9967499121336
 20
1956.095044400179
 30
0.0
 40
6.100000000000187
 50
110.2704096967927
 51
123.7282977865961
  0
LINE
  5
1CC
  8
0
  6
CONTINUOUS
 62
     7
 10
516.8502095112638
 20
1745.511092032317
 30
0.0
 11
516.8502095112638
 21
1753.511092032316
 31
0.0
  0
LINE
  5
1CD
  8
0
  6
CONTINUOUS
 62
     7
 10
516.8502095112638
 20
1753.511092032317
 30
0.0
 11
514.8502095112639
 21
1751.511092032317
 31
0.0
  0
LINE
  5
1CE
  8
0
  6
CONTINUOUS
 62
     7
 10
512.5905144558382
 20
1777.458789801796
 30
0.0
 11
514.304955599821
 21
1777.761092032317
 31
0.0
  0
LINE
  5
1CF
  8
0
  6
CONTINUOUS
 62
     7
 10
769.4967499121334
 20
1962.0338995087
 30
0.0
 11
768.6967499121336
 21
1962.0338995087
 31
0.0
  0
LINE
  5
1D0
  8
0
  6
CONTINUOUS
 62
     7
 10
423.182740898479
 20
1756.261092032317
 30
0.0
 11
423.182740898479
 21
1755.261092032317
 31
0.0
  0
LINE
  5
1D1
  8
0
  6
CONTINUOUS
 62
     7
 10
516.8502095112638
 20
1745.511092032317
 30
0.0
 11
517.1502095112638
 21
1745.511092032317
 31
0.0
  0
LINE
  5
1D2
  8
0
  6
CONTINUOUS
 62
     7
 10
794.9967499121335
 20
1668.761092032317
 30
0.0
 11
794.9967499121335
 21
1741.761092032318
 31
0.0
  0
LINE
  5
1D3
  8
0
  6
CONTINUOUS
 62
     7
 10
777.7467499121335
 20
1670.761092032317
 30
0.0
 11
777.7467499121335
 21
1668.761092032317
 31
0.0
  0
LINE
  5
1D4
  8
0
  6
CONTINUOUS
 62
     7
 10
785.9967499121334
 20
1672.78727263569
 30
0.0
 11
785.9967499121334
 21
1672.761092032317
 31
0.0
  0
LINE
  5
1D5
  8
0
  6
CONTINUOUS
 62
     7
 10
748.9967499121335
 20
392.7610920323173
 30
0.0
 11
748.9967499121335
 21
532.7610920323172
 31
0.0
  0
LINE
  5
1D6
  8
0
  6
CONTINUOUS
 62
     7
 10
747.4967499121336
 20
1742.761092032317
 30
0.0
 11
745.9967499121337
 21
1742.761092032317
 31
0.0
  0
LINE
  5
1D7
  8
0
  6
CONTINUOUS
 62
     7
 10
718.7289839459746
 20
327.7610920323172
 30
0.0
 11
717.2289839459746
 21
327.7610920323172
 31
0.0
  0
LINE
  5
1D8
  8
0
  6
CONTINUOUS
 62
     7
 10
744.9967499121335
 20
1741.761092032318
 30
0.0
 11
744.9967499121335
 21
1668.761092032317
 31
0.0
  0
LINE
  5
1D9
  8
0
  6
CONTINUOUS
 62
     7
 10
745.9967499121336
 20
1667.761092032317
 30
0.0
 11
761.2467499121336
 21
1667.761092032317
 31
0.0
  0
LINE
  5
1DA
  8
0
  6
CONTINUOUS
 62
     7
 10
792.4967499121334
 20
1743.761092032317
 30
0.0
 11
792.4967499121334
 21
1742.761092032317
 31
0.0
  0
LINE
  5
1DB
  8
0
  6
CONTINUOUS
 62
     7
 10
785.9967499121334
 20
1672.78727263569
 30
0.0
 11
794.9967499121334
 21
1672.78727263569
 31
0.0
  0
LINE
  5
1DC
  8
0
  6
CONTINUOUS
 62
     7
 10
761.8893139646033
 20
1668.211092032317
 30
0.0
 11
753.9967499121335
 21
1668.211092032317
 31
0.0
  0
LINE
  5
1DD
  8
0
  6
CONTINUOUS
 62
     7
 10
777.9967499121336
 20
1671.011092032317
 30
0.0
 11
777.9967499121336
 21
1670.261092032317
 31
0.0
  0
LINE
  5
1DE
  8
0
  6
CONTINUOUS
 62
     7
 10
778.1041858596637
 20
1668.211092032317
 30
0.0
 11
785.9967499121335
 21
1668.211092032317
 31
0.0
  0
LINE
  5
1DF
  8
0
  6
CONTINUOUS
 62
     7
 10
761.9967499121336
 20
1671.011092032317
 30
0.0
 11
777.9967499121336
 21
1671.011092032317
 31
0.0
  0
CIRCLE
  5
1E0
  8
0
  6
CONTINUOUS
 62
     7
 10
754.9967499121335
 20
347.7610920323172
 30
0.0
 40
4.250000000000087
  0
ARC
  5
1E1
  8
0
  6
CONTINUOUS
 62
   253
 10
647.7747610174741
 20
1779.681235939864
 30
0.0
 40
149.7829804139856
 50
334.5267357824646
 51
345.0632983627129
  0
ARC
  5
1E2
  8
0
  6
CONTINUOUS
 62
     7
 10
793.9967499121336
 20
1668.761092032317
 30
0.0
 40
0.9999999999998899
 50
270.0
 51
0.0
  0
ARC
  5
1E3
  8
0
  6
CONTINUOUS
 62
     7
 10
769.9967499121334
 20
392.7610920323173
 30
0.0
 40
21.00000000000013
 50
180.0000000000002
 51
0.0
  0
LINE
  5
1E4
  8
0
  6
CONTINUOUS
 62
     7
 10
717.2443914107087
 20
1777.458789801796
 30
0.0
 11
717.245582514972
 21
1777.535839839447
 31
0.0
  0
CIRCLE
  5
1E5
  8
0
  6
CONTINUOUS
 62
     7
 10
784.9967499121335
 20
347.7610920323172
 30
0.0
 40
4.249999999999865
  0
LINE
  5
1E6
  8
0
  6
CONTINUOUS
 62
     7
 10
717.2289839459746
 20
1777.496601561254
 30
0.0
 11
717.2289839459746
 21
327.761092032317
 31
0.0
  0
LINE
  5
1E7
  8
0
  6
CONTINUOUS
 62
     7
 10
762.2467499121335
 20
1670.761092032317
 30
0.0
 11
777.7467499121335
 21
1670.761092032317
 31
0.0
  0
LINE
  5
1E8
  8
0
  6
CONTINUOUS
 62
     7
 10
765.9967499121334
 20
1867.849790488737
 30
0.0
 11
773.9967499121335
 21
1867.849790488737
 31
0.0
  0
LINE
  5
1E9
  8
0
  6
CONTINUOUS
 62
     7
 10
753.9967499121336
 20
1670.761092032317
 30
0.0
 11
745.9967499121336
 21
1670.761092032317
 31
0.0
  0
LINE
  5
1EA
  8
0
  6
CONTINUOUS
 62
     7
 10
767.9967499121336
 20
1870.149790488737
 30
0.0
 11
771.9967499121336
 21
1870.149790488737
 31
0.0
  0
ARC
  5
1EB
  8
0
  6
CONTINUOUS
 62
     7
 10
748.4967499121335
 20
1743.761092032317
 30
0.0
 40
0.9999999999998899
 50
90.0
 51
180.0
  0
LINE
  5
1EC
  8
0
  6
CONTINUOUS
 62
     7
 10
753.9967499121336
 20
1670.261092032317
 30
0.0
 11
761.9967499121336
 21
1670.261092032317
 31
0.0
  0
LINE
  5
1ED
  8
0
  6
CONTINUOUS
 62
     7
 10
767.9433968222471
 20
1961.817259101521
 30
0.0
 11
767.8833973831535
 21
1961.817259101521
 31
0.0
  0
LINE
  5
1EE
  8
0
  6
CONTINUOUS
 62
     7
 10
765.9967499121334
 20
1868.149790488737
 30
0.0
 11
773.9967499121335
 21
1868.149790488737
 31
0.0
  0
LINE
  5
1EF
  8
0
  6
CONTINUOUS
 62
     7
 10
822.7645158782923
 20
327.7610920323172
 30
0.0
 11
822.7645158782923
 21
1777.496601561254
 31
0.0
  0
LINE
  5
1F0
  8
0
  6
CONTINUOUS
 62
     7
 10
790.9967499121333
 20
532.7610920323173
 30
0.0
 11
790.9967499121334
 21
392.7610920323174
 31
0.0
  0
LINE
  5
1F1
  8
0
  6
CONTINUOUS
 62
     7
 10
718.7289839459746
 20
327.7610920323172
 30
0.0
 11
821.2645158782921
 21
327.7610920323172
 31
0.0
  0
ARC
  5
1F2
  8
0
  6
CONTINUOUS
 62
     7
 10
745.9967499121336
 20
1668.761092032317
 30
0.0
 40
0.9999999999998899
 50
180.0
 51
270.0
  0
LINE
  5
1F3
  8
0
  6
CONTINUOUS
 62
     7
 10
767.9967449021334
 20
1870.149790488737
 30
0.0
 11
771.9967549221335
 21
1870.149790488737
 31
0.0
  0
LINE
  5
1F4
  8
0
  6
CONTINUOUS
 62
     7
 10
772.1101024411137
 20
1961.817259101521
 30
0.0
 11
772.05010300202
 21
1961.817259101521
 31
0.0
  0
ARC
  5
1F5
  8
0
  6
CONTINUOUS
 62
     7
 10
778.7467499121336
 20
1668.761092032317
 30
0.0
 40
0.9999999999998899
 50
180.0
 51
270.0
  0
LINE
  5
1F6
  8
0
  6
CONTINUOUS
 62
     7
 10
753.9967499121336
 20
1672.761092032317
 30
0.0
 11
753.9967499121336
 21
1672.787272635689
 31
0.0
  0
LINE
  5
1F7
  8
0
  6
CONTINUOUS
 62
     7
 10
770.4967499121335
 20
1962.0338995087
 30
0.0
 11
770.4967499121335
 21
1961.817259101521
 31
0.0
  0
LINE
  5
1F8
  8
0
  6
CONTINUOUS
 62
     7
 10
773.9967499121336
 20
1867.849790488737
 30
0.0
 11
773.9967499121336
 21
1868.149790488737
 31
0.0
  0
LINE
  5
1F9
  8
0
  6
CONTINUOUS
 62
     7
 10
514.8502095112639
 20
1664.011087022317
 30
0.0
 11
514.8502095112639
 21
1668.011097042317
 31
0.0
  0
LINE
  5
1FA
  8
0
  6
CONTINUOUS
 62
     7
 10
767.9967499121336
 20
1870.392656083361
 30
0.0
 11
767.9967499121336
 21
1870.149790488737
 31
0.0
  0
LINE
  5
1FB
  8
0
  6
CONTINUOUS
 62
     7
 10
490.3049555998209
 20
327.7610920323172
 30
0.0
 11
512.590514455838
 21
327.7610920323172
 31
0.0
  0
LINE
  5
1FC
  8
0
  6
CONTINUOUS
 62
     7
 10
517.1502095112638
 20
1670.011092032317
 30
0.0
 11
516.8502095112636
 21
1670.011092032317
 31
0.0
  0
LINE
  5
1FD
  8
0
  6
CONTINUOUS
 62
     7
 10
438.188991244806
 20
327.7610920323172
 30
0.0
 11
424.3049555998207
 21
327.7610920323172
 31
0.0
  0
LINE
  5
1FE
  8
0
  6
CONTINUOUS
 62
     7
 10
514.8502095112639
 20
1747.511087022317
 30
0.0
 11
514.8502095112639
 21
1751.511097042317
 31
0.0
  0
LINE
  5
1FF
  8
0
  6
CONTINUOUS
 62
     7
 10
514.8502095112639
 20
1747.511092032317
 30
0.0
 11
514.8502095112639
 21
1751.511092032317
 31
0.0
  0
ARC
  5
200
  8
0
  6
CONTINUOUS
 62
     7
 10
428.904955599821
 20
1755.761092032317
 30
0.0
 40
6.079473661428317
 50
160.2600401879682
 51
167.6528527105353
  0
LINE
  5
201
  8
0
  6
CONTINUOUS
 62
     7
 10
517.1502095112638
 20
1745.511092032317
 30
0.0
 11
517.1502095112638
 21
1753.511092032316
 31
0.0
  0
LINE
  5
202
  8
0
  6
CONTINUOUS
 62
     7
 10
423.182740898479
 20
1757.874444561297
 30
0.0
 11
423.182740898479
 21
1757.814445122204
 31
0.0
  0
LINE
  5
203
  8
0
  6
CONTINUOUS
 62
     7
 10
514.3049555998209
 20
327.7610920323172
 30
0.0
 11
512.590514455838
 21
327.7610920323172
 31
0.0
  0
LINE
  5
204
  8
0
  6
CONTINUOUS
 62
   253
 10
438.188991244806
 20
1764.339793853884
 30
0.0
 11
438.188991244806
 21
327.761092032317
 31
0.0
  0
ARC
  5
205
  8
0
  6
CONTINUOUS
 62
     7
 10
769.9967499121336
 20
1956.095044400179
 30
0.0
 40
6.079473661428223
 50
102.3471472894673
 51
109.7399598120346
  0
LINE
  5
206
  8
0
  6
CONTINUOUS
 62
     7
 10
771.2967499121335
 20
1962.0338995087
 30
0.0
 11
770.4967499121335
 21
1962.0338995087
 31
0.0
  0
LINE
  5
207
  8
0
  6
CONTINUOUS
 62
     7
 10
423.182740898479
 20
1753.707738942431
 30
0.0
 11
423.182740898479
 21
1753.647739503338
 31
0.0
  0
LINE
  5
208
  8
0
  6
CONTINUOUS
 62
     7
 10
516.8502095112638
 20
1662.011092032317
 30
0.0
 11
516.8502095112638
 21
1670.011092032317
 31
0.0
  0
ARC
  5
209
  8
0
  6
CONTINUOUS
 62
     7
 10
769.9967499121336
 20
1956.095044400179
 30
0.0
 40
6.079473661428392
 50
70.26004018796623
 51
77.65285271053364
  0
LINE
  5
20A
  8
0
  6
CONTINUOUS
 62
     7
 10
422.9661004913006
 20
1757.061092032317
 30
0.0
 11
422.9661004913006
 21
1756.261092032317
 31
0.0
  0
ARC
  5
20B
  8
0
  6
CONTINUOUS
 62
     7
 10
428.904955599821
 20
1755.761092032317
 30
0.0
 40
6.079473661428113
 50
192.3471472894676
 51
199.7399598120346
  0
LINE
  5
20C
  8
0
  6
CONTINUOUS
 62
     7
 10
765.9967499121334
 20
1868.149790488737
 30
0.0
 11
765.9967499121334
 21
1867.849790488737
 31
0.0
  0
LINE
  5
20D
  8
0
  6
CONTINUOUS
 62
     7
 10
514.8502095112639
 20
1664.011092032317
 30
0.0
 11
516.8502095112638
 21
1662.011092032317
 31
0.0
  0
LINE
  5
20E
  8
0
  6
CONTINUOUS
 62
     7
 10
423.182740898479
 20
1755.261092032317
 30
0.0
 11
422.9661004913006
 21
1755.261092032317
 31
0.0
  0
LINE
  5
20F
  8
0
  6
CONTINUOUS
 62
     7
 10
514.304955599821
 20
1664.011092032317
 30
0.0
 11
514.8502095112639
 21
1664.011092032317
 31
0.0
  0
LINE
  5
210
  8
0
  6
CONTINUOUS
 62
     7
 10
448.304955599821
 20
348.7610920323173
 30
0.0
 11
448.304955599821
 21
327.7610920323173
 31
0.0
  0
LINE
  5
211
  8
0
  6
CONTINUOUS
 62
     7
 10
514.304955599821
 20
1747.511092032317
 30
0.0
 11
514.8502095112639
 21
1747.511092032317
 31
0.0
  0
LINE
  5
212
  8
0
  6
CONTINUOUS
 62
     7
 10
767.9967499121336
 20
1870.149790488737
 30
0.0
 11
765.9967499121336
 21
1868.149790488737
 31
0.0
  0
LINE
  5
213
  8
0
  6
CONTINUOUS
 62
     7
 10
514.8502095112639
 20
1747.511092032317
 30
0.0
 11
516.8502095112638
 21
1745.511092032317
 31
0.0
  0
LINE
  5
214
  8
0
  6
CONTINUOUS
 62
     7
 10
516.8502095112638
 20
1670.011092032317
 30
0.0
 11
514.8502095112639
 21
1668.011092032317
 31
0.0
  0
ARC
  5
215
  8
0
  6
CONTINUOUS
 62
     7
 10
428.904955599821
 20
1755.761092032317
 30
0.0
 40
6.099999999999977
 50
200.2704096967933
 51
221.0533512362953
  0
LINE
  5
216
  8
0
  6
CONTINUOUS
 62
     7
 10
93.70325008786645
 20
1755.261092032317
 30
0.0
 11
92.94989699797995
 21
1755.261092032317
 31
0.0
  0
LINE
  5
217
  8
0
  6
CONTINUOUS
 62
     7
 10
424.304955599821
 20
327.7610920323172
 30
0.0
 11
424.304955599821
 21
1761.891663768555
 31
0.0
  0
LINE
  5
218
  8
0
  6
CONTINUOUS
 62
     7
 10
94.50325008786648
 20
1753.707738942431
 30
0.0
 11
94.50325008786648
 21
1754.461092032317
 31
0.0
  0
LINE
  5
219
  8
0
  6
CONTINUOUS
 62
     7
 10
422.9661004913006
 20
1755.261092032317
 30
0.0
 11
422.9661004913006
 21
1754.461092032318
 31
0.0
  0
LINE
  5
21A
  8
0
  6
CONTINUOUS
 62
     7
 10
517.1502095112638
 20
1753.511092032317
 30
0.0
 11
516.8502095112636
 21
1753.511092032317
 31
0.0
  0
LINE
  5
21B
  8
0
  6
CONTINUOUS
 62
     7
 10
517.1502095112638
 20
1662.011092032317
 30
0.0
 11
517.1502095112638
 21
1670.011092032317
 31
0.0
  0
LINE
  5
21C
  8
0
  6
CONTINUOUS
 62
     7
 10
773.9967499121336
 20
1868.149790488737
 30
0.0
 11
771.9967499121336
 21
1870.149790488737
 31
0.0
  0
LINE
  5
21D
  8
0
  6
CONTINUOUS
 62
     7
 10
770.4967499121335
 20
1961.817259101521
 30
0.0
 11
769.4967499121335
 21
1961.817259101521
 31
0.0
  0
LINE
  5
21E
  8
0
  6
CONTINUOUS
 62
     7
 10
769.4967499121334
 20
1961.817259101521
 30
0.0
 11
769.4967499121334
 21
1962.0338995087
 31
0.0
  0
LINE
  5
21F
  8
0
  6
CONTINUOUS
 62
     7
 10
94.50325008786648
 20
1754.461092032317
 30
0.0
 11
93.70325008786644
 21
1755.261092032317
 31
0.0
  0
LINE
  5
220
  8
0
  6
CONTINUOUS
 62
     7
 10
514.304955599821
 20
1777.761092032317
 30
0.0
 11
514.3049555998209
 21
327.761092032317
 31
0.0
  0
ARC
  5
221
  8
0
  6
CONTINUOUS
 62
     7
 10
769.9967499121336
 20
1956.095044400179
 30
0.0
 40
6.100000000000177
 50
56.27170221340735
 51
69.72959030321083
  0
LINE
  5
222
  8
0
  6
CONTINUOUS
 62
     7
 10
514.8502095112639
 20
1751.511092032317
 30
0.0
 11
514.3049555998211
 21
1751.511092032317
 31
0.0
  0
ARC
  5
223
  8
0
  6
CONTINUOUS
 62
     7
 10
95.00325008786648
 20
1755.761092032317
 30
0.0
 40
2.113352528979858
 50
256.3145799001944
 51
283.6854200998055
  0
ARC
  5
224
  8
0
  6
CONTINUOUS
 62
     7
 10
95.00325008786659
 20
502.7610920323173
 30
0.0
 40
20.99999999999996
 50
0.0
 51
180.0000000000002
  0
CIRCLE
  5
225
  8
0
  6
CONTINUOUS
 62
     7
 10
95.00325008786648
 20
1755.761092032317
 30
0.0
 40
5.000000000000004
  0
ARC
  5
226
  8
0
  6
CONTINUOUS
 62
     7
 10
469.3049555998209
 20
348.7610920323173
 30
0.0
 40
21.00000000000002
 50
0.0000000000006058
 51
180.0000000000002
  0
LINE
  5
227
  8
0
  6
CONTINUOUS
 62
   253
 10
69.03137765335188
 20
1761.891663768555
 30
0.0
 11
69.03137765335188
 21
327.761092032317
 31
0.0
  0
LINE
  5
228
  8
0
  6
CONTINUOUS
 62
     7
 10
422.9661004913006
 20
1756.261092032317
 30
0.0
 11
423.182740898479
 21
1756.261092032317
 31
0.0
  0
LINE
  5
229
  8
0
  6
CONTINUOUS
 62
     7
 10
516.8502095112638
 20
1662.011092032317
 30
0.0
 11
517.1502095112638
 21
1662.011092032317
 31
0.0
  0
LINE
  5
22A
  8
0
  6
CONTINUOUS
 62
     7
 10
514.8502095112639
 20
1668.011092032317
 30
0.0
 11
514.3049555998211
 21
1668.011092032317
 31
0.0
  0
LINE
  5
22B
  8
0
  6
CONTINUOUS
 62
     7
 10
514.8502095112639
 20
1664.011092032317
 30
0.0
 11
514.8502095112639
 21
1668.011092032317
 31
0.0
  0
ARC
  5
22C
  8
0
  6
CONTINUOUS
 62
     7
 10
428.904955599821
 20
1755.761092032317
 30
0.0
 40
6.100000000000685
 50
138.9466487637043
 51
159.7295903032063
  0
LINE
  5
22D
  8
0
  6
CONTINUOUS
 62
     7
 10
438.188991244806
 20
327.7610920323172
 30
0.0
 11
448.3049555998209
 21
327.7610920323172
 31
0.0
  0
LINE
  5
22E
  8
0
  6
CONTINUOUS
 62
     7
 10
42.25089158644185
 20
327.7610920323172
 30
0.0
 11
45.46991675453324
 21
327.7610920323172
 31
0.0
  0
LINE
  5
22F
  8
0
  6
CONTINUOUS
 62
     7
 10
96.3032500878665
 20
1755.261092032317
 30
0.0
 11
95.50325008786646
 21
1754.461092032318
 31
0.0
  0
LINE
  5
230
  8
0
  6
CONTINUOUS
 62
     7
 10
95.50325008786642
 20
1757.814445122204
 30
0.0
 11
95.50325008786642
 21
1757.061092032317
 31
0.0
  0
ARC
  5
231
  8
0
  6
CONTINUOUS
 62
     7
 10
95.00325008786648
 20
1755.761092032317
 30
0.0
 40
2.113352528980748
 50
76.31457990019157
 51
103.6854200998027
  0
ARC
  5
232
  8
0
  6
CONTINUOUS
 62
     7
 10
95.00325008786648
 20
1755.761092032317
 30
0.0
 40
2.113352528980022
 50
346.3145799001898
 51
13.68542009979831
  0
LINE
  5
233
  8
0
  6
CONTINUOUS
 62
   253
 10
52.99777827247976
 20
327.7610920323172
 30
0.0
 11
52.99777827247976
 21
1764.339793853884
 31
0.0
  0
ARC
  5
234
  8
0
  6
CONTINUOUS
 62
     7
 10
769.9967499121334
 20
502.7610920323173
 30
0.0
 40
20.99999999999989
 50
73.01663588503263
 51
180.0
  0
ARC
  5
235
  8
0
  6
CONTINUOUS
 62
     7
 10
789.7467499125046
 20
552.2750920325
 30
0.0
 40
15.00000000000007
 50
177.0151345035844
 51
182.9848897977383
  0
ARC
  5
236
  8
0
  6
CONTINUOUS
 62
     7
 10
775.266422030404
 20
506.4941446319999
 30
0.0
 40
0.5000000000000179
 50
91.99999984720459
 51
177.0158392419604
  0
ARC
  5
237
  8
0
  6
CONTINUOUS
 62
     7
 10
775.2664220304047
 20
553.0301446320002
 30
0.0
 40
0.4999999999998245
 50
159.5449801720542
 51
177.0158392419807
  0
LINE
  5
238
  8
0
  6
CONTINUOUS
 62
     7
 10
777.3572197615061
 20
514.8234616697939
 30
0.0
 11
775.2489722820641
 21
514.7498400456021
 31
0.0
  0
LINE
  5
239
  8
0
  6
CONTINUOUS
 62
     7
 10
775.2489722820677
 20
516.1183440194902
 30
0.0
 11
777.3572197615094
 21
516.0447223952998
 31
0.0
  0
LINE
  5
23A
  8
0
  6
CONTINUOUS
 62
     7
 10
775.2489722820677
 20
523.8743440194901
 30
0.0
 11
777.3572197615031
 21
523.8007223953
 31
0.0
  0
ARC
  5
23B
  8
0
  6
CONTINUOUS
 62
     7
 10
775.2664220304044
 20
537.5181446320001
 30
0.0
 40
0.5000000000000179
 50
91.99999984720459
 51
177.0158392419604
  0
ARC
  5
23C
  8
0
  6
CONTINUOUS
 62
     7
 10
775.2664220304044
 20
532.1300394330003
 30
0.0
 40
0.4999999999999655
 50
182.9848897976502
 51
268.0000000017894
  0
LINE
  5
23D
  8
0
  6
CONTINUOUS
 62
     7
 10
777.3572197615059
 20
503.1894616697941
 30
0.0
 11
775.2489722820638
 21
503.1158400456023
 31
0.0
  0
ARC
  5
23E
  8
0
  6
CONTINUOUS
 62
     7
 10
775.266422030404
 20
502.616144632
 30
0.0
 40
0.5000000000000179
 50
91.99999984720459
 51
177.0158392419604
  0
LINE
  5
23F
  8
0
  6
CONTINUOUS
 62
     7
 10
777.3572197615059
 20
507.067461669794
 30
0.0
 11
775.2489722820638
 21
506.9938400456022
 31
0.0
  0
LINE
  5
240
  8
0
  6
CONTINUOUS
 62
     7
 10
775.2489722820675
 20
508.3623440194901
 30
0.0
 11
777.357219761503
 21
508.2887223953001
 31
0.0
  0
LINE
  5
241
  8
0
  6
CONTINUOUS
 62
     7
 10
777.3572197615064
 20
534.2134616697941
 30
0.0
 11
775.2489722820643
 21
534.1398400456021
 31
0.0
  0
LINE
  5
242
  8
0
  6
CONTINUOUS
 62
     7
 10
777.3572197615064
 20
545.8474616697943
 30
0.0
 11
775.2489722820643
 21
545.7738400456022
 31
0.0
  0
LINE
  5
243
  8
0
  6
CONTINUOUS
 62
     7
 10
775.2489722820679
 20
535.5083440194902
 30
0.0
 11
777.3572197615097
 21
535.4347223953002
 31
0.0
  0
LINE
  5
244
  8
0
  6
CONTINUOUS
 62
     7
 10
775.2489722820682
 20
547.1423440194899
 30
0.0
 11
777.3572197615036
 21
547.0687223953001
 31
0.0
  0
LINE
  5
245
  8
0
  6
CONTINUOUS
 62
     7
 10
777.3572197615061
 20
526.4574616697943
 30
0.0
 11
775.2489722820641
 21
526.3838400456023
 31
0.0
  0
ARC
  5
246
  8
0
  6
CONTINUOUS
 62
     7
 10
775.2664220304044
 20
545.2741446319999
 30
0.0
 40
0.4999999999999095
 50
91.99999984684858
 51
177.0158392419694
  0
ARC
  5
247
  8
0
  6
CONTINUOUS
 62
     7
 10
775.2664220304044
 20
539.8860394330002
 30
0.0
 40
0.4999999999999424
 50
182.9848897975994
 51
268.000000001764
  0
LINE
  5
248
  8
0
  6
CONTINUOUS
 62
     7
 10
775.2489722820677
 20
527.7523440194899
 30
0.0
 11
777.3572197615032
 21
527.6787223953002
 31
0.0
  0
ARC
  5
249
  8
0
  6
CONTINUOUS
 62
     7
 10
775.2664220304044
 20
529.7621446319998
 30
0.0
 40
0.5000000000001315
 50
91.9999998468477
 51
177.0158392419686
  0
ARC
  5
24A
  8
0
  6
CONTINUOUS
 62
     7
 10
775.2664220304042
 20
524.374039433
 30
0.0
 40
0.4999999999999308
 50
182.9848897975738
 51
268.0000000017385
  0
ARC
  5
24B
  8
0
  6
CONTINUOUS
 62
     7
 10
777.3467499125039
 20
503.4892789179
 30
0.0
 40
0.299999999999967
 50
271.9999999980546
 51
0.0
  0
ARC
  5
24C
  8
0
  6
CONTINUOUS
 62
     7
 10
777.3467499125039
 20
504.1109051472
 30
0.0
 40
0.3000000000000386
 50
0.0000000000068212
 51
87.99999998495514
  0
ARC
  5
24D
  8
0
  6
CONTINUOUS
 62
     7
 10
777.3467499125042
 20
511.2452789179001
 30
0.0
 40
0.2999999999997449
 50
271.999999998663
 51
0.0
  0
ARC
  5
24E
  8
0
  6
CONTINUOUS
 62
     7
 10
777.3467499125042
 20
515.1232789178999
 30
0.0
 40
0.299999999999967
 50
271.9999999980543
 51
0.0
  0
ARC
  5
24F
  8
0
  6
CONTINUOUS
 62
     7
 10
775.2664220304042
 20
522.006144632
 30
0.0
 40
0.5000000000000179
 50
91.99999984720459
 51
177.0158392419604
  0
ARC
  5
250
  8
0
  6
CONTINUOUS
 62
     7
 10
775.2664220304042
 20
516.6180394329999
 30
0.0
 40
0.5000000000001641
 50
182.9848897975978
 51
268.0000000013974
  0
ARC
  5
251
  8
0
  6
CONTINUOUS
 62
     7
 10
777.3467499125042
 20
515.7449051472001
 30
0.0
 40
0.2999999999998167
 50
0.0000000000053433
 51
87.99999998495366
  0
ARC
  5
252
  8
0
  6
CONTINUOUS
 62
     7
 10
777.3467499125039
 20
507.3672789179001
 30
0.0
 40
0.299999999999967
 50
271.999999998663
 51
0.0
  0
LINE
  5
253
  8
0
  6
CONTINUOUS
 62
     7
 10
777.3572197615061
 20
522.579461669794
 30
0.0
 11
775.2489722820641
 21
522.5058400456022
 31
0.0
  0
LINE
  5
254
  8
0
  6
CONTINUOUS
 62
     7
 10
777.3572197615064
 20
538.091461669794
 30
0.0
 11
775.2489722820643
 21
538.0178400456022
 31
0.0
  0
LINE
  5
255
  8
0
  6
CONTINUOUS
 62
     7
 10
777.3572197615064
 20
541.9694616697942
 30
0.0
 11
775.2489722820642
 21
541.8958400456022
 31
0.0
  0
LINE
  5
256
  8
0
  6
CONTINUOUS
 62
     7
 10
777.3572197615064
 20
530.3354616697941
 30
0.0
 11
775.2489722820642
 21
530.2618400456023
 31
0.0
  0
ARC
  5
257
  8
0
  6
CONTINUOUS
 62
     7
 10
775.266422030404
 20
514.2501446319999
 30
0.0
 40
0.5000000000000179
 50
91.99999984720459
 51
177.0158392419604
  0
ARC
  5
258
  8
0
  6
CONTINUOUS
 62
     7
 10
775.266422030404
 20
508.862039433
 30
0.0
 40
0.4999999999999424
 50
182.9848897975994
 51
268.000000001764
  0
ARC
  5
259
  8
0
  6
CONTINUOUS
 62
     7
 10
775.2664220304047
 20
547.6420394330003
 30
0.0
 40
0.5000000000001756
 50
182.9848897976233
 51
268.0000000017624
  0
LINE
  5
25A
  8
0
  6
CONTINUOUS
 62
     7
 10
777.3572197615061
 20
510.945461669794
 30
0.0
 11
775.248972282064
 21
510.871840045602
 31
0.0
  0
LINE
  5
25B
  8
0
  6
CONTINUOUS
 62
     7
 10
775.2489722820682
 20
543.2643440194901
 30
0.0
 11
777.3572197615035
 21
543.1907223953001
 31
0.0
  0
ARC
  5
25C
  8
0
  6
CONTINUOUS
 62
     7
 10
775.266422030404
 20
510.3721446320001
 30
0.0
 40
0.4999999999999095
 50
91.99999984684858
 51
177.0158392419694
  0
ARC
  5
25D
  8
0
  6
CONTINUOUS
 62
     7
 10
775.266422030404
 20
504.9840394330002
 30
0.0
 40
0.4999999999999424
 50
182.9848897975994
 51
268.000000001764
  0
ARC
  5
25E
  8
0
  6
CONTINUOUS
 62
     7
 10
775.2664220304047
 20
551.5200394330001
 30
0.0
 40
0.4999999999999539
 50
182.9848897976248
 51
268.000000001764
  0
LINE
  5
25F
  8
0
  6
CONTINUOUS
 62
     7
 10
775.2489722820675
 20
504.4843440194898
 30
0.0
 11
777.3572197615028
 21
504.4107223953
 31
0.0
  0
LINE
  5
260
  8
0
  6
CONTINUOUS
 62
     7
 10
775.2489722820677
 20
512.24034401949
 30
0.0
 11
777.3572197615031
 21
512.1667223953001
 31
0.0
  0
LINE
  5
261
  8
0
  6
CONTINUOUS
 62
     7
 10
777.3572197615061
 20
518.7014616697942
 30
0.0
 11
775.248972282064
 21
518.6278400456022
 31
0.0
  0
ARC
  5
262
  8
0
  6
CONTINUOUS
 62
     7
 10
775.2664220304044
 20
533.6401446320001
 30
0.0
 40
0.5000000000000256
 50
91.99999984723004
 51
177.0158392419859
  0
ARC
  5
263
  8
0
  6
CONTINUOUS
 62
     7
 10
775.2664220304044
 20
528.252039433
 30
0.0
 40
0.5000000000001756
 50
182.9848897976233
 51
268.0000000017624
  0
LINE
  5
264
  8
0
  6
CONTINUOUS
 62
     7
 10
775.2489722820679
 20
531.6303440194899
 30
0.0
 11
777.3572197615097
 21
531.5567223953
 31
0.0
  0
LINE
  5
265
  8
0
  6
CONTINUOUS
 62
     7
 10
775.2489722820679
 20
539.3863440194898
 30
0.0
 11
777.3572197615034
 21
539.3127223953
 31
0.0
  0
LINE
  5
266
  8
0
  6
CONTINUOUS
 62
     7
 10
777.3572197615066
 20
549.7254616697941
 30
0.0
 11
775.2489722820708
 21
549.6518400456024
 31
0.0
  0
LINE
  5
267
  8
0
  6
CONTINUOUS
 62
     7
 10
775.2489722820682
 20
551.0203440194902
 30
0.0
 11
777.35721976151
 21
550.9467223952998
 31
0.0
  0
ARC
  5
268
  8
0
  6
CONTINUOUS
 62
     7
 10
777.3467499125039
 20
507.9889051472003
 30
0.0
 40
0.2999999999998167
 50
0.0000000000053433
 51
87.99999998495366
  0
ARC
  5
269
  8
0
  6
CONTINUOUS
 62
     7
 10
777.3467499125042
 20
511.8669051471999
 30
0.0
 40
0.2999999999999302
 50
359.9999999999919
 51
87.99999998554847
  0
ARC
  5
26A
  8
0
  6
CONTINUOUS
 62
     7
 10
777.3467499125042
 20
519.0012789179002
 30
0.0
 40
0.299999999999967
 50
271.9999999980546
 51
0.0
  0
ARC
  5
26B
  8
0
  6
CONTINUOUS
 62
     7
 10
775.2664220304044
 20
541.3961446320001
 30
0.0
 40
0.5000000000000179
 50
91.99999984720459
 51
177.0158392419604
  0
ARC
  5
26C
  8
0
  6
CONTINUOUS
 62
     7
 10
775.2664220304042
 20
518.1281446320002
 30
0.0
 40
0.5000000000000179
 50
91.99999984720459
 51
177.0158392419603
  0
ARC
  5
26D
  8
0
  6
CONTINUOUS
 62
     7
 10
775.2664220304047
 20
549.1521446319999
 30
0.0
 40
0.5000000000001315
 50
91.9999998468477
 51
177.0158392419686
  0
ARC
  5
26E
  8
0
  6
CONTINUOUS
 62
     7
 10
775.266422030404
 20
512.7400394330002
 30
0.0
 40
0.4999999999999539
 50
182.9848897976248
 51
268.000000001764
  0
ARC
  5
26F
  8
0
  6
CONTINUOUS
 62
     7
 10
775.2664220304044
 20
536.0080394329999
 30
0.0
 40
0.4999999999999424
 50
182.9848897975994
 51
268.000000001399
  0
ARC
  5
270
  8
0
  6
CONTINUOUS
 62
     7
 10
775.2664220304044
 20
543.764039433
 30
0.0
 40
0.4999999999999424
 50
182.9848897975994
 51
268.000000001764
  0
LINE
  5
271
  8
0
  6
CONTINUOUS
 62
     7
 10
775.2489722820677
 20
519.9963440194903
 30
0.0
 11
777.3572197615096
 21
519.9227223953002
 31
0.0
  0
ARC
  5
272
  8
0
  6
CONTINUOUS
 62
     7
 10
775.2664220304044
 20
525.8841446320002
 30
0.0
 40
0.5000000000000256
 50
91.99999984723004
 51
177.0158392420113
  0
ARC
  5
273
  8
0
  6
CONTINUOUS
 62
     7
 10
775.2664220304042
 20
520.4960394330002
 30
0.0
 40
0.5000000000001641
 50
182.9848897975978
 51
268.0000000013974
  0
LINE
  5
274
  8
0
  6
CONTINUOUS
 62
     7
 10
777.6467499125043
 20
535.1349051472001
 30
0.0
 11
777.6467499125043
 21
534.5132789179004
 31
0.0
  0
ARC
  5
275
  8
0
  6
CONTINUOUS
 62
     7
 10
777.3467499125042
 20
526.7572789179
 30
0.0
 40
0.300000000000189
 50
271.9999999986627
 51
0.0
  0
LINE
  5
276
  8
0
  6
CONTINUOUS
 62
     7
 10
777.6467499125043
 20
523.5009051472002
 30
0.0
 11
777.6467499125043
 21
522.8792789179001
 31
0.0
  0
ARC
  5
277
  8
0
  6
CONTINUOUS
 62
     7
 10
777.3467499125044
 20
539.0129051472001
 30
0.0
 40
0.3000000000000386
 50
0.0000000000068212
 51
87.99999998495514
  0
ARC
  5
278
  8
0
  6
CONTINUOUS
 62
     7
 10
777.3467499125044
 20
534.5132789179003
 30
0.0
 40
0.299999999999967
 50
271.9999999980546
 51
0.0
  0
ARC
  5
279
  8
0
  6
CONTINUOUS
 62
     7
 10
777.3467499125046
 20
546.7689051471999
 30
0.0
 40
0.2999999999999224
 50
0.0000000000346745
 51
87.99999998559086
  0
ARC
  5
27A
  8
0
  6
CONTINUOUS
 62
     7
 10
777.3467499125046
 20
546.1472789178999
 30
0.0
 40
0.299999999999967
 50
271.999999998663
 51
0.0
  0
ARC
  5
27B
  8
0
  6
CONTINUOUS
 62
     7
 10
777.3467499125042
 20
519.6229051472
 30
0.0
 40
0.3000000000000386
 50
0.0000000000071623
 51
87.99999998495514
  0
LINE
  5
27C
  8
0
  6
CONTINUOUS
 62
     7
 10
777.6467499125046
 20
546.7689051471999
 30
0.0
 11
777.6467499125046
 21
546.1472789179
 31
0.0
  0
LINE
  5
27D
  8
0
  6
CONTINUOUS
 62
     7
 10
777.6467499125041
 20
519.6229051472
 30
0.0
 11
777.6467499125041
 21
519.0012789179001
 31
0.0
  0
ARC
  5
27E
  8
0
  6
CONTINUOUS
 62
     7
 10
777.3467499125046
 20
542.2692789179001
 30
0.0
 40
0.299999999999967
 50
271.999999998663
 51
0.0
  0
ARC
  5
27F
  8
0
  6
CONTINUOUS
 62
     7
 10
777.3467499125046
 20
550.6469051472002
 30
0.0
 40
0.2999999999998167
 50
0.0000000000053433
 51
87.99999998495366
  0
ARC
  5
280
  8
0
  6
CONTINUOUS
 62
     7
 10
777.3467499125042
 20
527.3789051471998
 30
0.0
 40
0.300000000000152
 50
359.9999999999935
 51
87.99999998554996
  0
ARC
  5
281
  8
0
  6
CONTINUOUS
 62
     7
 10
777.3467499125044
 20
530.6352789179
 30
0.0
 40
0.299999999999967
 50
271.999999998663
 51
0.0
  0
ARC
  5
282
  8
0
  6
CONTINUOUS
 62
     7
 10
777.3467499125044
 20
535.1349051472001
 30
0.0
 40
0.2999999999995948
 50
0.0000000000038654
 51
87.9999999849522
  0
ARC
  5
283
  8
0
  6
CONTINUOUS
 62
     7
 10
777.3467499125044
 20
538.3912789179001
 30
0.0
 40
0.299999999999967
 50
271.9999999980546
 51
0.0
  0
LINE
  5
284
  8
0
  6
CONTINUOUS
 62
     7
 10
777.6467499125043
 20
539.0129051472001
 30
0.0
 11
777.6467499125043
 21
538.3912789179002
 31
0.0
  0
LINE
  5
285
  8
0
  6
CONTINUOUS
 62
     7
 10
777.6467499125046
 20
550.6469051472002
 30
0.0
 11
777.6467499125046
 21
550.0252789179003
 31
0.0
  0
LINE
  5
286
  8
0
  6
CONTINUOUS
 62
     7
 10
777.6467499125041
 20
515.7449051472001
 30
0.0
 11
777.6467499125041
 21
515.1232789178999
 31
0.0
  0
LINE
  5
287
  8
0
  6
CONTINUOUS
 62
     7
 10
777.6467499125046
 20
542.8909051472003
 30
0.0
 11
777.6467499125044
 21
542.2692789179001
 31
0.0
  0
ARC
  5
288
  8
0
  6
CONTINUOUS
 62
     7
 10
777.3467499125042
 20
523.5009051472002
 30
0.0
 40
0.2999999999998167
 50
0.0000000000053433
 51
87.99999998495366
  0
LINE
  5
289
  8
0
  6
CONTINUOUS
 62
     7
 10
777.6467499125039
 20
507.9889051472003
 30
0.0
 11
777.6467499125039
 21
507.3672789179001
 31
0.0
  0
LINE
  5
28A
  8
0
  6
CONTINUOUS
 62
     7
 10
777.6467499125043
 20
527.3789051471998
 30
0.0
 11
777.6467499125043
 21
526.7572789179001
 31
0.0
  0
LINE
  5
28B
  8
0
  6
CONTINUOUS
 62
     7
 10
777.6467499125039
 20
511.8669051471999
 30
0.0
 11
777.6467499125039
 21
511.2452789179002
 31
0.0
  0
ARC
  5
28C
  8
0
  6
CONTINUOUS
 62
     7
 10
777.3467499125046
 20
542.8909051472003
 30
0.0
 40
0.2999999999998167
 50
0.0000000000053433
 51
87.99999998495366
  0
ARC
  5
28D
  8
0
  6
CONTINUOUS
 62
     7
 10
777.3467499125042
 20
522.8792789179001
 30
0.0
 40
0.300000000000189
 50
271.9999999980546
 51
0.0
  0
ARC
  5
28E
  8
0
  6
CONTINUOUS
 62
     7
 10
777.3467499125044
 20
531.2569051472001
 30
0.0
 40
0.2999999999998167
 50
0.0000000000053433
 51
87.99999998495366
  0
ARC
  5
28F
  8
0
  6
CONTINUOUS
 62
     7
 10
777.3467499125046
 20
550.0252789179002
 30
0.0
 40
0.299999999999967
 50
271.9999999980546
 51
0.0
  0
LINE
  5
290
  8
0
  6
CONTINUOUS
 62
     7
 10
777.6467499125039
 20
504.1109051472
 30
0.0
 11
777.6467499125039
 21
503.4892789179002
 31
0.0
  0
LINE
  5
291
  8
0
  6
CONTINUOUS
 62
     7
 10
777.6467499125043
 20
531.2569051472001
 30
0.0
 11
777.6467499125043
 21
530.6352789179
 31
0.0
  0
LINE
  5
292
  8
0
  6
CONTINUOUS
 62
     7
 10
779.3191548416107
 20
1681.888300372752
 30
0.0
 11
780.0156927389612
 21
1681.888300372749
 31
0.0
  0
LINE
  5
293
  8
0
  6
CONTINUOUS
 62
     7
 10
780.0156927389614
 20
1681.888300372754
 30
0.0
 11
780.3850153212358
 21
1681.888300372752
 31
0.0
  0
ARC
  5
294
  8
0
  6
CONTINUOUS
 62
     7
 10
778.4291724661698
 20
1680.888710033959
 30
0.0
 40
0.9995088721720636
 50
135.0050569363725
 51
157.5147343754941
  0
LINE
  5
295
  8
0
  6
CONTINUOUS
 62
   253
 10
777.4295821620751
 20
1680.888300372758
 30
0.0
 11
777.3799487732205
 21
1680.888300372752
 31
0.0
  0
ARC
  5
296
  8
0
  6
CONTINUOUS
 62
     7
 10
778.4291560956402
 20
1680.889305637552
 30
0.0
 40
0.9989947352027073
 50
90.00000000755188
 51
112.5147395781477
  0
LINE
  5
297
  8
0
  6
CONTINUOUS
 62
     7
 10
774.0207277117892
 20
1681.888300372732
 30
0.0
 11
774.3330627705894
 21
1681.888300372731
 31
0.0
  0
LINE
  5
298
  8
0
  6
CONTINUOUS
 62
     7
 10
777.3799487732205
 20
1680.888300372752
 30
0.0
 11
777.3799487731977
 21
1675.138558111562
 31
0.0
  0
LINE
  5
299
  8
0
  6
CONTINUOUS
 62
     7
 10
774.601839036557
 20
1681.888300372734
 30
0.0
 11
774.8838873550783
 21
1680.88830037274
 31
0.0
  0
LINE
  5
29A
  8
0
  6
CONTINUOUS
 62
     7
 10
787.4418904174112
 20
1675.138558111486
 30
0.0
 11
781.7446168815338
 21
1675.138558111508
 31
0.0
  0
LINE
  5
29B
  8
0
  6
CONTINUOUS
 62
     7
 10
791.7986153713297
 20
1681.888300372719
 30
0.0
 11
793.4393340188218
 21
1680.888300372712
 31
0.0
  0
LINE
  5
29C
  8
0
  6
CONTINUOUS
 62
     7
 10
137.3760599103986
 20
1764.528755944972
 30
0.0
 11
147.9842089635476
 21
1777.579110747716
 31
0.0
  0
LINE
  5
29D
  8
0
  6
CONTINUOUS
 62
     7
 10
777.4295821620514
 20
1674.868604563741
 30
0.0
 11
777.3799487731978
 21
1675.138558111562
 31
0.0
  0
LINE
  5
29E
  8
0
  6
CONTINUOUS
 62
     7
 10
771.7026341114674
 20
1672.88830037274
 30
0.0
 11
771.7026341114719
 21
1673.991108073289
 31
0.0
  0
ARC
  5
29F
  8
0
  6
CONTINUOUS
 62
     7
 10
778.4301621956255
 20
1680.888300372754
 30
0.0
 40
1.00058003355052
 50
157.5147343754439
 51
179.9999999997634
  0
LINE
  5
2A0
  8
0
  6
CONTINUOUS
 62
     7
 10
771.7026447702104
 20
1674.00463687875
 30
0.0
 11
772.0763517367079
 21
1674.487599791893
 31
0.0
  0
LINE
  5
2A1
  8
0
  6
CONTINUOUS
 62
   253
 10
786.0681059579675
 20
351.8738400456022
 30
0.0
 11
783.9253938662997
 21
351.8738400456022
 31
0.0
  0
LINE
  5
2A2
  8
0
  6
CONTINUOUS
 62
     7
 10
772.9968619740653
 20
1680.888300372734
 30
0.0
 11
772.9968619740408
 21
1674.736634322897
 31
0.0
  0
LINE
  5
2A3
  8
0
  6
CONTINUOUS
 62
     7
 10
772.9968619740408
 20
1674.736664349802
 30
0.0
 11
772.3283071598174
 21
1674.557525627238
 31
0.0
  0
LINE
  5
2A4
  8
0
  6
CONTINUOUS
 62
     7
 10
778.4291560956447
 20
1681.888300372754
 30
0.0
 11
778.7241953703482
 21
1681.888300372752
 31
0.0
  0
LINE
  5
2A5
  8
0
  6
CONTINUOUS
 62
     7
 10
716.9589437958964
 20
1777.828577601319
 30
0.0
 11
716.9590371658903
 21
1777.823193759886
 31
0.0
  0
LINE
  5
2A6
  8
0
  6
CONTINUOUS
 62
     7
 10
69.50028658230883
 20
1761.876048578225
 30
0.0
 11
121.0112235933973
 21
1761.876048578225
 31
0.0
  0
LINE
  5
2A7
  8
0
  6
CONTINUOUS
 62
     7
 10
790.8723723502142
 20
1681.888300372722
 30
0.0
 11
791.5450906325544
 21
1681.888300372719
 31
0.0
  0
LINE
  5
2A8
  8
0
  6
CONTINUOUS
 62
     7
 10
780.3850153212358
 20
1681.888300372752
 30
0.0
 11
781.7446168815469
 21
1680.888300372751
 31
0.0
  0
LINE
  5
2A9
  8
0
  6
CONTINUOUS
 62
   253
 10
785.729422592186
 20
351.9474616697941
 30
0.0
 11
784.2640772320811
 21
351.9474616697942
 31
0.0
  0
ARC
  5
2AA
  8
0
  6
CONTINUOUS
 62
     7
 10
778.4295661351455
 20
1680.888316434468
 30
0.0
 40
1.000065555046038
 50
112.5147395782639
 51
135.0050569363643
  0
LINE
  5
2AB
  8
0
  6
CONTINUOUS
 62
     7
 10
778.418371637342
 20
1681.888300372752
 30
0.0
 11
778.4291560956441
 21
1681.888300372754
 31
0.0
  0
LINE
  5
2AC
  8
0
  6
CONTINUOUS
 62
   253
 10
146.2768616451791
 20
1782.192684514083
 30
0.0
 11
146.2768616451791
 21
1782.177492267095
 31
0.0
  0
ARC
  5
2AD
  8
0
  6
CONTINUOUS
 62
     7
 10
795.9939726739202
 20
1944.554643975553
 30
0.0
 40
16.61364935166896
 50
66.66985516626562
 51
89.98016731031352
  0
ARC
  5
2AE
  8
0
  6
CONTINUOUS
 62
     7
 10
773.9968556331116
 20
1680.888306713675
 30
0.0
 40
0.9999923977671531
 50
135.000078283951
 51
180.0000000621963
  0
LINE
  5
2AF
  8
0
  6
CONTINUOUS
 62
     7
 10
791.5450906325549
 20
1681.888300372722
 30
0.0
 11
791.7986153713296
 21
1681.88830037272
 31
0.0
  0
ARC
  5
2B0
  8
0
  6
CONTINUOUS
 62
     7
 10
795.9971067704015
 20
1944.578262532881
 30
0.0
 40
16.59072196312714
 50
8.152386463345294
 51
66.64749117234044
  0
LINE
  5
2B1
  8
0
  6
CONTINUOUS
 62
     7
 10
790.0548449264903
 20
1681.888300372666
 30
0.0
 11
790.8723723502131
 21
1681.888300372662
 31
0.0
  0
LINE
  5
2B2
  8
0
  6
CONTINUOUS
 62
   253
 10
775.9828591198949
 20
372.6323440194899
 30
0.0
 11
775.248972282068
 21
372.6323440194899
 31
0.0
  0
CIRCLE
  5
2B3
  8
0
  6
CONTINUOUS
 62
     7
 10
769.9967499121334
 20
542.7610920323175
 30
0.0
 40
2.000000000000002
  0
LINE
  5
2B4
  8
0
  6
CENTER
 62
     1
 10
769.9967499121334
 20
1848.702629817251
 30
0.0
 11
769.9967499121335
 21
1963.906121408689
 31
0.0
  0
LINE
  5
2B5
  8
0
  6
CONTINUOUS
 62
     7
 10
787.4418904174323
 20
1680.888300372737
 30
0.0
 11
787.4418904174095
 21
1675.138558111546
 31
0.0
  0
LINE
  5
2B6
  8
0
  6
CONTINUOUS
 62
   253
 10
718.4798113897082
 20
1777.757328889353
 30
0.0
 11
717.2442985366719
 21
1777.486109404198
 31
0.0
  0
LINE
  5
2B7
  8
0
  6
CONTINUOUS
 62
     7
 10
148.0969237566723
 20
1781.04609164093
 30
0.0
 11
148.096520427768
 21
1781.006511730591
 31
0.0
  0
LINE
  5
2B8
  8
0
  6
CONTINUOUS
 62
     7
 10
794.9967499121309
 20
1675.138558111456
 30
0.0
 11
793.4393340187978
 21
1675.138558111462
 31
0.0
  0
LINE
  5
2B9
  8
0
  6
CONTINUOUS
 62
     7
 10
781.7446168815471
 20
1680.888300372751
 30
0.0
 11
781.7446168815243
 21
1675.138558111561
 31
0.0
  0
ARC
  5
2BA
  8
0
  6
CONTINUOUS
 62
     7
 10
775.4967499121364
 20
1681.888300372723
 30
0.0
 40
0.9999999999998899
 50
89.99999999986004
 51
179.9999999997717
  0
ARC
  5
2BB
  8
0
  6
CONTINUOUS
 62
     7
 10
793.9967499121336
 20
1671.761092032317
 30
0.0
 40
0.9999999999998899
 50
270.0
 51
0.0
  0
ARC
  5
2BC
  8
0
  6
CONTINUOUS
 62
     7
 10
745.9967499121336
 20
1671.761092032317
 30
0.0
 40
0.9999999999998899
 50
180.0
 51
270.0
  0
LINE
  5
2BD
  8
0
  6
CONTINUOUS
 62
     7
 10
789.3650476593725
 20
1681.888300372728
 30
0.0
 11
790.0548449264902
 21
1681.888300372725
 31
0.0
  0
LINE
  5
2BE
  8
0
  6
CONTINUOUS
 62
     7
 10
793.4393340188219
 20
1680.888300372712
 30
0.0
 11
793.4393340187991
 21
1675.138558111522
 31
0.0
  0
LINE
  5
2BF
  8
0
  6
CONTINUOUS
 62
     7
 10
771.7026341114719
 20
1673.991108073289
 30
0.0
 11
771.7026447702103
 21
1674.004636878751
 31
0.0
  0
ARC
  5
2C0
  8
0
  6
CONTINUOUS
 62
     7
 10
773.9968553821863
 20
1680.888315932024
 30
0.0
 40
0.9999844407051484
 50
90.00000006217445
 51
135.0000782840403
  0
LINE
  5
2C1
  8
0
  6
CONTINUOUS
 62
     7
 10
787.4418904174323
 20
1680.888300372737
 30
0.0
 11
789.0962713934035
 21
1681.88830037273
 31
0.0
  0
ARC
  5
2C2
  8
0
  6
CONTINUOUS
 62
     7
 10
745.9967499121336
 20
1741.761092032318
 30
0.0
 40
1.000000000000112
 50
90.0
 51
180.0
  0
LINE
  5
2C3
  8
0
  6
CONTINUOUS
 62
     7
 10
778.7241953703576
 20
1681.888300372711
 30
0.0
 11
779.3191548416193
 21
1681.888300372708
 31
0.0
  0
LINE
  5
2C4
  8
0
  6
CONTINUOUS
 62
     7
 10
717.1933269536937
 20
1781.109668225382
 30
0.0
 11
716.9030761990343
 21
1781.04609161445
 31
0.0
  0
LINE
  5
2C5
  8
0
  6
CONTINUOUS
 62
     7
 10
146.2768616451791
 20
1782.192684514083
 30
0.0
 11
43.7296385305931
 21
1782.192684514083
 31
0.0
  0
LINE
  5
2C6
  8
0
  6
CONTINUOUS
 62
     7
 10
42.10035927503058
 20
1777.483069872556
 30
0.0
 11
52.70701184579848
 21
1764.434556072039
 31
0.0
  0
LINE
  5
2C7
  8
0
  6
CONTINUOUS
 62
     7
 10
424.304955599821
 20
1761.891663768555
 30
0.0
 11
438.1889912448061
 21
1764.339793853884
 31
0.0
  0
LINE
  5
2C8
  8
0
  6
CONTINUOUS
 62
     7
 10
775.4967499121466
 20
1682.888300372723
 30
0.0
 11
794.996749912131
 21
1682.888300372646
 31
0.0
  0
LINE
  5
2C9
  8
0
  6
CONTINUOUS
 62
     7
 10
773.0222263242501
 20
1674.736634322897
 30
0.0
 11
772.9968619740521
 21
1674.736634322897
 31
0.0
  0
LINE
  5
2CA
  8
0
  6
CONTINUOUS
 62
     7
 10
789.0962713934035
 20
1681.888300372731
 30
0.0
 11
789.3650476593718
 21
1681.888300372731
 31
0.0
  0
LINE
  5
2CB
  8
0
  6
CONTINUOUS
 62
     7
 10
792.4967499121336
 20
1742.761092032317
 30
0.0
 11
791.9967499121336
 21
1742.761092032317
 31
0.0
  0
LINE
  5
2CC
  8
0
  6
CONTINUOUS
 62
     7
 10
774.3330627705886
 20
1681.888300372734
 30
0.0
 11
774.6018390365568
 21
1681.888300372734
 31
0.0
  0
LINE
  5
2CD
  8
0
  6
CONTINUOUS
 62
     7
 10
773.9968553822007
 20
1681.888300372729
 30
0.0
 11
774.0207277117989
 21
1681.888300372729
 31
0.0
  0
LINE
  5
2CE
  8
0
  6
CONTINUOUS
 62
     7
 10
774.8838873550783
 20
1680.888300372739
 30
0.0
 11
774.8838873550554
 21
1675.138558111549
 31
0.0
  0
LINE
  5
2CF
  8
0
  6
CONTINUOUS
 62
     7
 10
747.9967499121336
 20
1742.761092032317
 30
0.0
 11
747.4967499121336
 21
1742.761092032317
 31
0.0
  0
ARC
  5
2D0
  8
0
  6
CONTINUOUS
 62
     7
 10
793.9967499121336
 20
1741.761092032318
 30
0.0
 40
0.9999999999994458
 50
0.0
 51
90.0
  0
LINE
  5
2D1
  8
0
  6
CONTINUOUS
 62
     7
 10
777.3799487732084
 20
1675.138558111526
 30
0.0
 11
774.8838873550682
 21
1675.138558111536
 31
0.0
  0
ARC
  5
2D2
  8
0
  6
CONTINUOUS
 62
     7
 10
789.7467499125044
 20
373.8870920324998
 30
0.0
 40
15.00000000000007
 50
177.0151345035844
 51
182.9848897977383
  0
ARC
  5
2D3
  8
0
  6
CONTINUOUS
 62
     7
 10
775.2664220304044
 20
378.5201446320002
 30
0.0
 40
0.4999999999998115
 50
91.99999984725633
 51
177.015839241969
  0
LINE
  5
2D4
  8
0
  6
CONTINUOUS
 62
     7
 10
775.2489722820682
 20
376.51034401949
 30
0.0
 11
777.3572197615098
 21
376.4367223952999
 31
0.0
  0
ARC
  5
2D5
  8
0
  6
CONTINUOUS
 62
     7
 10
789.746749912505
 20
424.3010920324998
 30
0.0
 40
15.00000000000012
 50
179.9999999999983
 51
182.9848897977366
  0
ARC
  5
2D6
  8
0
  6
CONTINUOUS
 62
     7
 10
775.2664220304047
 20
396.4000394330002
 30
0.0
 40
0.4999999999999655
 50
182.9848897976502
 51
268.0000000018531
  0
ARC
  5
2D7
  8
0
  6
CONTINUOUS
 62
     7
 10
775.2664220304048
 20
419.6680394330002
 30
0.0
 40
0.4999999999999539
 50
182.9848897976248
 51
268.0000000014881
  0
ARC
  5
2D8
  8
0
  6
CONTINUOUS
 62
     7
 10
789.7467499125048
 20
404.9110920325
 30
0.0
 40
15.00000000000008
 50
177.0151345035834
 51
182.9848897977375
  0
LINE
  5
2D9
  8
0
  6
CONTINUOUS
 62
     7
 10
777.3572197615068
 20
410.1174616697941
 30
0.0
 11
775.2489722820648
 21
410.0438400456024
 31
0.0
  0
ARC
  5
2DA
  8
0
  6
CONTINUOUS
 62
     7
 10
789.7467499125048
 20
412.6670920324999
 30
0.0
 40
15.00000000000007
 50
177.0151345035844
 51
182.9848897977383
  0
ARC
  5
2DB
  8
0
  6
CONTINUOUS
 62
     7
 10
775.2664220304047
 20
394.032144632
 30
0.0
 40
0.5000000000001547
 50
91.99999984692398
 51
177.0158392419812
  0
ARC
  5
2DC
  8
0
  6
CONTINUOUS
 62
     7
 10
789.7467499125044
 20
381.6430920324999
 30
0.0
 40
14.99999999999985
 50
177.015134503584
 51
182.9848897977381
  0
ARC
  5
2DD
  8
0
  6
CONTINUOUS
 62
     7
 10
775.2664220304044
 20
390.1541446319999
 30
0.0
 40
0.5000000000001468
 50
91.99999984689856
 51
177.0158392419648
  0
ARC
  5
2DE
  8
0
  6
CONTINUOUS
 62
     7
 10
775.2664220304047
 20
392.5220394330003
 30
0.0
 40
0.5000000000001873
 50
182.9848897976487
 51
268.0000000018516
  0
LINE
  5
2DF
  8
0
  6
CONTINUOUS
 62
     7
 10
777.3572197615061
 20
386.849461669794
 30
0.0
 11
775.2489722820641
 21
386.7758400456021
 31
0.0
  0
LINE
  5
2E0
  8
0
  6
CONTINUOUS
 62
     7
 10
775.2489722820682
 20
388.1443440194899
 30
0.0
 11
777.3572197615036
 21
388.0707223953
 31
0.0
  0
LINE
  5
2E1
  8
0
  6
CONTINUOUS
 62
     7
 10
775.2489722820687
 20
411.41234401949
 30
0.0
 11
777.3572197615042
 21
411.3387223953001
 31
0.0
  0
ARC
  5
2E2
  8
0
  6
CONTINUOUS
 62
     7
 10
789.7467499125044
 20
385.5210920324997
 30
0.0
 40
14.99999999999986
 50
177.0151345035834
 51
182.9848897977373
  0
ARC
  5
2E3
  8
0
  6
CONTINUOUS
 62
     7
 10
775.2664220304044
 20
380.888039433
 30
0.0
 40
0.4999999999999424
 50
182.9848897975994
 51
268.0000000014422
  0
LINE
  5
2E4
  8
0
  6
CONTINUOUS
 62
     7
 10
777.3572197615061
 20
379.0934616697942
 30
0.0
 11
775.248972282064
 21
379.0198400456023
 31
0.0
  0
ARC
  5
2E5
  8
0
  6
CONTINUOUS
 62
     7
 10
775.2664220304048
 20
413.4221446320002
 30
0.0
 40
0.4999999999998193
 50
91.99999984728176
 51
177.015839241974
  0
ARC
  5
2E6
  8
0
  6
CONTINUOUS
 62
     7
 10
775.2664220304048
 20
417.300144632
 30
0.0
 40
0.5000000000000412
 50
91.99999984728089
 51
177.0158392419731
  0
ARC
  5
2E7
  8
0
  6
CONTINUOUS
 62
     7
 10
789.7467499125044
 20
377.7650920324999
 30
0.0
 40
15.00000000000007
 50
177.0151345035844
 51
182.9848897977383
  0
ARC
  5
2E8
  8
0
  6
CONTINUOUS
 62
     7
 10
775.266422030405
 20
421.1781446320001
 30
0.0
 40
0.5000000000000412
 50
91.99999984728089
 51
177.0158392419731
  0
ARC
  5
2E9
  8
0
  6
CONTINUOUS
 62
     7
 10
775.2664220304048
 20
415.7900394330004
 30
0.0
 40
0.4999999999999655
 50
182.9848897976502
 51
268.0000000018531
  0
LINE
  5
2EA
  8
0
  6
CONTINUOUS
 62
     7
 10
775.2489722820682
 20
380.3883440194903
 30
0.0
 11
777.35721976151
 21
380.3147223953001
 31
0.0
  0
LINE
  5
2EB
  8
0
  6
CONTINUOUS
 62
     7
 10
777.3572197615066
 20
394.6054616697939
 30
0.0
 11
775.2489722820708
 21
394.5318400456024
 31
0.0
  0
LINE
  5
2EC
  8
0
  6
CONTINUOUS
 62
     7
 10
776.979369863036
 20
522.5662181016274
 30
0.0
 11
776.1307245083489
 21
522.8452737595617
 31
0.0
  0
ARC
  5
2ED
  8
0
  6
CONTINUOUS
 62
     7
 10
789.7467499125046
 20
393.2770920325
 30
0.0
 40
15.00000000000006
 50
177.015134503585
 51
182.9848897977392
  0
ARC
  5
2EE
  8
0
  6
CONTINUOUS
 62
     7
 10
789.7467499125048
 20
416.5450920325001
 30
0.0
 40
15.00000000000006
 50
177.015134503585
 51
182.9848897977392
  0
ARC
  5
2EF
  8
0
  6
CONTINUOUS
 62
     7
 10
775.2664220304047
 20
401.7881446320003
 30
0.0
 40
0.4999999999998115
 50
91.99999984725633
 51
177.0158392419485
  0
LINE
  5
2F0
  8
0
  6
CONTINUOUS
 62
     7
 10
777.3572197615061
 20
375.2154616697941
 30
0.0
 11
775.2489722820641
 21
375.1418400456024
 31
0.0
  0
ARC
  5
2F1
  8
0
  6
CONTINUOUS
 62
     7
 10
789.7467499125046
 20
397.1550920325001
 30
0.0
 40
15.00000000000007
 50
177.0151345035844
 51
182.9848897977383
  0
LINE
  5
2F2
  8
0
  6
CONTINUOUS
 62
     7
 10
777.3572197615064
 20
390.7274616697941
 30
0.0
 11
775.2489722820643
 21
390.6538400456022
 31
0.0
  0
LINE
  5
2F3
  8
0
  6
CONTINUOUS
 62
     7
 10
777.3572197615061
 20
382.971461669794
 30
0.0
 11
775.2489722820641
 21
382.8978400456023
 31
0.0
  0
ARC
  5
2F4
  8
0
  6
CONTINUOUS
 62
     7
 10
775.2664220304047
 20
400.2780394330002
 30
0.0
 40
0.4999999999999539
 50
182.9848897976248
 51
268.0000000014882
  0
LINE
  5
2F5
  8
0
  6
CONTINUOUS
 62
     7
 10
775.2489722820685
 20
395.9003440194903
 30
0.0
 11
777.3572197615105
 21
395.8267223953001
 31
0.0
  0
LINE
  5
2F6
  8
0
  6
CONTINUOUS
 62
     7
 10
777.3572197615066
 20
398.483461669794
 30
0.0
 11
775.2489722820645
 21
398.4098400456021
 31
0.0
  0
ARC
  5
2F7
  8
0
  6
CONTINUOUS
 62
     7
 10
789.7467499125046
 20
389.3990920325
 30
0.0
 40
15.00000000000006
 50
177.015134503585
 51
182.9848897977383
  0
LINE
  5
2F8
  8
0
  6
CONTINUOUS
 62
     7
 10
775.2489722820685
 20
399.7783440194901
 30
0.0
 11
777.3572197615104
 21
399.7047223953
 31
0.0
  0
LINE
  5
2F9
  8
0
  6
CONTINUOUS
 62
     7
 10
777.3572197615066
 20
402.361461669794
 30
0.0
 11
775.2489722820645
 21
402.2878400456021
 31
0.0
  0
ARC
  5
2FA
  8
0
  6
CONTINUOUS
 62
     7
 10
775.2664220304044
 20
382.398144632
 30
0.0
 40
0.5000000000000334
 50
91.99999984725545
 51
177.0158392419681
  0
ARC
  5
2FB
  8
0
  6
CONTINUOUS
 62
     7
 10
775.2664220304048
 20
411.9120394330001
 30
0.0
 40
0.4999999999999539
 50
182.9848897976248
 51
268.0000000018277
  0
LINE
  5
2FC
  8
0
  6
CONTINUOUS
 62
     7
 10
775.2489722820685
 20
403.6563440194901
 30
0.0
 11
777.3572197615041
 21
403.5827223953001
 31
0.0
  0
ARC
  5
2FD
  8
0
  6
CONTINUOUS
 62
     7
 10
775.2664220304047
 20
404.156039433
 30
0.0
 40
0.4999999999999424
 50
182.9848897975994
 51
268.0000000018277
  0
ARC
  5
2FE
  8
0
  6
CONTINUOUS
 62
     7
 10
775.2664220304044
 20
373.1320394330001
 30
0.0
 40
0.5000000000001756
 50
182.9848897976233
 51
268.0000000018056
  0
LINE
  5
2FF
  8
0
  6
CONTINUOUS
 62
     7
 10
775.2489722820682
 20
384.2663440194899
 30
0.0
 11
777.3572197615035
 21
384.1927223952999
 31
0.0
  0
LINE
  5
300
  8
0
  6
CONTINUOUS
 62
     7
 10
777.3572197615068
 20
406.2394616697943
 30
0.0
 11
775.2489722820646
 21
406.1658400456024
 31
0.0
  0
ARC
  5
301
  8
0
  6
CONTINUOUS
 62
     7
 10
775.266422030405
 20
423.5460394330003
 30
0.0
 40
0.5000000000001756
 50
182.9848897976233
 51
268.0000000018516
  0
ARC
  5
302
  8
0
  6
CONTINUOUS
 62
     7
 10
789.746749912505
 20
420.4230920325002
 30
0.0
 40
15.00000000000006
 50
177.015134503585
 51
182.9848897977392
  0
ARC
  5
303
  8
0
  6
CONTINUOUS
 62
     7
 10
775.2664220304044
 20
384.766039433
 30
0.0
 40
0.4999999999999424
 50
182.9848897975994
 51
268.0000000018072
  0
ARC
  5
304
  8
0
  6
CONTINUOUS
 62
     7
 10
775.2664220304044
 20
388.6440394330003
 30
0.0
 40
0.4999999999999539
 50
182.9848897976248
 51
268.0000000018326
  0
LINE
  5
305
  8
0
  6
CONTINUOUS
 62
     7
 10
775.2489722820685
 20
392.0223440194902
 30
0.0
 11
777.3572197615041
 21
391.9487223953003
 31
0.0
  0
ARC
  5
306
  8
0
  6
CONTINUOUS
 62
     7
 10
775.2664220304044
 20
374.6421446320002
 30
0.0
 40
0.4999999999999248
 50
91.99999984689944
 51
177.015839241977
  0
ARC
  5
307
  8
0
  6
CONTINUOUS
 62
     7
 10
775.2664220304047
 20
409.5441446320002
 30
0.0
 40
0.4999999999999248
 50
91.99999984689944
 51
177.0158392419567
  0
ARC
  5
308
  8
0
  6
CONTINUOUS
 62
     7
 10
775.2664220304047
 20
408.0340394330001
 30
0.0
 40
0.4999999999997206
 50
182.9848897976006
 51
268.000000001829
  0
ARC
  5
309
  8
0
  6
CONTINUOUS
 62
     7
 10
789.7467499125048
 20
408.7890920324998
 30
0.0
 40
15.00000000000007
 50
177.0151345035844
 51
182.9848897977377
  0
ARC
  5
30A
  8
0
  6
CONTINUOUS
 62
     7
 10
775.2664220304044
 20
386.2761446320001
 30
0.0
 40
0.5000000000000334
 50
91.99999984725545
 51
177.0158392419681
  0
ARC
  5
30B
  8
0
  6
CONTINUOUS
 62
     7
 10
789.7467499125048
 20
401.0330920324999
 30
0.0
 40
15.00000000000007
 50
177.0151345035844
 51
182.9848897977383
  0
ARC
  5
30C
  8
0
  6
CONTINUOUS
 62
     7
 10
775.2664220304044
 20
377.0100394330004
 30
0.0
 40
0.4999999999999655
 50
182.9848897976502
 51
268.0000000018326
  0
ARC
  5
30D
  8
0
  6
CONTINUOUS
 62
     7
 10
775.2664220304047
 20
397.9101446320003
 30
0.0
 40
0.5000000000000412
 50
91.99999984728089
 51
177.0158392419731
  0
LINE
  5
30E
  8
0
  6
CONTINUOUS
 62
     7
 10
775.2489722820682
 20
372.6323440194899
 30
0.0
 11
775.9052496058555
 21
372.6094263103655
 31
0.0
  0
ARC
  5
30F
  8
0
  6
CONTINUOUS
 62
     7
 10
775.2664220304047
 20
405.6661446320003
 30
0.0
 40
0.4999999999998115
 50
91.99999984725633
 51
177.0158392419485
  0
LINE
  5
310
  8
0
  6
CONTINUOUS
 62
     7
 10
775.2489722820685
 20
407.5343440194899
 30
0.0
 11
777.3572197615041
 21
407.4607223953001
 31
0.0
  0
ARC
  5
311
  8
0
  6
CONTINUOUS
 62
     7
 10
789.7467499125044
 20
463.0810920324998
 30
0.0
 40
14.99999999999986
 50
177.0151345035834
 51
182.9848897977373
  0
ARC
  5
312
  8
0
  6
CONTINUOUS
 62
     7
 10
789.7467499125046
 20
466.9590920325001
 30
0.0
 40
15.00000000000007
 50
177.0151345035844
 51
182.9848897977377
  0
ARC
  5
313
  8
0
  6
CONTINUOUS
 62
     7
 10
777.3467499125051
 20
418.1732789179001
 30
0.0
 40
0.299999999999967
 50
271.9999999980546
 51
0.0
  0
ARC
  5
314
  8
0
  6
CONTINUOUS
 62
     7
 10
777.3467499125044
 20
383.2712789179001
 30
0.0
 40
0.299999999999967
 50
271.9999999980559
 51
0.0
  0
LINE
  5
315
  8
0
  6
CONTINUOUS
 62
     7
 10
777.6467499125048
 20
411.0389051472
 30
0.0
 11
777.6467499125048
 21
410.4172789179001
 31
0.0
  0
ARC
  5
316
  8
0
  6
CONTINUOUS
 62
     7
 10
777.3467499125051
 20
422.0512789179002
 30
0.0
 40
0.299999999999967
 50
271.9999999980546
 51
0.0
  0
ARC
  5
317
  8
0
  6
CONTINUOUS
 62
     7
 10
777.3467499125051
 20
422.6729051472004
 30
0.0
 40
0.2999999999998167
 50
0.0000000000053433
 51
87.99999998495366
  0
ARC
  5
318
  8
0
  6
CONTINUOUS
 62
     7
 10
789.7467499125046
 20
470.8370920324999
 30
0.0
 40
15.00000000000007
 50
177.0151345035844
 51
182.9848897977383
  0
ARC
  5
319
  8
0
  6
CONTINUOUS
 62
     7
 10
777.3467499125044
 20
376.1369051472
 30
0.0
 40
0.3000000000000386
 50
0.000000000005457
 51
87.99999998495514
  0
ARC
  5
31A
  8
0
  6
CONTINUOUS
 62
     7
 10
789.7467499125046
 20
474.7150920325001
 30
0.0
 40
15.00000000000007
 50
177.0151345035844
 51
182.9848897977383
  0
ARC
  5
31B
  8
0
  6
CONTINUOUS
 62
     7
 10
777.3467499125046
 20
387.7709051472002
 30
0.0
 40
0.3000000000000386
 50
0.000000000005457
 51
87.99999998495514
  0
LINE
  5
31C
  8
0
  6
CONTINUOUS
 62
     7
 10
777.6467499125048
 20
407.1609051472001
 30
0.0
 11
777.6467499125048
 21
406.5392789179
 31
0.0
  0
LINE
  5
31D
  8
0
  6
CONTINUOUS
 62
     7
 10
777.6467499125046
 20
387.7709051472002
 30
0.0
 11
777.6467499125044
 21
387.1492789178999
 31
0.0
  0
ARC
  5
31E
  8
0
  6
CONTINUOUS
 62
     7
 10
789.7467499125048
 20
482.4710920325001
 30
0.0
 40
15.00000000000008
 50
177.0151345035834
 51
182.9848897977375
  0
LINE
  5
31F
  8
0
  6
CONTINUOUS
 62
     7
 10
777.6467499125046
 20
395.5269051472002
 30
0.0
 11
777.6467499125046
 21
394.9052789179001
 31
0.0
  0
ARC
  5
320
  8
0
  6
CONTINUOUS
 62
     7
 10
789.7467499125041
 20
443.6910920325003
 30
0.0
 40
15.00000000000006
 50
177.015134503585
 51
182.9848897977392
  0
LINE
  5
321
  8
0
  6
CONTINUOUS
 62
     7
 10
777.6467499125048
 20
399.4049051472001
 30
0.0
 11
777.6467499125048
 21
398.7832789179001
 31
0.0
  0
ARC
  5
322
  8
0
  6
CONTINUOUS
 62
     7
 10
789.7467499125041
 20
432.0570920325001
 30
0.0
 40
15.00000000000006
 50
177.015134503585
 51
182.9848897977383
  0
ARC
  5
323
  8
0
  6
CONTINUOUS
 62
     7
 10
777.3467499125048
 20
407.1609051472001
 30
0.0
 40
0.3000000000000386
 50
0.0000000000068212
 51
87.99999998495514
  0
ARC
  5
324
  8
0
  6
CONTINUOUS
 62
     7
 10
789.7467499125048
 20
486.3490920325001
 30
0.0
 40
15.00000000000006
 50
177.015134503585
 51
182.9848897977383
  0
ARC
  5
325
  8
0
  6
CONTINUOUS
 62
     7
 10
789.7467499125048
 20
494.1050920325002
 30
0.0
 40
15.00000000000007
 50
177.0151345035844
 51
182.9848897977383
  0
ARC
  5
326
  8
0
  6
CONTINUOUS
 62
     7
 10
777.3467499125046
 20
398.7832789179001
 30
0.0
 40
0.300000000000189
 50
271.9999999980543
 51
0.0
  0
ARC
  5
327
  8
0
  6
CONTINUOUS
 62
     7
 10
777.3467499125051
 20
418.7949051472001
 30
0.0
 40
0.3000000000000386
 50
0.0000000000068212
 51
87.99999998495514
  0
ARC
  5
328
  8
0
  6
CONTINUOUS
 62
     7
 10
789.7467499125041
 20
435.9350920324999
 30
0.0
 40
15.00000000000007
 50
177.0151345035844
 51
182.9848897977383
  0
ARC
  5
329
  8
0
  6
CONTINUOUS
 62
     7
 10
789.7467499125041
 20
439.8130920325
 30
0.0
 40
15.00000000000008
 50
177.0151345035834
 51
182.9848897977375
  0
ARC
  5
32A
  8
0
  6
CONTINUOUS
 62
     7
 10
789.7467499125044
 20
451.4470920324999
 30
0.0
 40
15.00000000000007
 50
177.0151345035844
 51
182.9848897977383
  0
ARC
  5
32B
  8
0
  6
CONTINUOUS
 62
     7
 10
777.3467499125044
 20
379.3932789179003
 30
0.0
 40
0.299999999999967
 50
271.9999999980559
 51
0.0
  0
ARC
  5
32C
  8
0
  6
CONTINUOUS
 62
     7
 10
777.3467499125046
 20
399.4049051472001
 30
0.0
 40
0.3000000000000386
 50
0.0000000000068212
 51
87.99999998495514
  0
LINE
  5
32D
  8
0
  6
CONTINUOUS
 62
     7
 10
777.3572197615068
 20
421.751461669794
 30
0.0
 11
775.2489722820648
 21
421.6778400456021
 31
0.0
  0
ARC
  5
32E
  8
0
  6
CONTINUOUS
 62
     7
 10
777.3467499125046
 20
387.1492789178999
 30
0.0
 40
0.299999999999967
 50
271.9999999986644
 51
0.0
  0
ARC
  5
32F
  8
0
  6
CONTINUOUS
 62
     7
 10
777.3467499125048
 20
411.0389051472
 30
0.0
 40
0.2999999999999302
 50
359.9999999999919
 51
87.99999998554847
  0
LINE
  5
330
  8
0
  6
CONTINUOUS
 62
     7
 10
777.6467499125048
 20
414.9169051472
 30
0.0
 11
777.6467499125048
 21
414.2952789179001
 31
0.0
  0
ARC
  5
331
  8
0
  6
CONTINUOUS
 62
     7
 10
789.7467499125044
 20
459.2030920325002
 30
0.0
 40
14.99999999999984
 50
177.015134503585
 51
182.984889797739
  0
ARC
  5
332
  8
0
  6
CONTINUOUS
 62
     7
 10
789.7467499125048
 20
490.2270920324999
 30
0.0
 40
15.00000000000007
 50
177.0151345035844
 51
182.9848897977383
  0
LINE
  5
333
  8
0
  6
CONTINUOUS
 62
     7
 10
777.6467499125048
 20
403.2829051472001
 30
0.0
 11
777.6467499125048
 21
402.6612789179002
 31
0.0
  0
ARC
  5
334
  8
0
  6
CONTINUOUS
 62
     7
 10
777.3467499125046
 20
394.9052789179
 30
0.0
 40
0.299999999999967
 50
271.9999999980546
 51
0.0
  0
ARC
  5
335
  8
0
  6
CONTINUOUS
 62
     7
 10
789.7467499125048
 20
478.5930920325
 30
0.0
 40
15.00000000000007
 50
177.0151345035844
 51
182.9848897977383
  0
ARC
  5
336
  8
0
  6
CONTINUOUS
 62
     7
 10
777.3467499125046
 20
395.5269051472002
 30
0.0
 40
0.2999999999998167
 50
0.0000000000053433
 51
87.99999998495366
  0
LINE
  5
337
  8
0
  6
CONTINUOUS
 62
     7
 10
777.6467499125043
 20
383.8929051472001
 30
0.0
 11
777.6467499125043
 21
383.2712789179
 31
0.0
  0
LINE
  5
338
  8
0
  6
CONTINUOUS
 62
     7
 10
777.3572197615068
 20
413.9954616697939
 30
0.0
 11
775.2489722820646
 21
413.921840045602
 31
0.0
  0
LINE
  5
339
  8
0
  6
CONTINUOUS
 62
     7
 10
775.2489722820687
 20
423.0463440194902
 30
0.0
 11
777.3572197615043
 21
422.9727223953003
 31
0.0
  0
ARC
  5
33A
  8
0
  6
CONTINUOUS
 62
     7
 10
777.3467499125046
 20
403.2829051472001
 30
0.0
 40
0.3000000000000386
 50
0.0000000000071623
 51
87.99999998495514
  0
LINE
  5
33B
  8
0
  6
CONTINUOUS
 62
     7
 10
777.646749912505
 20
418.7949051472001
 30
0.0
 11
777.646749912505
 21
418.1732789179
 31
0.0
  0
LINE
  5
33C
  8
0
  6
CONTINUOUS
 62
     7
 10
775.2489722820687
 20
415.29034401949
 30
0.0
 11
777.3572197615107
 21
415.2167223952999
 31
0.0
  0
LINE
  5
33D
  8
0
  6
CONTINUOUS
 62
     7
 10
777.3572197615068
 20
417.873461669794
 30
0.0
 11
775.2489722820648
 21
417.7998400456023
 31
0.0
  0
LINE
  5
33E
  8
0
  6
CONTINUOUS
 62
     7
 10
777.646749912505
 20
422.6729051472004
 30
0.0
 11
777.646749912505
 21
422.0512789179003
 31
0.0
  0
LINE
  5
33F
  8
0
  6
CONTINUOUS
 62
     7
 10
775.2489722820687
 20
419.1683440194903
 30
0.0
 11
777.3572197615105
 21
419.0947223953002
 31
0.0
  0
ARC
  5
340
  8
0
  6
CONTINUOUS
 62
     7
 10
777.3467499125046
 20
391.6489051472
 30
0.0
 40
0.3000000000001443
 50
0.0000000000361524
 51
87.99999998559235
  0
ARC
  5
341
  8
0
  6
CONTINUOUS
 62
     7
 10
777.3467499125044
 20
380.0149051472
 30
0.0
 40
0.3000000000000386
 50
0.000000000005457
 51
87.99999998495514
  0
ARC
  5
342
  8
0
  6
CONTINUOUS
 62
     7
 10
777.3467499125048
 20
406.5392789179
 30
0.0
 40
0.299999999999967
 50
271.999999998663
 51
0.0
  0
LINE
  5
343
  8
0
  6
CONTINUOUS
 62
     7
 10
777.6467499125043
 20
376.1369051472
 30
0.0
 11
777.6467499125043
 21
375.5152789179001
 31
0.0
  0
ARC
  5
344
  8
0
  6
CONTINUOUS
 62
     7
 10
777.3467499125048
 20
414.2952789179001
 30
0.0
 40
0.299999999999967
 50
271.9999999980546
 51
0.0
  0
LINE
  5
345
  8
0
  6
CONTINUOUS
 62
     7
 10
777.6467499125046
 20
391.6489051472
 30
0.0
 11
777.6467499125046
 21
391.0272789178999
 31
0.0
  0
ARC
  5
346
  8
0
  6
CONTINUOUS
 62
     7
 10
777.3467499125044
 20
383.8929051472001
 30
0.0
 40
0.3000000000000386
 50
0.000000000005457
 51
87.99999998495514
  0
ARC
  5
347
  8
0
  6
CONTINUOUS
 62
     7
 10
777.3467499125048
 20
414.9169051472
 30
0.0
 40
0.3000000000000386
 50
0.0000000000068212
 51
87.99999998495514
  0
ARC
  5
348
  8
0
  6
CONTINUOUS
 62
     7
 10
789.7467499125039
 20
424.3010920325002
 30
0.0
 40
15.00000000000007
 50
177.0151345035844
 51
179.9999999999995
  0
ARC
  5
349
  8
0
  6
CONTINUOUS
 62
     7
 10
777.3467499125044
 20
375.5152789179
 30
0.0
 40
0.299999999999967
 50
271.9999999986644
 51
0.0
  0
ARC
  5
34A
  8
0
  6
CONTINUOUS
 62
     7
 10
777.3467499125046
 20
391.0272789179
 30
0.0
 40
0.299999999999967
 50
271.999999998663
 51
0.0
  0
ARC
  5
34B
  8
0
  6
CONTINUOUS
 62
     7
 10
789.7467499125044
 20
447.5690920325001
 30
0.0
 40
15.00000000000007
 50
177.0151345035844
 51
182.9848897977377
  0
ARC
  5
34C
  8
0
  6
CONTINUOUS
 62
     7
 10
789.7467499125044
 20
455.3250920324999
 30
0.0
 40
15.00000000000007
 50
177.0151345035844
 51
182.9848897977383
  0
ARC
  5
34D
  8
0
  6
CONTINUOUS
 62
     7
 10
777.3467499125046
 20
402.6612789179001
 30
0.0
 40
0.300000000000189
 50
271.9999999980546
 51
0.0
  0
LINE
  5
34E
  8
0
  6
CONTINUOUS
 62
     7
 10
777.6467499125043
 20
380.0149051472
 30
0.0
 11
777.6467499125043
 21
379.3932789179001
 31
0.0
  0
ARC
  5
34F
  8
0
  6
CONTINUOUS
 62
     7
 10
777.3467499125048
 20
410.4172789179
 30
0.0
 40
0.299999999999967
 50
271.999999998663
 51
0.0
  0
ARC
  5
350
  8
0
  6
CONTINUOUS
 62
     7
 10
789.7467499125041
 20
428.1790920325
 30
0.0
 40
15.00000000000008
 50
177.0151345035834
 51
182.9848897977375
  0
ARC
  5
351
  8
0
  6
CONTINUOUS
 62
     7
 10
775.2664220304044
 20
459.9581446320001
 30
0.0
 40
0.5000000000000179
 50
91.99999984720459
 51
177.0158392419604
  0
ARC
  5
352
  8
0
  6
CONTINUOUS
 62
     7
 10
775.2664220304047
 20
475.4701446320003
 30
0.0
 40
0.5000000000000179
 50
91.99999984720459
 51
177.0158392419604
  0
ARC
  5
353
  8
0
  6
CONTINUOUS
 62
     7
 10
775.2664220304044
 20
458.448039433
 30
0.0
 40
0.4999999999999424
 50
182.9848897975994
 51
268.000000001399
  0
ARC
  5
354
  8
0
  6
CONTINUOUS
 62
     7
 10
775.2664220304044
 20
467.7141446320002
 30
0.0
 40
0.4999999999999095
 50
91.99999984684858
 51
177.0158392419694
  0
LINE
  5
355
  8
0
  6
CONTINUOUS
 62
     7
 10
775.2489722820679
 20
454.0703440194901
 30
0.0
 11
777.3572197615097
 21
453.9967223953
 31
0.0
  0
LINE
  5
356
  8
0
  6
CONTINUOUS
 62
     7
 10
777.3572197615064
 20
460.5314616697941
 30
0.0
 11
775.2489722820643
 21
460.4578400456023
 31
0.0
  0
LINE
  5
357
  8
0
  6
CONTINUOUS
 62
     7
 10
775.2489722820679
 20
461.82634401949
 30
0.0
 11
777.3572197615034
 21
461.7527223953002
 31
0.0
  0
ARC
  5
358
  8
0
  6
CONTINUOUS
 62
     7
 10
775.266422030405
 20
498.7381446320002
 30
0.0
 40
0.5000000000000256
 50
91.99999984723004
 51
177.0158392419859
  0
ARC
  5
359
  8
0
  6
CONTINUOUS
 62
     7
 10
775.2664220304047
 20
471.592144632
 30
0.0
 40
0.5000000000001315
 50
91.9999998468477
 51
177.0158392419686
  0
ARC
  5
35A
  8
0
  6
CONTINUOUS
 62
     7
 10
775.2664220304044
 20
456.0801446320003
 30
0.0
 40
0.4999999999998039
 50
91.9999998472309
 51
177.0158392419867
  0
ARC
  5
35B
  8
0
  6
CONTINUOUS
 62
     7
 10
775.2664220304044
 20
463.8361446320002
 30
0.0
 40
0.5000000000000179
 50
91.99999984720459
 51
177.0158392419604
  0
ARC
  5
35C
  8
0
  6
CONTINUOUS
 62
     7
 10
775.2664220304047
 20
479.3481446320001
 30
0.0
 40
0.5000000000000179
 50
91.99999984720459
 51
177.0158392419604
  0
ARC
  5
35D
  8
0
  6
CONTINUOUS
 62
     7
 10
775.2664220304044
 20
454.5700394330004
 30
0.0
 40
0.4999999999999539
 50
182.9848897976248
 51
268.000000001764
  0
LINE
  5
35E
  8
0
  6
CONTINUOUS
 62
     7
 10
777.3572197615059
 20
425.6294616697941
 30
0.0
 11
775.2489722820638
 21
425.5558400456022
 31
0.0
  0
ARC
  5
35F
  8
0
  6
CONTINUOUS
 62
     7
 10
775.2664220304044
 20
462.3260394330003
 30
0.0
 40
0.4999999999999424
 50
182.9848897975994
 51
268.000000001764
  0
LINE
  5
360
  8
0
  6
CONTINUOUS
 62
     7
 10
777.3572197615061
 20
441.1414616697941
 30
0.0
 11
775.248972282064
 21
441.0678400456021
 31
0.0
  0
LINE
  5
361
  8
0
  6
CONTINUOUS
 62
     7
 10
777.3572197615064
 20
464.4094616697941
 30
0.0
 11
775.2489722820642
 21
464.3358400456024
 31
0.0
  0
ARC
  5
362
  8
0
  6
CONTINUOUS
 62
     7
 10
775.2664220304048
 20
493.3500394330002
 30
0.0
 40
0.4999999999999539
 50
182.9848897976248
 51
268.000000001764
  0
ARC
  5
363
  8
0
  6
CONTINUOUS
 62
     7
 10
775.2664220304044
 20
448.3241446320004
 30
0.0
 40
0.4999999999998193
 50
91.99999984728176
 51
177.0158392419994
  0
ARC
  5
364
  8
0
  6
CONTINUOUS
 62
     7
 10
775.2664220304048
 20
490.9821446320003
 30
0.0
 40
0.4999999999997958
 50
91.99999984720547
 51
177.0158392419613
  0
ARC
  5
365
  8
0
  6
CONTINUOUS
 62
     7
 10
775.2664220304048
 20
489.4720394330004
 30
0.0
 40
0.4999999999999655
 50
182.9848897976502
 51
268.0000000017894
  0
ARC
  5
366
  8
0
  6
CONTINUOUS
 62
     7
 10
775.266422030404
 20
432.812144632
 30
0.0
 40
0.4999999999999248
 50
91.99999984689944
 51
177.0158392419567
  0
ARC
  5
367
  8
0
  6
CONTINUOUS
 62
     7
 10
775.2664220304044
 20
450.6920394330002
 30
0.0
 40
0.5000000000001756
 50
182.9848897976233
 51
268.0000000018263
  0
LINE
  5
368
  8
0
  6
CONTINUOUS
 62
     7
 10
775.2489722820679
 20
434.6803440194901
 30
0.0
 11
777.3572197615034
 21
434.6067223953002
 31
0.0
  0
LINE
  5
369
  8
0
  6
CONTINUOUS
 62
     7
 10
777.3572197615061
 20
437.263461669794
 30
0.0
 11
775.2489722820641
 21
437.1898400456021
 31
0.0
  0
LINE
  5
36A
  8
0
  6
CONTINUOUS
 62
     7
 10
775.2489722820682
 20
465.7043440194902
 30
0.0
 11
777.3572197615035
 21
465.6307223953002
 31
0.0
  0
ARC
  5
36B
  8
0
  6
CONTINUOUS
 62
     7
 10
775.266422030404
 20
436.6901446320003
 30
0.0
 40
0.4999999999998115
 50
91.99999984725633
 51
177.0158392419485
  0
LINE
  5
36C
  8
0
  6
CONTINUOUS
 62
     7
 10
775.2489722820682
 20
450.1923440194902
 30
0.0
 11
777.3572197615036
 21
450.1187223953002
 31
0.0
  0
ARC
  5
36D
  8
0
  6
CONTINUOUS
 62
     7
 10
775.2664220304042
 20
446.8140394330003
 30
0.0
 40
0.4999999999999655
 50
182.9848897976502
 51
268.0000000018786
  0
LINE
  5
36E
  8
0
  6
CONTINUOUS
 62
     7
 10
777.3572197615064
 20
452.7754616697942
 30
0.0
 11
775.2489722820642
 21
452.7018400456025
 31
0.0
  0
ARC
  5
36F
  8
0
  6
CONTINUOUS
 62
     7
 10
775.266422030404
 20
431.3020394330002
 30
0.0
 40
0.4999999999999424
 50
182.9848897975994
 51
268.0000000018277
  0
LINE
  5
370
  8
0
  6
CONTINUOUS
 62
     7
 10
777.3572197615064
 20
456.6534616697942
 30
0.0
 11
775.2489722820643
 21
456.5798400456022
 31
0.0
  0
LINE
  5
371
  8
0
  6
CONTINUOUS
 62
     7
 10
775.2489722820679
 20
457.9483440194904
 30
0.0
 11
777.3572197615097
 21
457.8747223953
 31
0.0
  0
ARC
  5
372
  8
0
  6
CONTINUOUS
 62
     7
 10
775.266422030404
 20
435.1800394330002
 30
0.0
 40
0.4999999999999655
 50
182.9848897976502
 51
268.0000000018531
  0
ARC
  5
373
  8
0
  6
CONTINUOUS
 62
     7
 10
775.2664220304042
 20
439.058039433
 30
0.0
 40
0.5000000000001641
 50
182.9848897975978
 51
268.0000000014611
  0
ARC
  5
374
  8
0
  6
CONTINUOUS
 62
     7
 10
775.266422030404
 20
425.0561446320004
 30
0.0
 40
0.5000000000000412
 50
91.99999984728089
 51
177.0158392419731
  0
ARC
  5
375
  8
0
  6
CONTINUOUS
 62
     7
 10
775.2664220304044
 20
466.2040394330002
 30
0.0
 40
0.4999999999999424
 50
182.9848897975994
 51
268.000000001764
  0
ARC
  5
376
  8
0
  6
CONTINUOUS
 62
     7
 10
775.266422030404
 20
428.9341446320004
 30
0.0
 40
0.4999999999998115
 50
91.99999984725633
 51
177.0158392419485
  0
ARC
  5
377
  8
0
  6
CONTINUOUS
 62
     7
 10
775.2664220304047
 20
483.2261446320004
 30
0.0
 40
0.4999999999997958
 50
91.99999984720547
 51
177.0158392419613
  0
ARC
  5
378
  8
0
  6
CONTINUOUS
 62
     7
 10
775.2664220304042
 20
444.4461446320001
 30
0.0
 40
0.5000000000000412
 50
91.99999984728089
 51
177.0158392419731
  0
ARC
  5
379
  8
0
  6
CONTINUOUS
 62
     7
 10
775.2664220304042
 20
442.9360394330003
 30
0.0
 40
0.5000000000001756
 50
182.9848897976233
 51
268.0000000014867
  0
ARC
  5
37A
  8
0
  6
CONTINUOUS
 62
     7
 10
775.2664220304044
 20
452.202144632
 30
0.0
 40
0.4999999999999327
 50
91.99999984692487
 51
177.0158392419821
  0
ARC
  5
37B
  8
0
  6
CONTINUOUS
 62
     7
 10
775.2664220304047
 20
487.104144632
 30
0.0
 40
0.4999999999999017
 50
91.99999984682316
 51
177.015839241944
  0
ARC
  5
37C
  8
0
  6
CONTINUOUS
 62
     7
 10
775.2664220304047
 20
477.8380394330003
 30
0.0
 40
0.4999999999999424
 50
182.9848897975994
 51
268.000000001399
  0
ARC
  5
37D
  8
0
  6
CONTINUOUS
 62
     7
 10
775.2664220304047
 20
485.5940394330001
 30
0.0
 40
0.4999999999997206
 50
182.9848897976006
 51
268.0000000017652
  0
LINE
  5
37E
  8
0
  6
CONTINUOUS
 62
     7
 10
777.3572197615059
 20
429.5074616697941
 30
0.0
 11
775.2489722820638
 21
429.4338400456023
 31
0.0
  0
ARC
  5
37F
  8
0
  6
CONTINUOUS
 62
     7
 10
789.746749912505
 20
501.8610920324999
 30
0.0
 40
15.00000000000012
 50
179.9999999999991
 51
182.9848897977375
  0
ARC
  5
380
  8
0
  6
CONTINUOUS
 62
     7
 10
775.2664220304047
 20
473.9600394330005
 30
0.0
 40
0.4999999999999655
 50
182.9848897976502
 51
268.0000000017894
  0
ARC
  5
381
  8
0
  6
CONTINUOUS
 62
     7
 10
775.2664220304048
 20
494.8601446320004
 30
0.0
 40
0.5000000000000179
 50
91.99999984720459
 51
177.0158392419604
  0
ARC
  5
382
  8
0
  6
CONTINUOUS
 62
     7
 10
775.2664220304048
 20
497.2280394330003
 30
0.0
 40
0.4999999999999424
 50
182.9848897975994
 51
268.000000001399
  0
ARC
  5
383
  8
0
  6
CONTINUOUS
 62
     7
 10
775.266422030405
 20
501.1060394330001
 30
0.0
 40
0.5000000000001641
 50
182.9848897975978
 51
268.0000000017624
  0
LINE
  5
384
  8
0
  6
CONTINUOUS
 62
     7
 10
775.2489722820679
 20
430.8023440194902
 30
0.0
 11
777.3572197615034
 21
430.7287223953002
 31
0.0
  0
LINE
  5
385
  8
0
  6
CONTINUOUS
 62
     7
 10
777.3572197615061
 20
433.3854616697944
 30
0.0
 11
775.248972282064
 21
433.3118400456025
 31
0.0
  0
LINE
  5
386
  8
0
  6
CONTINUOUS
 62
     7
 10
775.2489722820682
 20
442.4363440194902
 30
0.0
 11
777.35721976151
 21
442.3627223953001
 31
0.0
  0
ARC
  5
387
  8
0
  6
CONTINUOUS
 62
     7
 10
775.266422030404
 20
427.4240394330003
 30
0.0
 40
0.4999999999999539
 50
182.9848897976248
 51
268.0000000018532
  0
LINE
  5
388
  8
0
  6
CONTINUOUS
 62
     7
 10
775.2489722820679
 20
426.9243440194902
 30
0.0
 11
777.3572197615033
 21
426.8507223953002
 31
0.0
  0
ARC
  5
389
  8
0
  6
CONTINUOUS
 62
     7
 10
789.746749912505
 20
497.9830920325
 30
0.0
 40
15.00000000000007
 50
177.0151345035844
 51
182.9848897977383
  0
ARC
  5
38A
  8
0
  6
CONTINUOUS
 62
     7
 10
775.2664220304047
 20
470.0820394330004
 30
0.0
 40
0.5000000000001756
 50
182.9848897976233
 51
268.0000000017624
  0
LINE
  5
38B
  8
0
  6
CONTINUOUS
 62
     7
 10
775.2489722820682
 20
438.5583440194901
 30
0.0
 11
777.3572197615098
 21
438.4847223953
 31
0.0
  0
ARC
  5
38C
  8
0
  6
CONTINUOUS
 62
     7
 10
775.2664220304047
 20
481.7160394330001
 30
0.0
 40
0.4999999999999308
 50
182.9848897975738
 51
268.0000000017385
  0
ARC
  5
38D
  8
0
  6
CONTINUOUS
 62
     7
 10
775.2664220304042
 20
440.5681446320003
 30
0.0
 40
0.5000000000000412
 50
91.99999984728089
 51
177.0158392419729
  0
LINE
  5
38E
  8
0
  6
CONTINUOUS
 62
     7
 10
777.3572197615061
 20
445.0194616697941
 30
0.0
 11
775.2489722820641
 21
444.9458400456024
 31
0.0
  0
LINE
  5
38F
  8
0
  6
CONTINUOUS
 62
     7
 10
775.2489722820682
 20
446.3143440194902
 30
0.0
 11
777.3572197615035
 21
446.2407223953002
 31
0.0
  0
LINE
  5
390
  8
0
  6
CONTINUOUS
 62
     7
 10
777.3572197615061
 20
448.8974616697944
 30
0.0
 11
775.2489722820641
 21
448.8238400456024
 31
0.0
  0
LINE
  5
391
  8
0
  6
CONTINUOUS
 62
     7
 10
775.2489722820685
 20
496.7283440194902
 30
0.0
 11
777.3572197615104
 21
496.6547223953001
 31
0.0
  0
ARC
  5
392
  8
0
  6
CONTINUOUS
 62
     7
 10
777.3467499125042
 20
449.8189051472
 30
0.0
 40
0.2999999999999302
 50
359.9999999999919
 51
87.99999998554847
  0
ARC
  5
393
  8
0
  6
CONTINUOUS
 62
     7
 10
777.3467499125042
 20
445.3192789179002
 30
0.0
 40
0.300000000000189
 50
271.9999999980546
 51
0.0
  0
ARC
  5
394
  8
0
  6
CONTINUOUS
 62
     7
 10
777.3467499125051
 20
499.6112789179002
 30
0.0
 40
0.299999999999967
 50
271.9999999980546
 51
0.0
  0
LINE
  5
395
  8
0
  6
CONTINUOUS
 62
     7
 10
777.3572197615066
 20
476.0434616697943
 30
0.0
 11
775.2489722820645
 21
475.9698400456023
 31
0.0
  0
ARC
  5
396
  8
0
  6
CONTINUOUS
 62
     7
 10
777.3467499125039
 20
426.5509051472002
 30
0.0
 40
0.3000000000000386
 50
0.0000000000068212
 51
87.99999998495514
  0
LINE
  5
397
  8
0
  6
CONTINUOUS
 62
     7
 10
775.2489722820685
 20
500.6063440194902
 30
0.0
 11
777.3572197615041
 21
500.5327223953002
 31
0.0
  0
ARC
  5
398
  8
0
  6
CONTINUOUS
 62
     7
 10
777.3467499125048
 20
487.9772789179001
 30
0.0
 40
0.299999999999967
 50
271.999999998663
 51
0.0
  0
ARC
  5
399
  8
0
  6
CONTINUOUS
 62
     7
 10
777.3467499125051
 20
500.2329051472004
 30
0.0
 40
0.2999999999998167
 50
0.0000000000053433
 51
87.99999998495366
  0
LINE
  5
39A
  8
0
  6
CONTINUOUS
 62
     7
 10
775.2489722820682
 20
469.5823440194901
 30
0.0
 11
777.3572197615036
 21
469.5087223953003
 31
0.0
  0
ARC
  5
39B
  8
0
  6
CONTINUOUS
 62
     7
 10
777.3467499125042
 20
442.0629051472001
 30
0.0
 40
0.3000000000002605
 50
0.0000000000086402
 51
87.99999998495662
  0
LINE
  5
39C
  8
0
  6
CONTINUOUS
 62
     7
 10
777.6467499125039
 20
426.5509051472002
 30
0.0
 11
777.6467499125039
 21
425.9292789179003
 31
0.0
  0
ARC
  5
39D
  8
0
  6
CONTINUOUS
 62
     7
 10
777.3467499125039
 20
425.9292789179002
 30
0.0
 40
0.299999999999967
 50
271.9999999980546
 51
0.0
  0
LINE
  5
39E
  8
0
  6
CONTINUOUS
 62
     7
 10
777.6467499125039
 20
430.4289051472002
 30
0.0
 11
777.6467499125039
 21
429.8072789179
 31
0.0
  0
ARC
  5
39F
  8
0
  6
CONTINUOUS
 62
     7
 10
777.3467499125042
 20
445.9409051472002
 30
0.0
 40
0.3000000000000386
 50
0.0000000000068212
 51
87.99999998495514
  0
LINE
  5
3A0
  8
0
  6
CONTINUOUS
 62
     7
 10
775.2489722820683
 20
488.9723440194901
 30
0.0
 11
777.3572197615039
 21
488.8987223953003
 31
0.0
  0
LINE
  5
3A1
  8
0
  6
CONTINUOUS
 62
     7
 10
777.6467499125039
 20
434.3069051472
 30
0.0
 11
777.6467499125039
 21
433.6852789179001
 31
0.0
  0
LINE
  5
3A2
  8
0
  6
CONTINUOUS
 62
     7
 10
777.6467499125041
 20
438.1849051472001
 30
0.0
 11
777.6467499125041
 21
437.5632789179002
 31
0.0
  0
LINE
  5
3A3
  8
0
  6
CONTINUOUS
 62
     7
 10
777.6467499125041
 20
442.0629051472001
 30
0.0
 11
777.6467499125041
 21
441.4412789179003
 31
0.0
  0
ARC
  5
3A4
  8
0
  6
CONTINUOUS
 62
     7
 10
777.3467499125044
 20
461.4529051472002
 30
0.0
 40
0.3000000000000386
 50
0.0000000000068212
 51
87.99999998495514
  0
ARC
  5
3A5
  8
0
  6
CONTINUOUS
 62
     7
 10
777.3467499125046
 20
464.7092789179002
 30
0.0
 40
0.299999999999967
 50
271.999999998663
 51
0.0
  0
ARC
  5
3A6
  8
0
  6
CONTINUOUS
 62
     7
 10
777.3467499125042
 20
441.4412789179002
 30
0.0
 40
0.299999999999967
 50
271.9999999980546
 51
0.0
  0
ARC
  5
3A7
  8
0
  6
CONTINUOUS
 62
     7
 10
777.3467499125046
 20
465.3309051472004
 30
0.0
 40
0.2999999999998167
 50
0.0000000000053433
 51
87.99999998495366
  0
LINE
  5
3A8
  8
0
  6
CONTINUOUS
 62
     7
 10
777.3572197615068
 20
483.7994616697944
 30
0.0
 11
775.2489722820646
 21
483.7258400456024
 31
0.0
  0
ARC
  5
3A9
  8
0
  6
CONTINUOUS
 62
     7
 10
777.3467499125048
 20
488.5989051472001
 30
0.0
 40
0.2999999999999302
 50
359.9999999999919
 51
87.99999998554847
  0
LINE
  5
3AA
  8
0
  6
CONTINUOUS
 62
     7
 10
777.6467499125043
 20
445.9409051472002
 30
0.0
 11
777.6467499125043
 21
445.3192789179003
 31
0.0
  0
LINE
  5
3AB
  8
0
  6
CONTINUOUS
 62
     7
 10
775.2489722820683
 20
485.09434401949
 30
0.0
 11
777.3572197615038
 21
485.0207223953
 31
0.0
  0
ARC
  5
3AC
  8
0
  6
CONTINUOUS
 62
     7
 10
777.3467499125046
 20
480.2212789179002
 30
0.0
 40
0.300000000000189
 50
271.9999999980546
 51
0.0
  0
ARC
  5
3AD
  8
0
  6
CONTINUOUS
 62
     7
 10
777.3467499125042
 20
438.1849051472001
 30
0.0
 40
0.3000000000000386
 50
0.0000000000068212
 51
87.99999998495514
  0
LINE
  5
3AE
  8
0
  6
CONTINUOUS
 62
     7
 10
777.3572197615064
 20
468.2874616697942
 30
0.0
 11
775.2489722820643
 21
468.2138400456022
 31
0.0
  0
LINE
  5
3AF
  8
0
  6
CONTINUOUS
 62
     7
 10
775.2489722820682
 20
477.3383440194904
 30
0.0
 11
777.3572197615099
 21
477.2647223953003
 31
0.0
  0
LINE
  5
3B0
  8
0
  6
CONTINUOUS
 62
     7
 10
777.3572197615066
 20
472.165461669794
 30
0.0
 11
775.2489722820708
 21
472.0918400456026
 31
0.0
  0
ARC
  5
3B1
  8
0
  6
CONTINUOUS
 62
     7
 10
777.3467499125044
 20
453.0752789179001
 30
0.0
 40
0.299999999999967
 50
271.999999998663
 51
0.0
  0
ARC
  5
3B2
  8
0
  6
CONTINUOUS
 62
     7
 10
777.3467499125042
 20
434.3069051472
 30
0.0
 40
0.2999999999999302
 50
359.9999999999919
 51
87.99999998554847
  0
LINE
  5
3B3
  8
0
  6
CONTINUOUS
 62
     7
 10
777.3572197615068
 20
495.433461669794
 30
0.0
 11
775.2489722820648
 21
495.3598400456024
 31
0.0
  0
ARC
  5
3B4
  8
0
  6
CONTINUOUS
 62
     7
 10
777.3467499125039
 20
429.8072789179
 30
0.0
 40
0.299999999999967
 50
271.999999998663
 51
0.0
  0
ARC
  5
3B5
  8
0
  6
CONTINUOUS
 62
     7
 10
777.3467499125044
 20
453.6969051472001
 30
0.0
 40
0.3000000000000386
 50
0.0000000000068212
 51
87.99999998495514
  0
ARC
  5
3B6
  8
0
  6
CONTINUOUS
 62
     7
 10
777.3467499125044
 20
456.9532789179004
 30
0.0
 40
0.299999999999967
 50
271.9999999980546
 51
0.0
  0
ARC
  5
3B7
  8
0
  6
CONTINUOUS
 62
     7
 10
777.3467499125046
 20
473.0869051472003
 30
0.0
 40
0.2999999999998167
 50
0.0000000000053433
 51
87.99999998495366
  0
ARC
  5
3B8
  8
0
  6
CONTINUOUS
 62
     7
 10
777.3467499125042
 20
437.5632789179002
 30
0.0
 40
0.299999999999967
 50
271.9999999980543
 51
0.0
  0
ARC
  5
3B9
  8
0
  6
CONTINUOUS
 62
     7
 10
777.3467499125046
 20
476.3432789179004
 30
0.0
 40
0.300000000000189
 50
271.9999999980543
 51
0.0
  0
ARC
  5
3BA
  8
0
  6
CONTINUOUS
 62
     7
 10
777.3467499125046
 20
476.9649051472001
 30
0.0
 40
0.3000000000000386
 50
0.0000000000068212
 51
87.99999998495514
  0
ARC
  5
3BB
  8
0
  6
CONTINUOUS
 62
     7
 10
777.3467499125048
 20
484.0992789179001
 30
0.0
 40
0.299999999999967
 50
271.999999998663
 51
0.0
  0
ARC
  5
3BC
  8
0
  6
CONTINUOUS
 62
     7
 10
777.3467499125039
 20
430.4289051472002
 30
0.0
 40
0.3000000000000386
 50
0.0000000000068212
 51
87.99999998495514
  0
LINE
  5
3BD
  8
0
  6
CONTINUOUS
 62
     7
 10
777.3572197615066
 20
479.9214616697941
 30
0.0
 11
775.2489722820645
 21
479.8478400456024
 31
0.0
  0
ARC
  5
3BE
  8
0
  6
CONTINUOUS
 62
     7
 10
777.3467499125046
 20
468.5872789179001
 30
0.0
 40
0.299999999999967
 50
271.999999998663
 51
0.0
  0
ARC
  5
3BF
  8
0
  6
CONTINUOUS
 62
     7
 10
777.3467499125048
 20
484.7209051472002
 30
0.0
 40
0.3000000000000386
 50
0.0000000000068212
 51
87.99999998495514
  0
ARC
  5
3C0
  8
0
  6
CONTINUOUS
 62
     7
 10
777.3467499125048
 20
491.8552789179004
 30
0.0
 40
0.299999999999967
 50
271.9999999980546
 51
0.0
  0
ARC
  5
3C1
  8
0
  6
CONTINUOUS
 62
     7
 10
777.3467499125051
 20
495.7332789179002
 30
0.0
 40
0.299999999999967
 50
271.9999999980546
 51
0.0
  0
ARC
  5
3C2
  8
0
  6
CONTINUOUS
 62
     7
 10
777.3467499125051
 20
496.3549051472002
 30
0.0
 40
0.3000000000000386
 50
0.0000000000068212
 51
87.99999998495514
  0
ARC
  5
3C3
  8
0
  6
CONTINUOUS
 62
     7
 10
777.3467499125046
 20
480.8429051472002
 30
0.0
 40
0.3000000000000386
 50
0.0000000000071623
 51
87.99999998495514
  0
LINE
  5
3C4
  8
0
  6
CONTINUOUS
 62
     7
 10
777.3572197615068
 20
487.6774616697942
 30
0.0
 11
775.2489722820648
 21
487.6038400456025
 31
0.0
  0
LINE
  5
3C5
  8
0
  6
CONTINUOUS
 62
     7
 10
775.2489722820683
 20
492.8503440194904
 30
0.0
 11
777.3572197615102
 21
492.7767223953
 31
0.0
  0
LINE
  5
3C6
  8
0
  6
CONTINUOUS
 62
     7
 10
775.2489722820682
 20
481.2163440194902
 30
0.0
 11
777.3572197615036
 21
481.1427223953002
 31
0.0
  0
LINE
  5
3C7
  8
0
  6
CONTINUOUS
 62
     7
 10
777.3572197615068
 20
499.3114616697941
 30
0.0
 11
775.2489722820648
 21
499.2378400456024
 31
0.0
  0
ARC
  5
3C8
  8
0
  6
CONTINUOUS
 62
     7
 10
777.3467499125042
 20
433.6852789179001
 30
0.0
 40
0.2999999999997449
 50
271.999999998663
 51
0.0
  0
LINE
  5
3C9
  8
0
  6
CONTINUOUS
 62
     7
 10
777.3572197615068
 20
491.5554616697942
 30
0.0
 11
775.2489722820646
 21
491.4818400456022
 31
0.0
  0
ARC
  5
3CA
  8
0
  6
CONTINUOUS
 62
     7
 10
777.3467499125042
 20
449.1972789179003
 30
0.0
 40
0.300000000000189
 50
271.9999999986627
 51
0.0
  0
LINE
  5
3CB
  8
0
  6
CONTINUOUS
 62
     7
 10
775.2489722820682
 20
473.4603440194903
 30
0.0
 11
777.35721976151
 21
473.3867223953
 31
0.0
  0
ARC
  5
3CC
  8
0
  6
CONTINUOUS
 62
     7
 10
777.3467499125044
 20
460.8312789179002
 30
0.0
 40
0.299999999999967
 50
271.9999999980546
 51
0.0
  0
ARC
  5
3CD
  8
0
  6
CONTINUOUS
 62
     7
 10
777.3467499125046
 20
469.2089051472
 30
0.0
 40
0.2999999999999224
 50
0.0000000000346745
 51
87.99999998559086
  0
ARC
  5
3CE
  8
0
  6
CONTINUOUS
 62
     7
 10
777.3467499125046
 20
472.4652789179002
 30
0.0
 40
0.299999999999967
 50
271.9999999980546
 51
0.0
  0
ARC
  5
3CF
  8
0
  6
CONTINUOUS
 62
     7
 10
777.3467499125044
 20
457.5749051472001
 30
0.0
 40
0.3000000000000386
 50
0.0000000000068212
 51
87.99999998495514
  0
ARC
  5
3D0
  8
0
  6
CONTINUOUS
 62
     7
 10
777.3467499125048
 20
492.4769051472003
 30
0.0
 40
0.2999999999995948
 50
0.0000000000038654
 51
87.9999999849522
  0
ARC
  5
3D1
  8
0
  6
CONTINUOUS
 62
     7
 10
789.7467499125046
 20
544.5190920324999
 30
0.0
 40
15.00000000000006
 50
177.015134503585
 51
182.9848897977383
  0
LINE
  5
3D2
  8
0
  6
CONTINUOUS
 62
     7
 10
777.6467499125048
 20
488.5989051472001
 30
0.0
 11
777.6467499125048
 21
487.9772789179002
 31
0.0
  0
LINE
  5
3D3
  8
0
  6
CONTINUOUS
 62
     7
 10
777.646749912505
 20
496.3549051472002
 30
0.0
 11
777.646749912505
 21
495.7332789179002
 31
0.0
  0
LINE
  5
3D4
  8
0
  6
CONTINUOUS
 62
     7
 10
777.646749912505
 20
500.2329051472004
 30
0.0
 11
777.646749912505
 21
499.6112789179002
 31
0.0
  0
ARC
  5
3D5
  8
0
  6
CONTINUOUS
 62
     7
 10
789.7467499125039
 20
501.8610920324999
 30
0.0
 40
15.00000000000006
 50
177.015134503585
 51
180.0000000000002
  0
ARC
  5
3D6
  8
0
  6
CONTINUOUS
 62
     7
 10
789.7467499125046
 20
548.3970920324997
 30
0.0
 40
15.00000000000007
 50
177.0151345035844
 51
182.9848897977383
  0
LINE
  5
3D7
  8
0
  6
CONTINUOUS
 62
     7
 10
777.6467499125043
 20
461.4529051472002
 30
0.0
 11
777.6467499125043
 21
460.8312789179002
 31
0.0
  0
LINE
  5
3D8
  8
0
  6
CONTINUOUS
 62
     7
 10
777.6467499125046
 20
465.3309051472004
 30
0.0
 11
777.6467499125044
 21
464.7092789179002
 31
0.0
  0
LINE
  5
3D9
  8
0
  6
CONTINUOUS
 62
     7
 10
777.6467499125048
 20
480.8429051472002
 30
0.0
 11
777.6467499125048
 21
480.2212789179003
 31
0.0
  0
LINE
  5
3DA
  8
0
  6
CONTINUOUS
 62
     7
 10
777.6467499125048
 20
492.4769051472003
 30
0.0
 11
777.6467499125048
 21
491.8552789179004
 31
0.0
  0
ARC
  5
3DB
  8
0
  6
CONTINUOUS
 62
     7
 10
789.7467499125044
 20
540.6410920324996
 30
0.0
 40
14.99999999999986
 50
177.0151345035834
 51
182.9848897977373
  0
LINE
  5
3DC
  8
0
  6
CONTINUOUS
 62
     7
 10
777.6467499125043
 20
449.8189051472
 30
0.0
 11
777.6467499125043
 21
449.1972789179001
 31
0.0
  0
ARC
  5
3DD
  8
0
  6
CONTINUOUS
 62
     7
 10
789.7467499125041
 20
509.6170920325001
 30
0.0
 40
15.00000000000007
 50
177.0151345035844
 51
182.9848897977377
  0
ARC
  5
3DE
  8
0
  6
CONTINUOUS
 62
     7
 10
789.7467499125041
 20
517.3730920325
 30
0.0
 40
15.00000000000007
 50
177.0151345035844
 51
182.9848897977383
  0
LINE
  5
3DF
  8
0
  6
CONTINUOUS
 62
     7
 10
777.6467499125046
 20
473.0869051472003
 30
0.0
 11
777.6467499125046
 21
472.4652789179002
 31
0.0
  0
LINE
  5
3E0
  8
0
  6
CONTINUOUS
 62
     7
 10
777.6467499125048
 20
484.7209051472002
 30
0.0
 11
777.6467499125048
 21
484.0992789179001
 31
0.0
  0
ARC
  5
3E1
  8
0
  6
CONTINUOUS
 62
     7
 10
789.7467499125044
 20
525.1290920324999
 30
0.0
 40
15.00000000000007
 50
177.0151345035844
 51
182.9848897977377
  0
ARC
  5
3E2
  8
0
  6
CONTINUOUS
 62
     7
 10
789.7467499125041
 20
513.4950920324998
 30
0.0
 40
15.00000000000007
 50
177.0151345035844
 51
182.9848897977383
  0
ARC
  5
3E3
  8
0
  6
CONTINUOUS
 62
     7
 10
789.7467499125044
 20
532.8850920324998
 30
0.0
 40
15.00000000000007
 50
177.0151345035844
 51
182.9848897977383
  0
LINE
  5
3E4
  8
0
  6
CONTINUOUS
 62
     7
 10
777.6467499125048
 20
476.9649051472001
 30
0.0
 11
777.6467499125048
 21
476.3432789179002
 31
0.0
  0
ARC
  5
3E5
  8
0
  6
CONTINUOUS
 62
     7
 10
789.7467499125041
 20
521.2510920324999
 30
0.0
 40
15.00000000000007
 50
177.0151345035844
 51
182.9848897977383
  0
ARC
  5
3E6
  8
0
  6
CONTINUOUS
 62
     7
 10
789.7467499125044
 20
536.7630920325
 30
0.0
 40
14.99999999999985
 50
177.015134503584
 51
182.9848897977381
  0
LINE
  5
3E7
  8
0
  6
CONTINUOUS
 62
     7
 10
777.6467499125046
 20
469.2089051472
 30
0.0
 11
777.6467499125046
 21
468.5872789179001
 31
0.0
  0
LINE
  5
3E8
  8
0
  6
CONTINUOUS
 62
     7
 10
777.6467499125043
 20
453.6969051472001
 30
0.0
 11
777.6467499125043
 21
453.0752789179002
 31
0.0
  0
LINE
  5
3E9
  8
0
  6
CONTINUOUS
 62
     7
 10
777.6467499125043
 20
457.5749051472001
 30
0.0
 11
777.6467499125043
 21
456.9532789179002
 31
0.0
  0
ARC
  5
3EA
  8
0
  6
CONTINUOUS
 62
     7
 10
789.7467499125041
 20
505.7390920324997
 30
0.0
 40
15.00000000000008
 50
177.0151345035834
 51
182.9848897977375
  0
ARC
  5
3EB
  8
0
  6
CONTINUOUS
 62
     7
 10
789.7467499125044
 20
529.0070920324999
 30
0.0
 40
15.00000000000006
 50
177.015134503585
 51
182.9848897977392
  0
ARC
  5
3EC
  8
0
  6
CONTINUOUS
 62
     7
 10
87.6532500874952
 20
411.0389051472
 30
0.0
 40
0.3000000000000225
 50
92.00000001444346
 51
180.0
  0
ARC
  5
3ED
  8
0
  6
CONTINUOUS
 62
     7
 10
89.73357796959507
 20
498.7381446320002
 30
0.0
 40
0.4999999999999438
 50
2.984160758032897
 51
88.00000015278876
  0
ARC
  5
3EE
  8
0
  6
CONTINUOUS
 62
     7
 10
89.73357796959542
 20
471.592144632
 30
0.0
 40
0.5000000000000547
 50
2.984160758032286
 51
88.00000015315315
  0
LINE
  5
3EF
  8
0
  6
CONTINUOUS
 62
     7
 10
87.35325008749528
 20
406.5392789179
 30
0.0
 11
87.35325008749528
 21
407.1609051472001
 31
0.0
  0
ARC
  5
3F0
  8
0
  6
CONTINUOUS
 62
     7
 10
87.65325008749564
 20
379.3932789179003
 30
0.0
 40
0.3000000000000418
 50
180.0000000000057
 51
268.0000000019497
  0
ARC
  5
3F1
  8
0
  6
CONTINUOUS
 62
     7
 10
75.25325008749556
 20
463.0810920324998
 30
0.0
 40
14.99999999999998
 50
357.0151102022633
 51
2.984865496417399
  0
ARC
  5
3F2
  8
0
  6
CONTINUOUS
 62
     7
 10
75.25325008749556
 20
459.2030920325002
 30
0.0
 40
15.00000000000006
 50
357.0151102022618
 51
2.984865496415864
  0
ARC
  5
3F3
  8
0
  6
CONTINUOUS
 62
     7
 10
87.6532500874952
 20
410.4172789179
 30
0.0
 40
0.2999999999999303
 50
180.0000000000073
 51
268.0000000013442
  0
ARC
  5
3F4
  8
0
  6
CONTINUOUS
 62
     7
 10
87.65325008749546
 20
391.6489051472
 30
0.0
 40
0.3000000000000225
 50
92.0000000144438
 51
180.0
  0
ARC
  5
3F5
  8
0
  6
CONTINUOUS
 62
     7
 10
75.25325008749506
 20
497.9830920325
 30
0.0
 40
15.0
 50
357.0151102022618
 51
2.984865496415864
  0
ARC
  5
3F6
  8
0
  6
CONTINUOUS
 62
     7
 10
87.65325008749569
 20
375.5152789179
 30
0.0
 40
0.2999999999999323
 50
179.999999999998
 51
268.0000000013337
  0
LINE
  5
3F7
  8
0
  6
CONTINUOUS
 62
     7
 10
87.35325008749511
 20
418.1732789179001
 30
0.0
 11
87.35325008749511
 21
418.7949051472002
 31
0.0
  0
ARC
  5
3F8
  8
0
  6
CONTINUOUS
 62
     7
 10
75.25325008749518
 20
490.2270920324999
 30
0.0
 40
15.0
 50
357.0151102022618
 51
2.984865496415864
  0
LINE
  5
3F9
  8
0
  6
CONTINUOUS
 62
     7
 10
87.35325008749517
 20
410.4172789179
 30
0.0
 11
87.35325008749517
 21
411.0389051471999
 31
0.0
  0
ARC
  5
3FA
  8
0
  6
CONTINUOUS
 62
     7
 10
75.25325008749579
 20
447.5690920325001
 30
0.0
 40
14.99999999999992
 50
357.0151102022635
 51
2.98486549641683
  0
ARC
  5
3FB
  8
0
  6
CONTINUOUS
 62
     7
 10
75.25325008749594
 20
435.9350920324999
 30
0.0
 40
15.0
 50
357.0151102022618
 51
2.984865496415864
  0
ARC
  5
3FC
  8
0
  6
CONTINUOUS
 62
     7
 10
89.73357796959513
 20
494.8601446320004
 30
0.0
 40
0.4999999999999992
 50
2.98416075803253
 51
88.00000015278837
  0
ARC
  5
3FD
  8
0
  6
CONTINUOUS
 62
     7
 10
87.65325008749525
 20
406.5392789179
 30
0.0
 40
0.2999999999999303
 50
180.0000000000073
 51
268.0000000013442
  0
ARC
  5
3FE
  8
0
  6
CONTINUOUS
 62
     7
 10
87.65325008749541
 20
395.5269051472002
 30
0.0
 40
0.3000000000000225
 50
92.0000000150517
 51
180.0
  0
ARC
  5
3FF
  8
0
  6
CONTINUOUS
 62
     7
 10
89.73357796959513
 20
490.9821446320003
 30
0.0
 40
0.5000000000000547
 50
2.984160758032286
 51
88.00000015278813
  0
ARC
  5
400
  8
0
  6
CONTINUOUS
 62
     7
 10
89.73357796959536
 20
479.3481446320001
 30
0.0
 40
0.4999999999999438
 50
2.984160758032897
 51
88.00000015278873
  0
ARC
  5
401
  8
0
  6
CONTINUOUS
 62
     7
 10
75.25325008749539
 20
474.7150920325001
 30
0.0
 40
15.0
 50
357.0151102022618
 51
2.984865496415864
  0
ARC
  5
402
  8
0
  6
CONTINUOUS
 62
     7
 10
87.65325008749514
 20
414.2952789179001
 30
0.0
 40
0.3000000000000418
 50
180.0000000000043
 51
268.0000000019497
  0
ARC
  5
403
  8
0
  6
CONTINUOUS
 62
     7
 10
87.65325008749569
 20
376.1369051472
 30
0.0
 40
0.3000000000000225
 50
92.00000001505032
 51
180.0
  0
ARC
  5
404
  8
0
  6
CONTINUOUS
 62
     7
 10
87.65325008749546
 20
387.7709051472002
 30
0.0
 40
0.299999999999967
 50
92.00000001505032
 51
180.0
  0
LINE
  5
405
  8
0
  6
CONTINUOUS
 62
     7
 10
87.35325008749506
 20
422.0512789179002
 30
0.0
 11
87.35325008749506
 21
422.6729051472003
 31
0.0
  0
LINE
  5
406
  8
0
  6
CONTINUOUS
 62
     7
 10
87.35325008749545
 20
391.0272789179
 30
0.0
 11
87.35325008749545
 21
391.6489051472001
 31
0.0
  0
LINE
  5
407
  8
0
  6
CONTINUOUS
 62
     7
 10
87.3532500874955
 20
387.1492789178999
 30
0.0
 11
87.3532500874955
 21
387.7709051472002
 31
0.0
  0
ARC
  5
408
  8
0
  6
CONTINUOUS
 62
     7
 10
75.25325008749539
 20
478.5930920325
 30
0.0
 40
14.99999999999993
 50
357.0151102022626
 51
2.984865496416717
  0
ARC
  5
409
  8
0
  6
CONTINUOUS
 62
     7
 10
75.253250087496
 20
432.0570920325001
 30
0.0
 40
14.99999999999993
 50
357.0151102022626
 51
2.984865496415978
  0
ARC
  5
40A
  8
0
  6
CONTINUOUS
 62
     7
 10
75.25325008749527
 20
482.4710920325001
 30
0.0
 40
15.00000000000005
 50
357.0151102022625
 51
2.984865496416546
  0
ARC
  5
40B
  8
0
  6
CONTINUOUS
 62
     7
 10
75.25325008749606
 20
424.3010920325002
 30
0.0
 40
15.00000000000001
 50
0.0000000000008481
 51
2.984865496415989
  0
ARC
  5
40C
  8
0
  6
CONTINUOUS
 62
     7
 10
87.65325008749525
 20
403.2829051472001
 30
0.0
 40
0.2999999999999114
 50
92.00000001505204
 51
180.0
  0
ARC
  5
40D
  8
0
  6
CONTINUOUS
 62
     7
 10
87.65325008749558
 20
387.1492789178999
 30
0.0
 40
0.2999999999999323
 50
179.999999999998
 51
268.0000000013337
  0
ARC
  5
40E
  8
0
  6
CONTINUOUS
 62
     7
 10
87.65325008749525
 20
402.6612789179001
 30
0.0
 40
0.3000000000000418
 50
180.0000000000043
 51
268.0000000019497
  0
LINE
  5
40F
  8
0
  6
CONTINUOUS
 62
     7
 10
87.35325008749561
 20
383.2712789179001
 30
0.0
 11
87.35325008749561
 21
383.8929051472002
 31
0.0
  0
ARC
  5
410
  8
0
  6
CONTINUOUS
 62
     7
 10
87.65325008749541
 20
394.9052789179
 30
0.0
 40
0.2999999999998199
 50
180.0000000000027
 51
268.0000000019481
  0
ARC
  5
411
  8
0
  6
CONTINUOUS
 62
     7
 10
87.65325008749564
 20
380.0149051472
 30
0.0
 40
0.3000000000000225
 50
92.00000001505032
 51
180.0
  0
ARC
  5
412
  8
0
  6
CONTINUOUS
 62
     7
 10
87.65325008749525
 20
407.1609051472001
 30
0.0
 40
0.299999999999967
 50
92.0000000150517
 51
180.0
  0
ARC
  5
413
  8
0
  6
CONTINUOUS
 62
     7
 10
75.25325008749506
 20
494.1050920325002
 30
0.0
 40
15.00000000000006
 50
357.0151102022618
 51
2.984865496415864
  0
LINE
  5
414
  8
0
  6
CONTINUOUS
 62
     7
 10
87.35325008749567
 20
375.5152789179
 30
0.0
 11
87.35325008749567
 21
376.1369051471999
 31
0.0
  0
ARC
  5
415
  8
0
  6
CONTINUOUS
 62
     7
 10
75.25325008749579
 20
443.6910920325003
 30
0.0
 40
15.0
 50
357.0151102022618
 51
2.984865496415864
  0
ARC
  5
416
  8
0
  6
CONTINUOUS
 62
     7
 10
75.25325008749584
 20
439.8130920325
 30
0.0
 40
15.00000000000006
 50
357.0151102022618
 51
2.984865496415864
  0
ARC
  5
417
  8
0
  6
CONTINUOUS
 62
     7
 10
75.25325008749606
 20
428.1790920325
 30
0.0
 40
14.99999999999994
 50
357.0151102022619
 51
2.984865496415978
  0
ARC
  5
418
  8
0
  6
CONTINUOUS
 62
     7
 10
87.65325008749535
 20
398.7832789179001
 30
0.0
 40
0.3000000000000418
 50
180.000000000004
 51
268.0000000019497
  0
ARC
  5
419
  8
0
  6
CONTINUOUS
 62
     7
 10
89.73357796959525
 20
487.104144632
 30
0.0
 40
0.4999999999999992
 50
2.98416075803253
 51
88.00000015315342
  0
ARC
  5
41A
  8
0
  6
CONTINUOUS
 62
     7
 10
75.25325008749545
 20
470.8370920324999
 30
0.0
 40
15.0
 50
357.0151102022618
 51
2.984865496415864
  0
ARC
  5
41B
  8
0
  6
CONTINUOUS
 62
     7
 10
87.65325008749514
 20
414.9169051472
 30
0.0
 40
0.3000000000000225
 50
92.0000000150517
 51
180.0
  0
ARC
  5
41C
  8
0
  6
CONTINUOUS
 62
     7
 10
87.65325008749535
 20
399.4049051472001
 30
0.0
 40
0.299999999999967
 50
92.0000000150517
 51
180.0
  0
ARC
  5
41D
  8
0
  6
CONTINUOUS
 62
     7
 10
87.65325008749558
 20
383.8929051472001
 30
0.0
 40
0.299999999999967
 50
92.00000001505032
 51
180.0
  0
LINE
  5
41E
  8
0
  6
CONTINUOUS
 62
     7
 10
87.35325008749534
 20
402.6612789179001
 30
0.0
 11
87.35325008749534
 21
403.2829051472
 31
0.0
  0
LINE
  5
41F
  8
0
  6
CONTINUOUS
 62
     7
 10
87.35325008749517
 20
414.2952789179001
 30
0.0
 11
87.3532500874951
 21
414.9169051471999
 31
0.0
  0
LINE
  5
420
  8
0
  6
CONTINUOUS
 62
     7
 10
87.3532500874954
 20
398.7832789179001
 30
0.0
 11
87.3532500874954
 21
399.4049051472
 31
0.0
  0
LINE
  5
421
  8
0
  6
CONTINUOUS
 62
     7
 10
87.3532500874954
 20
394.9052789179
 30
0.0
 11
87.3532500874954
 21
395.5269051472001
 31
0.0
  0
ARC
  5
422
  8
0
  6
CONTINUOUS
 62
     7
 10
87.65325008749546
 20
391.0272789179
 30
0.0
 40
0.2999999999999303
 50
180.0000000000073
 51
268.0000000013442
  0
LINE
  5
423
  8
0
  6
CONTINUOUS
 62
     7
 10
87.35325008749561
 20
379.3932789179003
 30
0.0
 11
87.35325008749561
 21
380.0149051472002
 31
0.0
  0
ARC
  5
424
  8
0
  6
CONTINUOUS
 62
     7
 10
75.253250087495
 20
501.8610920324999
 30
0.0
 40
15.00000000000005
 50
357.0151102022625
 51
0.0000000000008527
  0
ARC
  5
425
  8
0
  6
CONTINUOUS
 62
     7
 10
75.2532500874955
 20
466.9590920325001
 30
0.0
 40
15.00000000000005
 50
357.0151102022625
 51
2.984865496415807
  0
ARC
  5
426
  8
0
  6
CONTINUOUS
 62
     7
 10
87.65325008749558
 20
383.2712789179001
 30
0.0
 40
0.2999999999998199
 50
180.000000000004
 51
268.0000000019481
  0
ARC
  5
427
  8
0
  6
CONTINUOUS
 62
     7
 10
75.25325008749562
 20
455.3250920324999
 30
0.0
 40
15.00000000000006
 50
357.0151102022618
 51
2.984865496415864
  0
ARC
  5
428
  8
0
  6
CONTINUOUS
 62
     7
 10
75.25325008749523
 20
486.3490920325001
 30
0.0
 40
14.99999999999999
 50
357.0151102022626
 51
2.984865496415978
  0
ARC
  5
429
  8
0
  6
CONTINUOUS
 62
     7
 10
75.25325008749573
 20
451.4470920324999
 30
0.0
 40
14.99999999999999
 50
357.0151102022626
 51
2.984865496416717
  0
ARC
  5
42A
  8
0
  6
CONTINUOUS
 62
     7
 10
89.7335779695953
 20
483.2261446320004
 30
0.0
 40
0.4999999999999438
 50
2.984160758032897
 51
88.00000015278876
  0
ARC
  5
42B
  8
0
  6
CONTINUOUS
 62
     7
 10
89.73357796959536
 20
475.4701446320003
 30
0.0
 40
0.4999999999999992
 50
2.98416075803253
 51
88.00000015278837
  0
ARC
  5
42C
  8
0
  6
CONTINUOUS
 62
     7
 10
89.73357796959536
 20
477.8380394330003
 30
0.0
 40
0.4999999999999379
 50
271.9999999985897
 51
357.0151102023893
  0
ARC
  5
42D
  8
0
  6
CONTINUOUS
 62
     7
 10
89.73357796959557
 20
459.9581446320001
 30
0.0
 40
0.4999999999999992
 50
2.98416075803253
 51
88.00000015278837
  0
ARC
  5
42E
  8
0
  6
CONTINUOUS
 62
     7
 10
89.7335779695953
 20
481.7160394330001
 30
0.0
 40
0.4999999999998274
 50
271.9999999982274
 51
357.0151102023921
  0
ARC
  5
42F
  8
0
  6
CONTINUOUS
 62
     7
 10
89.73357796959542
 20
470.0820394330004
 30
0.0
 40
0.5000000000002711
 50
271.9999999982256
 51
357.0151102023648
  0
ARC
  5
430
  8
0
  6
CONTINUOUS
 62
     7
 10
89.73357796959603
 20
428.9341446320004
 30
0.0
 40
0.4999999999999992
 50
2.98416075803253
 51
88.00000015272474
  0
ARC
  5
431
  8
0
  6
CONTINUOUS
 62
     7
 10
89.73357796959603
 20
425.0561446320004
 30
0.0
 40
0.5000000000000547
 50
2.984160758032286
 51
88.0000001527245
  0
ARC
  5
432
  8
0
  6
CONTINUOUS
 62
     7
 10
89.73357796959563
 20
458.448039433
 30
0.0
 40
0.5000000000001578
 50
271.9999999985826
 51
357.0151102023821
  0
ARC
  5
433
  8
0
  6
CONTINUOUS
 62
     7
 10
89.73357796959557
 20
463.8361446320002
 30
0.0
 40
0.4999999999999438
 50
2.984160758032897
 51
88.00000015278876
  0
ARC
  5
434
  8
0
  6
CONTINUOUS
 62
     7
 10
89.73357796959591
 20
439.058039433
 30
0.0
 40
0.4999999999999182
 50
271.9999999985262
 51
357.0151102023896
  0
LINE
  5
435
  8
0
  6
CONTINUOUS
 62
     7
 10
89.75102771793519
 20
499.2378400456025
 30
0.0
 11
87.64278023849307
 21
499.3114616697941
 31
0.0
  0
LINE
  5
436
  8
0
  6
CONTINUOUS
 62
     7
 10
87.6427802384898
 20
496.6547223953
 30
0.0
 11
89.75102771793158
 21
496.7283440194901
 31
0.0
  0
LINE
  5
437
  8
0
  6
CONTINUOUS
 62
     7
 10
89.7510277179353
 20
491.4818400456021
 30
0.0
 11
87.64278023849319
 21
491.5554616697941
 31
0.0
  0
LINE
  5
438
  8
0
  6
CONTINUOUS
 62
     7
 10
89.7510277179353
 20
487.6038400456025
 30
0.0
 11
87.64278023849326
 21
487.6774616697942
 31
0.0
  0
ARC
  5
439
  8
0
  6
CONTINUOUS
 62
     7
 10
89.73357796959525
 20
485.5940394330001
 30
0.0
 40
0.5000000000000492
 50
271.9999999982265
 51
357.0151102023912
  0
LINE
  5
43A
  8
0
  6
CONTINUOUS
 62
     7
 10
87.64278023849626
 20
485.0207223953001
 30
0.0
 11
89.75102771793178
 21
485.0943440194902
 31
0.0
  0
ARC
  5
43B
  8
0
  6
CONTINUOUS
 62
     7
 10
89.73357796959547
 20
467.7141446320002
 30
0.0
 40
0.5000000000000547
 50
2.984160758032286
 51
88.00000015315315
  0
ARC
  5
43C
  8
0
  6
CONTINUOUS
 62
     7
 10
89.73357796959569
 20
452.202144632
 30
0.0
 40
0.5000000000000547
 50
2.984160758032286
 51
88.00000015308952
  0
LINE
  5
43D
  8
0
  6
CONTINUOUS
 62
     7
 10
89.75102771793547
 20
479.8478400456024
 30
0.0
 11
87.64278023849336
 21
479.9214616697942
 31
0.0
  0
ARC
  5
43E
  8
0
  6
CONTINUOUS
 62
     7
 10
89.73357796959586
 20
440.5681446320003
 30
0.0
 40
0.4999999999999992
 50
2.98416075803253
 51
88.00000015272455
  0
ARC
  5
43F
  8
0
  6
CONTINUOUS
 62
     7
 10
89.7335779695958
 20
448.3241446320004
 30
0.0
 40
0.4999999999999876
 50
2.984160758007237
 51
88.00000015272488
  0
ARC
  5
440
  8
0
  6
CONTINUOUS
 62
     7
 10
89.7335779695958
 20
446.8140394330003
 30
0.0
 40
0.500000000000028
 50
271.9999999981566
 51
357.015110202385
  0
LINE
  5
441
  8
0
  6
CONTINUOUS
 62
     7
 10
87.64278023849003
 20
477.2647223953003
 30
0.0
 11
89.75102771793188
 21
477.3383440194903
 31
0.0
  0
LINE
  5
442
  8
0
  6
CONTINUOUS
 62
     7
 10
89.75102771793553
 20
475.9698400456022
 30
0.0
 11
87.6427802384934
 21
476.0434616697942
 31
0.0
  0
ARC
  5
443
  8
0
  6
CONTINUOUS
 62
     7
 10
89.73357796959502
 20
501.1060394330001
 30
0.0
 40
0.4999999999998274
 50
271.9999999982274
 51
357.0151102023921
  0
ARC
  5
444
  8
0
  6
CONTINUOUS
 62
     7
 10
89.73357796959597
 20
431.3020394330002
 30
0.0
 40
0.499999999999806
 50
271.9999999981575
 51
357.015110202386
  0
LINE
  5
445
  8
0
  6
CONTINUOUS
 62
     7
 10
87.64278023849009
 20
473.3867223953
 30
0.0
 11
89.75102771793193
 21
473.4603440194903
 31
0.0
  0
LINE
  5
446
  8
0
  6
CONTINUOUS
 62
     7
 10
87.6427802384898
 20
492.7767223953
 30
0.0
 11
89.75102771793165
 21
492.8503440194904
 31
0.0
  0
LINE
  5
447
  8
0
  6
CONTINUOUS
 62
     7
 10
89.75102771793559
 20
468.2138400456023
 30
0.0
 11
87.64278023849346
 21
468.2874616697943
 31
0.0
  0
LINE
  5
448
  8
0
  6
CONTINUOUS
 62
     7
 10
87.64278023849653
 20
465.6307223953001
 30
0.0
 11
89.75102771793206
 21
465.7043440194902
 31
0.0
  0
LINE
  5
449
  8
0
  6
CONTINUOUS
 62
     7
 10
89.7510277179358
 20
452.7018400456025
 30
0.0
 11
87.64278023849376
 21
452.7754616697943
 31
0.0
  0
ARC
  5
44A
  8
0
  6
CONTINUOUS
 62
     7
 10
89.73357796959563
 20
456.0801446320003
 30
0.0
 40
0.5000000000000547
 50
2.984160758032286
 51
88.00000015278813
  0
LINE
  5
44B
  8
0
  6
CONTINUOUS
 62
     7
 10
87.64278023849636
 20
450.1187223953002
 30
0.0
 11
89.75102771793182
 21
450.1923440194902
 31
0.0
  0
ARC
  5
44C
  8
0
  6
CONTINUOUS
 62
     7
 10
89.73357796959586
 20
444.4461446320001
 30
0.0
 40
0.4999999999999438
 50
2.984160758032897
 51
88.00000015272512
  0
LINE
  5
44D
  8
0
  6
CONTINUOUS
 62
     7
 10
87.64278023849658
 20
461.7527223953003
 30
0.0
 11
89.75102771793205
 21
461.8263440194901
 31
0.0
  0
LINE
  5
44E
  8
0
  6
CONTINUOUS
 62
     7
 10
89.75102771793586
 20
448.8238400456023
 30
0.0
 11
87.64278023849374
 21
448.8974616697943
 31
0.0
  0
LINE
  5
44F
  8
0
  6
CONTINUOUS
 62
     7
 10
87.64278023849636
 20
446.2407223953001
 30
0.0
 11
89.75102771793189
 21
446.3143440194901
 31
0.0
  0
ARC
  5
450
  8
0
  6
CONTINUOUS
 62
     7
 10
89.73357796959603
 20
427.4240394330003
 30
0.0
 40
0.500000000000028
 50
271.9999999981566
 51
357.015110202385
  0
LINE
  5
451
  8
0
  6
CONTINUOUS
 62
     7
 10
89.75102771793574
 20
460.4578400456024
 30
0.0
 11
87.64278023849363
 21
460.5314616697941
 31
0.0
  0
LINE
  5
452
  8
0
  6
CONTINUOUS
 62
     7
 10
89.75102771793574
 20
456.5798400456021
 30
0.0
 11
87.6427802384937
 21
456.6534616697941
 31
0.0
  0
LINE
  5
453
  8
0
  6
CONTINUOUS
 62
     7
 10
89.75102771793524
 20
495.3598400456024
 30
0.0
 11
87.64278023849313
 21
495.4334616697941
 31
0.0
  0
ARC
  5
454
  8
0
  6
CONTINUOUS
 62
     7
 10
89.73357796959547
 20
466.2040394330002
 30
0.0
 40
0.4999999999998295
 50
271.9999999982338
 51
357.0151102023985
  0
LINE
  5
455
  8
0
  6
CONTINUOUS
 62
     7
 10
87.64278023849626
 20
488.8987223953004
 30
0.0
 11
89.7510277179317
 21
488.9723440194902
 31
0.0
  0
LINE
  5
456
  8
0
  6
CONTINUOUS
 62
     7
 10
87.64278023849653
 20
469.5087223953004
 30
0.0
 11
89.75102771793199
 21
469.5823440194902
 31
0.0
  0
LINE
  5
457
  8
0
  6
CONTINUOUS
 62
     7
 10
89.75102771793597
 20
444.9458400456024
 30
0.0
 11
87.64278023849386
 21
445.0194616697942
 31
0.0
  0
ARC
  5
458
  8
0
  6
CONTINUOUS
 62
     7
 10
89.73357796959591
 20
436.6901446320003
 30
0.0
 40
0.4999999999999992
 50
2.98416075803253
 51
88.00000015272474
  0
LINE
  5
459
  8
0
  6
CONTINUOUS
 62
     7
 10
87.64278023849037
 20
453.9967223953
 30
0.0
 11
89.7510277179322
 21
454.0703440194901
 31
0.0
  0
LINE
  5
45A
  8
0
  6
CONTINUOUS
 62
     7
 10
89.75102771793564
 20
464.3358400456023
 30
0.0
 11
87.64278023849351
 21
464.409461669794
 31
0.0
  0
LINE
  5
45B
  8
0
  6
CONTINUOUS
 62
     7
 10
87.64278023849015
 20
442.3627223953003
 30
0.0
 11
89.75102771793192
 21
442.4363440194903
 31
0.0
  0
ARC
  5
45C
  8
0
  6
CONTINUOUS
 62
     7
 10
89.73357796959569
 20
450.6920394330002
 30
0.0
 40
0.499999999999806
 50
271.9999999981575
 51
357.0151102023605
  0
LINE
  5
45D
  8
0
  6
CONTINUOUS
 62
     7
 10
89.75102771793597
 20
441.0678400456022
 30
0.0
 11
87.64278023849393
 21
441.1414616697942
 31
0.0
  0
LINE
  5
45E
  8
0
  6
CONTINUOUS
 62
     7
 10
87.64278023849603
 20
500.5327223953001
 30
0.0
 11
89.75102771793156
 21
500.6063440194901
 31
0.0
  0
ARC
  5
45F
  8
0
  6
CONTINUOUS
 62
     7
 10
89.73357796959542
 20
473.9600394330005
 30
0.0
 40
0.5000000000000492
 50
271.9999999982265
 51
357.0151102023657
  0
ARC
  5
460
  8
0
  6
CONTINUOUS
 62
     7
 10
89.73357796959591
 20
435.1800394330002
 30
0.0
 40
0.500000000000028
 50
271.9999999981566
 51
357.0151102023595
  0
LINE
  5
461
  8
0
  6
CONTINUOUS
 62
     7
 10
89.75102771793541
 20
483.7258400456022
 30
0.0
 11
87.6427802384933
 21
483.7994616697943
 31
0.0
  0
LINE
  5
462
  8
0
  6
CONTINUOUS
 62
     7
 10
87.64278023849631
 20
481.1427223953001
 30
0.0
 11
89.75102771793183
 21
481.2163440194901
 31
0.0
  0
LINE
  5
463
  8
0
  6
CONTINUOUS
 62
     7
 10
89.75102771792919
 20
472.0918400456026
 30
0.0
 11
87.64278023849346
 21
472.165461669794
 31
0.0
  0
LINE
  5
464
  8
0
  6
CONTINUOUS
 62
     7
 10
87.64278023849026
 20
457.8747223953
 30
0.0
 11
89.7510277179321
 21
457.9483440194904
 31
0.0
  0
ARC
  5
465
  8
0
  6
CONTINUOUS
 62
     7
 10
89.73357796959586
 20
442.9360394330003
 30
0.0
 40
0.5000000000001383
 50
271.9999999985189
 51
357.0151102023823
  0
ARC
  5
466
  8
0
  6
CONTINUOUS
 62
     7
 10
89.73357796959507
 20
497.2280394330003
 30
0.0
 40
0.5000000000001578
 50
271.9999999985826
 51
357.0151102023821
  0
ARC
  5
467
  8
0
  6
CONTINUOUS
 62
     7
 10
89.73357796959569
 20
454.5700394330004
 30
0.0
 40
0.5000000000002731
 50
271.9999999982319
 51
357.0151102023711
  0
ARC
  5
468
  8
0
  6
CONTINUOUS
 62
     7
 10
89.73357796959597
 20
432.812144632
 30
0.0
 40
0.4999999999999438
 50
2.984160758032897
 51
88.00000015309011
  0
ARC
  5
469
  8
0
  6
CONTINUOUS
 62
     7
 10
89.73357796959557
 20
462.3260394330003
 30
0.0
 40
0.5000000000002711
 50
271.9999999982256
 51
357.0151102023903
  0
ARC
  5
46A
  8
0
  6
CONTINUOUS
 62
     7
 10
89.73357796959513
 20
493.3500394330002
 30
0.0
 40
0.4999999999998295
 50
271.9999999982338
 51
357.015110202373
  0
ARC
  5
46B
  8
0
  6
CONTINUOUS
 62
     7
 10
89.73357796959525
 20
489.4720394330004
 30
0.0
 40
0.5000000000002711
 50
271.9999999982256
 51
357.0151102023648
  0
LINE
  5
46C
  8
0
  6
CONTINUOUS
 62
     7
 10
87.35325008749517
 20
491.8552789179004
 30
0.0
 11
87.3532500874951
 21
492.4769051472003
 31
0.0
  0
ARC
  5
46D
  8
0
  6
CONTINUOUS
 62
     7
 10
87.6532500874952
 20
488.5989051472001
 30
0.0
 40
0.3000000000000225
 50
92.00000001444346
 51
180.0
  0
LINE
  5
46E
  8
0
  6
CONTINUOUS
 62
     7
 10
89.75102771793603
 20
437.1898400456021
 30
0.0
 11
87.64278023849397
 21
437.263461669794
 31
0.0
  0
ARC
  5
46F
  8
0
  6
CONTINUOUS
 62
     7
 10
87.65325008749596
 20
429.8072789179
 30
0.0
 40
0.2999999999999303
 50
180.0000000000073
 51
268.0000000013442
  0
ARC
  5
470
  8
0
  6
CONTINUOUS
 62
     7
 10
87.65325008749575
 20
445.9409051472002
 30
0.0
 40
0.2999999999999114
 50
92.0000000150517
 51
180.0
  0
ARC
  5
471
  8
0
  6
CONTINUOUS
 62
     7
 10
87.6532500874958
 20
442.0629051472001
 30
0.0
 40
0.299999999999967
 50
92.00000001505204
 51
180.0
  0
LINE
  5
472
  8
0
  6
CONTINUOUS
 62
     7
 10
87.35325008749545
 20
468.5872789179001
 30
0.0
 11
87.35325008749545
 21
469.2089051472
 31
0.0
  0
LINE
  5
473
  8
0
  6
CONTINUOUS
 62
     7
 10
87.3532500874955
 20
464.7092789179002
 30
0.0
 11
87.3532500874955
 21
465.3309051472004
 31
0.0
  0
ARC
  5
474
  8
0
  6
CONTINUOUS
 62
     7
 10
87.65325008749596
 20
430.4289051472002
 30
0.0
 40
0.299999999999967
 50
92.0000000150517
 51
180.0
  0
ARC
  5
475
  8
0
  6
CONTINUOUS
 62
     7
 10
87.65325008749508
 20
496.3549051472002
 30
0.0
 40
0.299999999999967
 50
92.0000000150517
 51
180.0
  0
LINE
  5
476
  8
0
  6
CONTINUOUS
 62
     7
 10
87.35325008749561
 20
460.8312789179002
 30
0.0
 11
87.35325008749561
 21
461.4529051472001
 31
0.0
  0
LINE
  5
477
  8
0
  6
CONTINUOUS
 62
     7
 10
87.35325008749567
 20
453.0752789179001
 30
0.0
 11
87.35325008749567
 21
453.6969051472
 31
0.0
  0
LINE
  5
478
  8
0
  6
CONTINUOUS
 62
     7
 10
87.35325008749584
 20
445.3192789179002
 30
0.0
 11
87.35325008749584
 21
445.9409051472001
 31
0.0
  0
LINE
  5
479
  8
0
  6
CONTINUOUS
 62
     7
 10
87.64278023849015
 20
438.4847223953
 30
0.0
 11
89.75102771793199
 21
438.5583440194902
 31
0.0
  0
LINE
  5
47A
  8
0
  6
CONTINUOUS
 62
     7
 10
87.35325008749511
 20
495.7332789179002
 30
0.0
 11
87.35325008749511
 21
496.3549051472001
 31
0.0
  0
ARC
  5
47B
  8
0
  6
CONTINUOUS
 62
     7
 10
87.65325008749508
 20
495.7332789179002
 30
0.0
 40
0.3000000000000418
 50
180.0000000000043
 51
268.0000000019497
  0
ARC
  5
47C
  8
0
  6
CONTINUOUS
 62
     7
 10
87.65325008749558
 20
460.8312789179002
 30
0.0
 40
0.3000000000000418
 50
180.0000000000043
 51
268.0000000019497
  0
ARC
  5
47D
  8
0
  6
CONTINUOUS
 62
     7
 10
87.65325008749508
 20
499.6112789179002
 30
0.0
 40
0.2999999999998199
 50
180.0000000000027
 51
268.0000000019481
  0
ARC
  5
47E
  8
0
  6
CONTINUOUS
 62
     7
 10
87.65325008749575
 20
449.1972789179003
 30
0.0
 40
0.3000000000001522
 50
180.0000000000084
 51
268.0000000013457
  0
LINE
  5
47F
  8
0
  6
CONTINUOUS
 62
     7
 10
87.6427802384967
 20
426.8507223953001
 30
0.0
 11
89.75102771793222
 21
426.92434401949
 31
0.0
  0
ARC
  5
480
  8
0
  6
CONTINUOUS
 62
     7
 10
87.65325008749525
 20
484.7209051472002
 30
0.0
 40
0.299999999999967
 50
92.0000000150517
 51
180.0
  0
ARC
  5
481
  8
0
  6
CONTINUOUS
 62
     7
 10
87.65325008749514
 20
491.8552789179004
 30
0.0
 40
0.3000000000000418
 50
180.0000000000043
 51
268.0000000019497
  0
ARC
  5
482
  8
0
  6
CONTINUOUS
 62
     7
 10
87.65325008749535
 20
476.9649051472001
 30
0.0
 40
0.299999999999967
 50
92.0000000150517
 51
180.0
  0
ARC
  5
483
  8
0
  6
CONTINUOUS
 62
     7
 10
87.65325008749546
 20
468.5872789179001
 30
0.0
 40
0.2999999999999303
 50
180.0000000000073
 51
268.0000000013442
  0
ARC
  5
484
  8
0
  6
CONTINUOUS
 62
     7
 10
87.65325008749592
 20
437.5632789179002
 30
0.0
 40
0.3000000000000418
 50
180.000000000004
 51
268.0000000019497
  0
LINE
  5
485
  8
0
  6
CONTINUOUS
 62
     7
 10
87.35325008749534
 20
480.2212789179002
 30
0.0
 11
87.35325008749534
 21
480.8429051472001
 31
0.0
  0
ARC
  5
486
  8
0
  6
CONTINUOUS
 62
     7
 10
87.65325008749564
 20
456.9532789179004
 30
0.0
 40
0.3000000000000418
 50
180.0000000000043
 51
268.0000000019497
  0
ARC
  5
487
  8
0
  6
CONTINUOUS
 62
     7
 10
87.65325008749592
 20
438.1849051472001
 30
0.0
 40
0.3000000000000225
 50
92.0000000150517
 51
180.0
  0
ARC
  5
488
  8
0
  6
CONTINUOUS
 62
     7
 10
87.65325008749596
 20
434.3069051472
 30
0.0
 40
0.3000000000000225
 50
92.00000001444346
 51
180.0
  0
LINE
  5
489
  8
0
  6
CONTINUOUS
 62
     7
 10
87.35325008749506
 20
499.6112789179002
 30
0.0
 11
87.35325008749506
 21
500.2329051472004
 31
0.0
  0
ARC
  5
48A
  8
0
  6
CONTINUOUS
 62
     7
 10
87.65325008749525
 20
480.8429051472002
 30
0.0
 40
0.2999999999999114
 50
92.00000001505204
 51
180.0
  0
LINE
  5
48B
  8
0
  6
CONTINUOUS
 62
     7
 10
87.35325008749528
 20
484.0992789179001
 30
0.0
 11
87.35325008749528
 21
484.7209051472002
 31
0.0
  0
ARC
  5
48C
  8
0
  6
CONTINUOUS
 62
     7
 10
87.65325008749546
 20
465.3309051472004
 30
0.0
 40
0.299999999999967
 50
92.0000000150517
 51
180.0
  0
ARC
  5
48D
  8
0
  6
CONTINUOUS
 62
     7
 10
87.65325008749514
 20
492.4769051472003
 30
0.0
 40
0.3000000000000225
 50
92.0000000150517
 51
180.0
  0
LINE
  5
48E
  8
0
  6
CONTINUOUS
 62
     7
 10
89.7510277179362
 20
425.5558400456022
 30
0.0
 11
87.64278023849407
 21
425.6294616697941
 31
0.0
  0
ARC
  5
48F
  8
0
  6
CONTINUOUS
 62
     7
 10
87.65325008749569
 20
453.0752789179001
 30
0.0
 40
0.2999999999999323
 50
179.9999999999967
 51
268.0000000013337
  0
ARC
  5
490
  8
0
  6
CONTINUOUS
 62
     7
 10
87.65325008749575
 20
445.3192789179002
 30
0.0
 40
0.3000000000000418
 50
180.0000000000043
 51
268.0000000019497
  0
ARC
  5
491
  8
0
  6
CONTINUOUS
 62
     7
 10
87.6532500874958
 20
441.4412789179002
 30
0.0
 40
0.3000000000000418
 50
180.0000000000043
 51
268.0000000019497
  0
LINE
  5
492
  8
0
  6
CONTINUOUS
 62
     7
 10
87.64278023849658
 20
430.7287223953001
 30
0.0
 11
89.75102771793212
 21
430.8023440194902
 31
0.0
  0
LINE
  5
493
  8
0
  6
CONTINUOUS
 62
     7
 10
89.75102771793614
 20
429.4338400456025
 30
0.0
 11
87.64278023849401
 21
429.5074616697943
 31
0.0
  0
ARC
  5
494
  8
0
  6
CONTINUOUS
 62
     7
 10
87.6532500874952
 20
487.9772789179001
 30
0.0
 40
0.2999999999999303
 50
180.0000000000073
 51
268.0000000013442
  0
ARC
  5
495
  8
0
  6
CONTINUOUS
 62
     7
 10
87.65325008749558
 20
461.4529051472002
 30
0.0
 40
0.299999999999967
 50
92.0000000150517
 51
180.0
  0
ARC
  5
496
  8
0
  6
CONTINUOUS
 62
     7
 10
87.65325008749564
 20
457.5749051472001
 30
0.0
 40
0.3000000000000225
 50
92.0000000150517
 51
180.0
  0
ARC
  5
497
  8
0
  6
CONTINUOUS
 62
     7
 10
87.65325008749602
 20
425.9292789179002
 30
0.0
 40
0.3000000000000418
 50
180.0000000000043
 51
268.0000000019497
  0
LINE
  5
498
  8
0
  6
CONTINUOUS
 62
     7
 10
87.35325008749517
 20
487.9772789179001
 30
0.0
 11
87.35325008749517
 21
488.5989051472
 31
0.0
  0
ARC
  5
499
  8
0
  6
CONTINUOUS
 62
     7
 10
87.65325008749525
 20
484.0992789179001
 30
0.0
 40
0.3000000000001522
 50
180.0000000000088
 51
268.0000000013457
  0
LINE
  5
49A
  8
0
  6
CONTINUOUS
 62
     7
 10
87.3532500874954
 20
476.3432789179004
 30
0.0
 11
87.3532500874954
 21
476.9649051472003
 31
0.0
  0
ARC
  5
49B
  8
0
  6
CONTINUOUS
 62
     7
 10
87.65325008749541
 20
472.4652789179002
 30
0.0
 40
0.2999999999998199
 50
180.0000000000027
 51
268.0000000019481
  0
ARC
  5
49C
  8
0
  6
CONTINUOUS
 62
     7
 10
87.65325008749558
 20
464.7092789179002
 30
0.0
 40
0.3000000000001541
 50
179.9999999999982
 51
268.0000000013351
  0
LINE
  5
49D
  8
0
  6
CONTINUOUS
 62
     7
 10
87.35325008749561
 20
456.9532789179004
 30
0.0
 11
87.35325008749561
 21
457.5749051472003
 31
0.0
  0
ARC
  5
49E
  8
0
  6
CONTINUOUS
 62
     7
 10
87.65325008749535
 20
476.3432789179004
 30
0.0
 40
0.3000000000000418
 50
180.000000000004
 51
268.0000000019497
  0
LINE
  5
49F
  8
0
  6
CONTINUOUS
 62
     7
 10
87.64278023849658
 20
434.6067223953002
 30
0.0
 11
89.75102771793205
 21
434.6803440194901
 31
0.0
  0
LINE
  5
4A0
  8
0
  6
CONTINUOUS
 62
     7
 10
87.35325008749572
 20
449.1972789179003
 30
0.0
 11
87.35325008749572
 21
449.8189051472002
 31
0.0
  0
LINE
  5
4A1
  8
0
  6
CONTINUOUS
 62
     7
 10
87.35325008749584
 20
441.4412789179002
 30
0.0
 11
87.35325008749584
 21
442.0629051472001
 31
0.0
  0
LINE
  5
4A2
  8
0
  6
CONTINUOUS
 62
     7
 10
87.3532500874954
 20
472.4652789179002
 30
0.0
 11
87.3532500874954
 21
473.0869051472003
 31
0.0
  0
ARC
  5
4A3
  8
0
  6
CONTINUOUS
 62
     7
 10
87.65325008749525
 20
480.2212789179002
 30
0.0
 40
0.3000000000000418
 50
180.0000000000043
 51
268.0000000019497
  0
ARC
  5
4A4
  8
0
  6
CONTINUOUS
 62
     7
 10
87.65325008749569
 20
449.8189051472
 30
0.0
 40
0.299999999999967
 50
92.00000001444346
 51
180.0
  0
ARC
  5
4A5
  8
0
  6
CONTINUOUS
 62
     7
 10
87.65325008749546
 20
469.2089051472
 30
0.0
 40
0.3000000000000225
 50
92.0000000144438
 51
180.0
  0
LINE
  5
4A6
  8
0
  6
CONTINUOUS
 62
     7
 10
89.75102771793608
 20
433.3118400456025
 30
0.0
 11
87.64278023849396
 21
433.3854616697944
 31
0.0
  0
ARC
  5
4A7
  8
0
  6
CONTINUOUS
 62
     7
 10
87.65325008749596
 20
433.6852789179001
 30
0.0
 40
0.2999999999999303
 50
180.0000000000073
 51
268.0000000013442
  0
ARC
  5
4A8
  8
0
  6
CONTINUOUS
 62
     7
 10
87.65325008749508
 20
500.2329051472004
 30
0.0
 40
0.3000000000000225
 50
92.0000000150517
 51
180.0
  0
ARC
  5
4A9
  8
0
  6
CONTINUOUS
 62
     7
 10
87.65325008749541
 20
473.0869051472003
 30
0.0
 40
0.3000000000000225
 50
92.0000000150517
 51
180.0
  0
ARC
  5
4AA
  8
0
  6
CONTINUOUS
 62
     7
 10
87.65325008749569
 20
453.6969051472001
 30
0.0
 40
0.3000000000000225
 50
92.0000000150517
 51
180.0
  0
ARC
  5
4AB
  8
0
  6
CONTINUOUS
 62
     7
 10
87.65325008749602
 20
426.5509051472002
 30
0.0
 40
0.3000000000000225
 50
92.0000000150517
 51
180.0
  0
ARC
  5
4AC
  8
0
  6
CONTINUOUS
 62
     7
 10
89.73357796959603
 20
506.4941446319999
 30
0.0
 40
0.4999999999999992
 50
2.98416075803253
 51
88.00000015278837
  0
LINE
  5
4AD
  8
0
  6
CONTINUOUS
 62
     7
 10
87.64278023849691
 20
512.1667223953002
 30
0.0
 11
89.75102771793244
 21
512.2403440194901
 31
0.0
  0
ARC
  5
4AE
  8
0
  6
CONTINUOUS
 62
     7
 10
87.6532500874958
 20
519.6229051472
 30
0.0
 40
0.299999999999967
 50
92.00000001505204
 51
180.0
  0
ARC
  5
4AF
  8
0
  6
CONTINUOUS
 62
     7
 10
89.73357796959586
 20
518.1281446320002
 30
0.0
 40
0.4999999999999992
 50
2.98416075803253
 51
88.00000015278818
  0
LINE
  5
4B0
  8
0
  6
CONTINUOUS
 62
     7
 10
87.64278023849047
 20
519.9227223953001
 30
0.0
 11
89.75102771793232
 21
519.9963440194902
 31
0.0
  0
LINE
  5
4B1
  8
0
  6
CONTINUOUS
 62
     7
 10
87.64278023849059
 20
516.0447223952998
 30
0.0
 11
89.75102771793243
 21
516.1183440194902
 31
0.0
  0
ARC
  5
4B2
  8
0
  6
CONTINUOUS
 62
     7
 10
89.73357796959591
 20
514.2501446319999
 30
0.0
 40
0.4999999999999992
 50
2.98416075803253
 51
88.00000015278837
  0
LINE
  5
4B3
  8
0
  6
CONTINUOUS
 62
     7
 10
89.75102771793603
 20
514.7498400456022
 30
0.0
 11
87.64278023849397
 21
514.8234616697939
 31
0.0
  0
ARC
  5
4B4
  8
0
  6
CONTINUOUS
 62
     7
 10
87.6532500874958
 20
519.0012789179002
 30
0.0
 40
0.3000000000000418
 50
180.0000000000043
 51
268.0000000019497
  0
ARC
  5
4B5
  8
0
  6
CONTINUOUS
 62
     7
 10
89.73357796959586
 20
522.006144632
 30
0.0
 40
0.4999999999999438
 50
2.984160758032897
 51
88.00000015278876
  0
LINE
  5
4B6
  8
0
  6
CONTINUOUS
 62
     7
 10
87.35325008749595
 20
433.6852789179001
 30
0.0
 11
87.35325008749595
 21
434.3069051472
 31
0.0
  0
ARC
  5
4B7
  8
0
  6
CONTINUOUS
 62
     7
 10
87.65325008749592
 20
515.7449051472001
 30
0.0
 40
0.3000000000000225
 50
92.0000000150517
 51
180.0
  0
ARC
  5
4B8
  8
0
  6
CONTINUOUS
 62
     7
 10
87.65325008749592
 20
515.1232789178999
 30
0.0
 40
0.2999999999998199
 50
180.0000000000025
 51
268.0000000019481
  0
LINE
  5
4B9
  8
0
  6
CONTINUOUS
 62
     7
 10
87.35325008749605
 20
503.4892789179
 30
0.0
 11
87.353250087496
 21
504.1109051471999
 31
0.0
  0
ARC
  5
4BA
  8
0
  6
CONTINUOUS
 62
     7
 10
89.73357796959597
 20
508.862039433
 30
0.0
 40
0.4999999999998274
 50
271.9999999982274
 51
357.0151102023921
  0
ARC
  5
4BB
  8
0
  6
CONTINUOUS
 62
     7
 10
75.25325008749579
 20
521.2510920324999
 30
0.0
 40
14.99999999999999
 50
357.0151102022626
 51
2.984865496416717
  0
LINE
  5
4BC
  8
0
  6
CONTINUOUS
 62
     7
 10
87.35325008749584
 20
519.0012789179002
 30
0.0
 11
87.35325008749584
 21
519.6229051472001
 31
0.0
  0
LINE
  5
4BD
  8
0
  6
CONTINUOUS
 62
     7
 10
87.35325008749601
 20
429.8072789179
 30
0.0
 11
87.35325008749601
 21
430.4289051472002
 31
0.0
  0
ARC
  5
4BE
  8
0
  6
CONTINUOUS
 62
     7
 10
89.73357796959591
 20
516.6180394329999
 30
0.0
 40
0.4999999999999379
 50
271.9999999985897
 51
357.0151102023893
  0
LINE
  5
4BF
  8
0
  6
CONTINUOUS
 62
     7
 10
87.35325008749595
 20
511.2452789179001
 30
0.0
 11
87.35325008749595
 21
511.8669051471998
 31
0.0
  0
LINE
  5
4C0
  8
0
  6
CONTINUOUS
 62
     7
 10
87.3532500874959
 20
437.5632789179002
 30
0.0
 11
87.3532500874959
 21
438.1849051472
 31
0.0
  0
LINE
  5
4C1
  8
0
  6
CONTINUOUS
 62
     7
 10
89.75102771793608
 20
510.871840045602
 30
0.0
 11
87.64278023849396
 21
510.9454616697943
 31
0.0
  0
ARC
  5
4C2
  8
0
  6
CONTINUOUS
 62
     7
 10
75.25325008749584
 20
517.3730920325
 30
0.0
 40
15.00000000000006
 50
357.0151102022618
 51
2.984865496415864
  0
LINE
  5
4C3
  8
0
  6
CONTINUOUS
 62
     7
 10
87.64278023849708
 20
504.4107223953001
 30
0.0
 11
89.75102771793254
 21
504.4843440194899
 31
0.0
  0
ARC
  5
4C4
  8
0
  6
CONTINUOUS
 62
     7
 10
89.73357796959586
 20
520.4960394330002
 30
0.0
 40
0.4999999999999358
 50
271.9999999985835
 51
357.015110202383
  0
LINE
  5
4C5
  8
0
  6
CONTINUOUS
 62
     7
 10
87.3532500874959
 20
515.1232789178999
 30
0.0
 11
87.3532500874959
 21
515.7449051472001
 31
0.0
  0
LINE
  5
4C6
  8
0
  6
CONTINUOUS
 62
     7
 10
89.75102771793597
 20
518.627840045602
 30
0.0
 11
87.64278023849393
 21
518.7014616697941
 31
0.0
  0
ARC
  5
4C7
  8
0
  6
CONTINUOUS
 62
     7
 10
75.25325008749594
 20
513.4950920324998
 30
0.0
 40
15.0
 50
357.0151102022618
 51
2.984865496415864
  0
ARC
  5
4C8
  8
0
  6
CONTINUOUS
 62
     7
 10
89.73357796959603
 20
504.9840394330002
 30
0.0
 40
0.5000000000002731
 50
271.9999999982319
 51
357.0151102023966
  0
LINE
  5
4C9
  8
0
  6
CONTINUOUS
 62
     7
 10
87.64278023849702
 20
508.2887223953
 30
0.0
 11
89.75102771793249
 21
508.36234401949
 31
0.0
  0
ARC
  5
4CA
  8
0
  6
CONTINUOUS
 62
     7
 10
89.73357796959591
 20
512.7400394330002
 30
0.0
 40
0.5000000000002711
 50
271.9999999982256
 51
357.0151102023648
  0
LINE
  5
4CB
  8
0
  6
CONTINUOUS
 62
     7
 10
87.35325008749605
 20
425.9292789179002
 30
0.0
 11
87.353250087496
 21
426.5509051472001
 31
0.0
  0
ARC
  5
4CC
  8
0
  6
CONTINUOUS
 62
     7
 10
75.25325008749606
 20
505.7390920324997
 30
0.0
 40
14.99999999999992
 50
357.0151102022635
 51
2.984865496417569
  0
LINE
  5
4CD
  8
0
  6
CONTINUOUS
 62
     7
 10
89.75102771793597
 20
522.5058400456023
 30
0.0
 11
88.02075597193
 21
522.5662624663457
 31
0.0
  0
LINE
  5
4CE
  8
0
  6
CONTINUOUS
 62
     7
 10
89.75102771793614
 20
506.9938400456021
 30
0.0
 11
87.64278023849401
 21
507.0674616697939
 31
0.0
  0
ARC
  5
4CF
  8
0
  6
CONTINUOUS
 62
     7
 10
87.65325008749596
 20
511.8669051471999
 30
0.0
 40
0.3000000000000225
 50
92.00000001444346
 51
180.0
  0
ARC
  5
4D0
  8
0
  6
CONTINUOUS
 62
     7
 10
75.253250087496
 20
509.6170920325001
 30
0.0
 40
14.99999999999993
 50
357.0151102022626
 51
2.984865496415978
  0
LINE
  5
4D1
  8
0
  6
CONTINUOUS
 62
     7
 10
89.7510277179362
 20
503.1158400456023
 30
0.0
 11
87.64278023849407
 21
503.1894616697942
 31
0.0
  0
ARC
  5
4D2
  8
0
  6
CONTINUOUS
 62
     7
 10
87.65325008749596
 20
511.2452789179001
 30
0.0
 40
0.2999999999999303
 50
180.0000000000073
 51
268.0000000013442
  0
ARC
  5
4D3
  8
0
  6
CONTINUOUS
 62
     7
 10
87.65325008749602
 20
504.1109051472
 30
0.0
 40
0.3000000000000225
 50
92.0000000150517
 51
180.0
  0
ARC
  5
4D4
  8
0
  6
CONTINUOUS
 62
     7
 10
87.65325008749602
 20
503.4892789179
 30
0.0
 40
0.3000000000000418
 50
180.0000000000043
 51
268.0000000019497
  0
LINE
  5
4D5
  8
0
  6
CONTINUOUS
 62
     7
 10
87.35325008749601
 20
507.3672789179001
 30
0.0
 11
87.35325008749601
 21
507.9889051472003
 31
0.0
  0
ARC
  5
4D6
  8
0
  6
CONTINUOUS
 62
     7
 10
87.65325008749596
 20
507.9889051472003
 30
0.0
 40
0.299999999999967
 50
92.0000000150517
 51
180.0
  0
ARC
  5
4D7
  8
0
  6
CONTINUOUS
 62
     7
 10
87.65325008749596
 20
507.3672789179001
 30
0.0
 40
0.3000000000001522
 50
180.0000000000088
 51
268.0000000013457
  0
ARC
  5
4D8
  8
0
  6
CONTINUOUS
 62
     7
 10
89.73357796959597
 20
510.3721446320001
 30
0.0
 40
0.4999999999999438
 50
2.984160758032897
 51
88.00000015315376
  0
ARC
  5
4D9
  8
0
  6
CONTINUOUS
 62
     7
 10
75.25325008749606
 20
501.8610920324999
 30
0.0
 40
15.00000000000001
 50
0.0000000000008481
 51
2.984865496415989
  0
ARC
  5
4DA
  8
0
  6
CONTINUOUS
 62
     7
 10
89.73357796959603
 20
502.616144632
 30
0.0
 40
0.5000000000000547
 50
2.984160758032286
 51
88.00000015278813
  0
ARC
  5
4DB
  8
0
  6
CONTINUOUS
 62
     7
 10
75.25325008749518
 20
412.6670920324999
 30
0.0
 40
15.0
 50
357.0151102022618
 51
2.984865496415864
  0
ARC
  5
4DC
  8
0
  6
CONTINUOUS
 62
     7
 10
75.253250087495
 20
424.3010920324998
 30
0.0
 40
15.00000000000005
 50
357.0151102022625
 51
0.0000000000008527
  0
ARC
  5
4DD
  8
0
  6
CONTINUOUS
 62
     7
 10
75.25325008749527
 20
404.9110920325
 30
0.0
 40
15.00000000000005
 50
357.0151102022625
 51
2.984865496416546
  0
ARC
  5
4DE
  8
0
  6
CONTINUOUS
 62
     7
 10
75.25325008749556
 20
381.6430920324999
 30
0.0
 40
15.00000000000006
 50
357.0151102022618
 51
2.984865496415864
  0
ARC
  5
4DF
  8
0
  6
CONTINUOUS
 62
     7
 10
75.25325008749539
 20
401.0330920324999
 30
0.0
 40
14.99999999999994
 50
357.0151102022619
 51
2.984865496415978
  0
ARC
  5
4E0
  8
0
  6
CONTINUOUS
 62
     7
 10
89.73357796959525
 20
409.5441446320002
 30
0.0
 40
0.4999999999999992
 50
2.98416075803253
 51
88.00000015308977
  0
ARC
  5
4E1
  8
0
  6
CONTINUOUS
 62
     7
 10
89.73357796959536
 20
401.7881446320003
 30
0.0
 40
0.4999999999999438
 50
2.984160758032897
 51
88.0000001527251
  0
ARC
  5
4E2
  8
0
  6
CONTINUOUS
 62
     7
 10
89.73357796959557
 20
386.2761446320001
 30
0.0
 40
0.4999999999999438
 50
2.984160758032897
 51
88.00000015274553
  0
ARC
  5
4E3
  8
0
  6
CONTINUOUS
 62
     7
 10
89.73357796959563
 20
380.888039433
 30
0.0
 40
0.4999999999999242
 50
271.9999999985453
 51
357.0151102023881
  0
ARC
  5
4E4
  8
0
  6
CONTINUOUS
 62
     7
 10
89.73357796959513
 20
415.7900394330004
 30
0.0
 40
0.5000000000002499
 50
271.9999999981557
 51
357.0151102023586
  0
ARC
  5
4E5
  8
0
  6
CONTINUOUS
 62
     7
 10
89.73357796959569
 20
377.0100394330004
 30
0.0
 40
0.5000000000002576
 50
271.9999999981811
 51
357.0151102023635
  0
ARC
  5
4E6
  8
0
  6
CONTINUOUS
 62
     7
 10
89.73357796959569
 20
373.1320394330001
 30
0.0
 40
0.5000000000000356
 50
271.999999998182
 51
357.0151102023644
  0
LINE
  5
4E7
  8
0
  6
CONTINUOUS
 62
     7
 10
87.6427802384957
 20
422.9727223953
 30
0.0
 11
89.75102771793115
 21
423.0463440194899
 31
0.0
  0
LINE
  5
4E8
  8
0
  6
CONTINUOUS
 62
     7
 10
89.75102771793519
 20
421.6778400456021
 30
0.0
 11
87.64278023849307
 21
421.751461669794
 31
0.0
  0
LINE
  5
4E9
  8
0
  6
CONTINUOUS
 62
     7
 10
87.64278023848937
 20
419.0947223953
 30
0.0
 11
89.75102771793121
 21
419.1683440194902
 31
0.0
  0
LINE
  5
4EA
  8
0
  6
CONTINUOUS
 62
     7
 10
89.75102771793524
 20
417.7998400456023
 30
0.0
 11
87.64278023849313
 21
417.873461669794
 31
0.0
  0
ARC
  5
4EB
  8
0
  6
CONTINUOUS
 62
     7
 10
89.73357796959513
 20
417.300144632
 30
0.0
 40
0.4999999999999992
 50
2.98416075803253
 51
88.00000015272474
  0
ARC
  5
4EC
  8
0
  6
CONTINUOUS
 62
     7
 10
75.25325008749506
 20
420.4230920325002
 30
0.0
 40
15.0
 50
357.0151102022618
 51
2.984865496415864
  0
ARC
  5
4ED
  8
0
  6
CONTINUOUS
 62
     7
 10
89.7335779695953
 20
405.6661446320003
 30
0.0
 40
0.4999999999999438
 50
2.984160758032897
 51
88.00000015272512
  0
ARC
  5
4EE
  8
0
  6
CONTINUOUS
 62
     7
 10
89.73357796959513
 20
413.4221446320002
 30
0.0
 40
0.5000000000000547
 50
2.984160758032286
 51
88.0000001527245
  0
ARC
  5
4EF
  8
0
  6
CONTINUOUS
 62
     7
 10
89.73357796959507
 20
421.1781446320001
 30
0.0
 40
0.4999999999999438
 50
2.984160758032897
 51
88.00000015272512
  0
ARC
  5
4F0
  8
0
  6
CONTINUOUS
 62
     7
 10
75.25325008749523
 20
408.7890920324998
 30
0.0
 40
14.99999999999999
 50
357.0151102022626
 51
2.984865496415978
  0
ARC
  5
4F1
  8
0
  6
CONTINUOUS
 62
     7
 10
75.25325008749562
 20
377.7650920324999
 30
0.0
 40
15.00000000000006
 50
357.0151102022618
 51
2.984865496415864
  0
ARC
  5
4F2
  8
0
  6
CONTINUOUS
 62
     7
 10
89.73357796959536
 20
397.9101446320003
 30
0.0
 40
0.4999999999999992
 50
2.98416075803253
 51
88.00000015272474
  0
ARC
  5
4F3
  8
0
  6
CONTINUOUS
 62
     7
 10
89.73357796959542
 20
394.032144632
 30
0.0
 40
0.5000000000000547
 50
2.984160758032286
 51
88.00000015308952
  0
ARC
  5
4F4
  8
0
  6
CONTINUOUS
 62
     7
 10
89.73357796959547
 20
390.1541446319999
 30
0.0
 40
0.5000000000000547
 50
2.984160758032286
 51
88.0000001530985
  0
ARC
  5
4F5
  8
0
  6
CONTINUOUS
 62
     7
 10
75.25325008749506
 20
416.5450920325001
 30
0.0
 40
15.00000000000007
 50
357.0151102022609
 51
2.984865496414955
  0
ARC
  5
4F6
  8
0
  6
CONTINUOUS
 62
     7
 10
89.73357796959557
 20
382.398144632
 30
0.0
 40
0.4999999999999992
 50
2.98416075803253
 51
88.00000015274516
  0
ARC
  5
4F7
  8
0
  6
CONTINUOUS
 62
     7
 10
89.73357796959502
 20
423.5460394330003
 30
0.0
 40
0.500000000000028
 50
271.9999999981566
 51
357.015110202385
  0
ARC
  5
4F8
  8
0
  6
CONTINUOUS
 62
     7
 10
89.73357796959525
 20
411.9120394330001
 30
0.0
 40
0.500000000000028
 50
271.9999999981566
 51
357.0151102023595
  0
ARC
  5
4F9
  8
0
  6
CONTINUOUS
 62
     7
 10
89.73357796959563
 20
378.5201446320002
 30
0.0
 40
0.5000000000000547
 50
2.984160758032286
 51
88.00000015274492
  0
ARC
  5
4FA
  8
0
  6
CONTINUOUS
 62
     7
 10
89.7335779695953
 20
404.156039433
 30
0.0
 40
0.499999999999806
 50
271.9999999981575
 51
357.015110202386
  0
ARC
  5
4FB
  8
0
  6
CONTINUOUS
 62
     7
 10
89.73357796959536
 20
400.2780394330002
 30
0.0
 40
0.5000000000001403
 50
271.9999999985253
 51
357.0151102023887
  0
ARC
  5
4FC
  8
0
  6
CONTINUOUS
 62
     7
 10
75.25325008749539
 20
397.1550920325001
 30
0.0
 40
15.00000000000001
 50
357.015110202261
 51
2.984865496415125
  0
ARC
  5
4FD
  8
0
  6
CONTINUOUS
 62
     7
 10
75.25325008749545
 20
393.2770920325
 30
0.0
 40
15.00000000000001
 50
357.015110202261
 51
2.984865496415125
  0
ARC
  5
4FE
  8
0
  6
CONTINUOUS
 62
     7
 10
75.25325008749556
 20
385.5210920324997
 30
0.0
 40
14.99999999999999
 50
357.0151102022626
 51
2.984865496416717
  0
ARC
  5
4FF
  8
0
  6
CONTINUOUS
 62
     7
 10
89.73357796959569
 20
374.6421446320002
 30
0.0
 40
0.5000000000000547
 50
2.984160758032286
 51
88.00000015310987
  0
ARC
  5
500
  8
0
  6
CONTINUOUS
 62
     7
 10
89.73357796959542
 20
396.4000394330002
 30
0.0
 40
0.499999999999806
 50
271.9999999981575
 51
357.0151102023605
  0
ARC
  5
501
  8
0
  6
CONTINUOUS
 62
     7
 10
75.2532500874955
 20
389.3990920325
 30
0.0
 40
15.00000000000006
 50
357.0151102022618
 51
2.984865496415125
  0
ARC
  5
502
  8
0
  6
CONTINUOUS
 62
     7
 10
89.73357796959542
 20
392.5220394330003
 30
0.0
 40
0.500000000000028
 50
271.9999999981566
 51
357.0151102023595
  0
ARC
  5
503
  8
0
  6
CONTINUOUS
 62
     7
 10
89.73357796959507
 20
419.6680394330002
 30
0.0
 40
0.5000000000001383
 50
271.9999999985189
 51
357.0151102023823
  0
ARC
  5
504
  8
0
  6
CONTINUOUS
 62
     7
 10
89.73357796959547
 20
388.6440394330003
 30
0.0
 40
0.5000000000002576
 50
271.9999999981811
 51
357.0151102023889
  0
ARC
  5
505
  8
0
  6
CONTINUOUS
 62
     7
 10
75.25325008749573
 20
373.8870920324998
 30
0.0
 40
15.0
 50
357.0151102022618
 51
2.984865496415864
  0
ARC
  5
506
  8
0
  6
CONTINUOUS
 62
     7
 10
89.73357796959557
 20
384.766039433
 30
0.0
 40
0.5000000000000356
 50
271.999999998182
 51
357.0151102023897
  0
ARC
  5
507
  8
0
  6
CONTINUOUS
 62
     7
 10
89.73357796959525
 20
408.0340394330001
 30
0.0
 40
0.500000000000028
 50
271.9999999981566
 51
357.015110202385
  0
ARC
  5
508
  8
0
  6
CONTINUOUS
 62
     7
 10
87.65325008749508
 20
422.6729051472004
 30
0.0
 40
0.3000000000000225
 50
92.0000000150517
 51
180.0
  0
ARC
  5
509
  8
0
  6
CONTINUOUS
 62
     7
 10
87.65325008749508
 20
422.0512789179002
 30
0.0
 40
0.2999999999998199
 50
180.0000000000027
 51
268.0000000019481
  0
ARC
  5
50A
  8
0
  6
CONTINUOUS
 62
     7
 10
87.65325008749508
 20
418.7949051472001
 30
0.0
 40
0.299999999999967
 50
92.0000000150517
 51
180.0
  0
ARC
  5
50B
  8
0
  6
CONTINUOUS
 62
     7
 10
87.65325008749508
 20
418.1732789179001
 30
0.0
 40
0.2999999999998199
 50
180.0000000000027
 51
268.0000000019481
  0
LINE
  5
50C
  8
0
  6
CONTINUOUS
 62
     7
 10
87.64278023848965
 20
395.8267223952999
 30
0.0
 11
89.75102771793149
 21
395.9003440194901
 31
0.0
  0
LINE
  5
50D
  8
0
  6
CONTINUOUS
 62
     7
 10
89.75102771793541
 20
406.1658400456024
 30
0.0
 11
87.6427802384933
 21
406.2394616697943
 31
0.0
  0
LINE
  5
50E
  8
0
  6
CONTINUOUS
 62
     7
 10
87.64278023848965
 20
399.7047223952999
 30
0.0
 11
89.75102771793149
 21
399.77834401949
 31
0.0
  0
LINE
  5
50F
  8
0
  6
CONTINUOUS
 62
     7
 10
87.64278023848948
 20
415.2167223952999
 30
0.0
 11
89.75102771793125
 21
415.2903440194901
 31
0.0
  0
LINE
  5
510
  8
0
  6
CONTINUOUS
 62
     7
 10
89.75102771793559
 20
390.6538400456022
 30
0.0
 11
87.64278023849346
 21
390.7274616697941
 31
0.0
  0
LINE
  5
511
  8
0
  6
CONTINUOUS
 62
     7
 10
87.6427802384958
 20
411.3387223953001
 30
0.0
 11
89.75102771793127
 21
411.41234401949
 31
0.0
  0
LINE
  5
512
  8
0
  6
CONTINUOUS
 62
     7
 10
87.64278023849614
 20
391.9487223953003
 30
0.0
 11
89.75102771793159
 21
392.0223440194902
 31
0.0
  0
LINE
  5
513
  8
0
  6
CONTINUOUS
 62
     7
 10
87.64278023849631
 20
388.0707223953
 30
0.0
 11
89.75102771793183
 21
388.1443440194899
 31
0.0
  0
LINE
  5
514
  8
0
  6
CONTINUOUS
 62
     7
 10
87.64278023849597
 20
403.5827223953
 30
0.0
 11
89.75102771793144
 21
403.6563440194901
 31
0.0
  0
LINE
  5
515
  8
0
  6
CONTINUOUS
 62
     7
 10
89.7510277179353
 20
413.9218400456023
 30
0.0
 11
87.64278023849319
 21
413.9954616697942
 31
0.0
  0
LINE
  5
516
  8
0
  6
CONTINUOUS
 62
     7
 10
89.7510277179353
 20
410.0438400456025
 30
0.0
 11
87.64278023849326
 21
410.1174616697942
 31
0.0
  0
LINE
  5
517
  8
0
  6
CONTINUOUS
 62
     7
 10
89.75102771793586
 20
386.7758400456021
 30
0.0
 11
87.64278023849374
 21
386.849461669794
 31
0.0
  0
LINE
  5
518
  8
0
  6
CONTINUOUS
 62
     7
 10
89.75102771793547
 20
402.2878400456024
 30
0.0
 11
87.64278023849336
 21
402.3614616697943
 31
0.0
  0
LINE
  5
519
  8
0
  6
CONTINUOUS
 62
     7
 10
87.64278023849636
 20
384.1927223953
 30
0.0
 11
89.75102771793189
 21
384.2663440194899
 31
0.0
  0
LINE
  5
51A
  8
0
  6
CONTINUOUS
 62
     7
 10
89.75102771793597
 20
382.8978400456023
 30
0.0
 11
87.64278023849386
 21
382.9714616697941
 31
0.0
  0
LINE
  5
51B
  8
0
  6
CONTINUOUS
 62
     7
 10
89.75102771792919
 20
394.5318400456023
 30
0.0
 11
87.64278023849346
 21
394.6054616697938
 31
0.0
  0
LINE
  5
51C
  8
0
  6
CONTINUOUS
 62
     7
 10
87.64278023849015
 20
376.4367223952999
 30
0.0
 11
89.75102771793199
 21
376.5103440194901
 31
0.0
  0
LINE
  5
51D
  8
0
  6
CONTINUOUS
 62
     7
 10
89.75102771793603
 20
375.1418400456025
 30
0.0
 11
87.64278023849391
 21
375.2154616697942
 31
0.0
  0
LINE
  5
51E
  8
0
  6
CONTINUOUS
 62
     7
 10
89.75102771793553
 20
398.4098400456021
 30
0.0
 11
87.6427802384934
 21
398.483461669794
 31
0.0
  0
LINE
  5
51F
  8
0
  6
CONTINUOUS
 62
     7
 10
89.0947503941445
 20
372.6094263103655
 30
0.0
 11
89.75102771793203
 21
372.63234401949
 31
0.0
  0
LINE
  5
520
  8
0
  6
CONTINUOUS
 62
     7
 10
89.75102771793597
 20
379.0198400456023
 30
0.0
 11
87.64278023849393
 21
379.0934616697942
 31
0.0
  0
LINE
  5
521
  8
0
  6
CONTINUOUS
 62
     7
 10
87.64278023849592
 20
407.4607223953001
 30
0.0
 11
89.75102771793138
 21
407.5343440194899
 31
0.0
  0
LINE
  5
522
  8
0
  6
CONTINUOUS
 62
     7
 10
87.64278023849009
 20
380.3147223953
 30
0.0
 11
89.75102771793193
 21
380.3883440194901
 31
0.0
  0
ENDSEC
  0
EOF
