  0
SECTION
  2
HEADER
  9
$ACADVER
  1
AC1006
  9
$DWGCODEPAGE
  3
ansi_932
  9
$INSBASE
 10
0.0
 20
0.0
 30
0.0
  9
$EXTMIN
 10
293.5000000000001
 20
293.5
  9
$EXTMAX
 10
604.0000000000001
 20
604.0
  9
$LIMMIN
 10
0.0
 20
0.0
  9
$LIMMAX
 10
12.0
 20
9.0
  9
$ORTHOMODE
 70
     0
  9
$REGENMODE
 70
     1
  9
$FILLMODE
 70
     1
  9
$QTEXTMODE
 70
     0
  9
$MIRRTEXT
 70
     1
  9
$DRAGMODE
 70
     2
  9
$LTSCALE
 40
1.0
  9
$OSMODE
 70
    37
  9
$ATTMODE
 70
     1
  9
$TEXTSIZE
 40
0.2
  9
$TRACEWID
 40
0.05
  9
$TEXTSTYLE
  7
STANDARD
  9
$CLAYER
  8
0
  9
$CELTYPE
  6
BYLAYER
  9
$CECOLOR
 62
   256
  9
$DIMSCALE
 40
1.0
  9
$DIMASZ
 40
3.0
  9
$DIMEXO
 40
0.0625
  9
$DIMDLI
 40
0.38
  9
$DIMRND
 40
0.0
  9
$DIMDLE
 40
0.0
  9
$DIMEXE
 40
1.5
  9
$DIMTP
 40
0.0
  9
$DIMTM
 40
0.0
  9
$DIMTXT
 40
3.0
  9
$DIMCEN
 40
0.09
  9
$DIMTSZ
 40
0.0
  9
$DIMTOL
 70
     0
  9
$DIMLIM
 70
     0
  9
$DIMTIH
 70
     1
  9
$DIMTOH
 70
     1
  9
$DIMSE1
 70
     0
  9
$DIMSE2
 70
     0
  9
$DIMTAD
 70
     1
  9
$DIMZIN
 70
     0
  9
$DIMBLK
  1

  9
$DIMASO
 70
     1
  9
$DIMSHO
 70
     1
  9
$DIMPOST
  1

  9
$DIMAPOST
  1

  9
$DIMALT
 70
     0
  9
$DIMALTD
 70
     2
  9
$DIMALTF
 40
25.4
  9
$DIMLFAC
 40
1.0
  9
$DIMTOFL
 70
     0
  9
$DIMTVP
 40
0.0
  9
$DIMTIX
 70
     0
  9
$DIMSOXD
 70
     0
  9
$DIMSAH
 70
     0
  9
$DIMBLK1
  1

  9
$DIMBLK2
  1

  9
$LUNITS
 70
     2
  9
$LUPREC
 70
     4
  9
$SKETCHINC
 40
0.1
  9
$FILLETRAD
 40
0.5
  9
$AUNITS
 70
     0
  9
$AUPREC
 70
     0
  9
$MENU
  1
.
  9
$ELEVATION
 40
0.0
  9
$THICKNESS
 40
0.0
  9
$LIMCHECK
 70
     0
  9
$CHAMFERA
 40
0.0
  9
$CHAMFERB
 40
0.0
  9
$SKPOLY
 70
     0
  9
$TDCREATE
 40
2458900.663180579
  9
$TDUPDATE
 40
2458900.663180729
  9
$TDINDWG
 40
0.0000000116
  9
$TDUSRTIMER
 40
0.0000000116
  9
$USRTIMER
 70
     1
  9
$ANGBASE
 50
0.0
  9
$ANGDIR
 70
     0
  9
$PDMODE
 70
     0
  9
$PDSIZE
 40
0.0
  9
$PLINEWID
 40
0.0
  9
$COORDS
 70
     1
  9
$SPLFRAME
 70
     0
  9
$SPLINETYPE
 70
     6
  9
$SPLINESEGS
 70
     8
  9
$ATTDIA
 70
     0
  9
$ATTREQ
 70
     1
  9
$HANDLING
 70
     1
  9
$HANDSEED
  5
C9
  9
$SURFTAB1
 70
     6
  9
$SURFTAB2
 70
     6
  9
$SURFTYPE
 70
     6
  9
$SURFU
 70
     6
  9
$SURFV
 70
     6
  9
$UCSNAME
  2

  9
$UCSORG
 10
0.0
 20
0.0
 30
0.0
  9
$UCSXDIR
 10
1.0
 20
0.0
 30
0.0
  9
$UCSYDIR
 10
0.0
 20
1.0
 30
0.0
  9
$USERI1
 70
     0
  9
$USERI2
 70
     0
  9
$USERI3
 70
     0
  9
$USERI4
 70
     0
  9
$USERI5
 70
     0
  9
$USERR1
 40
0.0
  9
$USERR2
 40
0.0
  9
$USERR3
 40
0.0
  9
$USERR4
 40
0.0
  9
$USERR5
 40
0.0
  9
$WORLDVIEW
 70
     1
  0
ENDSEC
  0
SECTION
  2
TABLES
  0
TABLE
  2
VPORT
 70
     1
  0
VPORT
  2
*ACTIVE
 70
     0
 10
0.0
 20
0.0
 11
1.0
 21
1.0
 12
448.7500000000001
 22
448.75
 13
0.0
 23
0.0
 14
0.5
 24
0.5
 15
0.5
 25
0.5
 16
0.0
 26
0.0
 36
1.0
 17
0.0
 27
0.0
 37
0.0
 40
310.5
 41
1.6
 42
50.0
 43
0.0
 44
0.0
 50
0.0
 51
0.0
 71
     0
 72
   100
 73
     1
 74
     3
 75
     0
 76
     0
 77
     0
 78
     0
  0
ENDTAB
  0
TABLE
  2
LTYPE
 70
     2
  0
LTYPE
  2
CONTINUOUS
 70
     0
  3
Solid line
 72
    65
 73
     0
 40
0.0
  0
LTYPE
  2
CENTER
 70
     0
  3

 72
    65
 73
     0
 40
0.0
  0
ENDTAB
  0
TABLE
  2
LAYER
 70
     1
  0
LAYER
  2
0
 70
     0
 62
     7
  6
CONTINUOUS
  0
ENDTAB
  0
TABLE
  2
STYLE
 70
     2
  0
STYLE
  2
STANDARD
 70
     0
 40
0.0
 41
1.0
 50
0.0
 71
     0
 42
0.2
  3
txt
  4

  0
STYLE
  2
ＭＳ_ゴシック
 70
     0
 40
0.0
 41
1.0
 50
0.0
 71
     0
 42
0.2
  3
ＭＳ ゴシック.shx
  4

  0
ENDTAB
  0
TABLE
  2
VIEW
 70
     0
  0
ENDTAB
  0
TABLE
  2
UCS
 70
     0
  0
ENDTAB
  0
ENDSEC
  0
SECTION
  2
BLOCKS
  0
ENDSEC
  0
SECTION
  2
ENTITIES
  0
LINE
  5
6F
  8
0
  6
CENTER
 62
     1
 10
490.0000000000001
 20
604.0
 30
0.0
 11
490.0000000000001
 21
376.0
 31
0.0
  0
LINE
  5
71
  8
0
  6
CENTER
 62
     1
 10
490.0000000000001
 20
293.5
 30
0.0
 11
490.0000000000001
 21
341.5
 31
0.0
  0
LINE
  5
72
  8
0
  6
CENTER
 62
     1
 10
604.0000000000001
 20
490.0
 30
0.0
 11
376.0000000000002
 21
490.0
 31
0.0
  0
LINE
  5
73
  8
0
  6
CENTER
 62
     1
 10
293.5000000000001
 20
490.0
 30
0.0
 11
341.5
 21
490.0
 31
0.0
  0
LINE
  5
74
  8
0
  6
CENTER
 62
     1
 10
475.0
 20
319.05
 30
0.0
 11
475.0
 21
335.55
 31
0.0
  0
LINE
  5
75
  8
0
  6
CENTER
 62
     1
 10
505.0000000000001
 20
319.05
 30
0.0
 11
505.0000000000001
 21
335.55
 31
0.0
  0
LINE
  5
76
  8
0
  6
CENTER
 62
     1
 10
496.75
 20
327.3
 30
0.0
 11
513.25
 21
327.3
 31
0.0
  0
LINE
  5
77
  8
0
  6
CENTER
 62
     1
 10
466.7500000000001
 20
327.3
 30
0.0
 11
483.2500000000001
 21
327.3
 31
0.0
  0
TEXT
  5
78
  8
0
  6
CONTINUOUS
 62
     7
 10
294.3423158684507
 20
320.5424534200325
 30
0.0
 40
8.0
  1
MRPD-N
 41
1.5
  0
LINE
  5
79
  8
0
  6
CONTINUOUS
 62
   253
 10
420.0000000000001
 20
307.5
 30
0.0
 11
420.0000000000001
 21
305.0
 31
0.0
  0
LINE
  5
7A
  8
0
  6
CONTINUOUS
 62
     7
 10
420.0000000000001
 20
305.0
 30
0.0
 11
390.0
 21
305.0
 31
0.0
  0
LINE
  5
7B
  8
0
  6
CONTINUOUS
 62
     7
 10
390.0
 20
305.0
 30
0.0
 11
390.0
 21
307.5
 31
0.0
  0
LINE
  5
7C
  8
0
  6
CONTINUOUS
 62
     7
 10
390.0
 20
307.5
 30
0.0
 11
420.0000000000001
 21
307.5
 31
0.0
  0
LINE
  5
7D
  8
0
  6
CONTINUOUS
 62
   253
 10
560.0
 20
305.0
 30
0.0
 11
560.0
 21
307.5
 31
0.0
  0
LINE
  5
7E
  8
0
  6
CONTINUOUS
 62
     7
 10
420.0000000000001
 20
305.0
 30
0.0
 11
560.0
 21
305.0
 31
0.0
  0
LINE
  5
7F
  8
0
  6
CONTINUOUS
 62
     7
 10
420.0000000000001
 20
307.5
 30
0.0
 11
560.0
 21
307.5
 31
0.0
  0
LINE
  5
80
  8
0
  6
CONTINUOUS
 62
     7
 10
590.0000000000001
 20
307.5
 30
0.0
 11
590.0000000000001
 21
305.0
 31
0.0
  0
LINE
  5
81
  8
0
  6
CONTINUOUS
 62
     7
 10
590.0000000000001
 20
305.0
 30
0.0
 11
560.0
 21
305.0
 31
0.0
  0
LINE
  5
82
  8
0
  6
CONTINUOUS
 62
     7
 10
560.0
 20
307.5
 30
0.0
 11
590.0000000000001
 21
307.5
 31
0.0
  0
CIRCLE
  5
83
  8
0
  6
CONTINUOUS
 62
     7
 10
475.0
 20
327.3
 30
0.0
 40
4.250000000000031
  0
ARC
  5
84
  8
0
  6
CONTINUOUS
 62
     7
 10
505.0000000000001
 20
327.5
 30
0.0
 40
7.499999999999951
 50
0.0000000000001325
 51
90.00000000000009
  0
LINE
  5
85
  8
0
  6
CONTINUOUS
 62
     7
 10
512.5
 20
307.5
 30
0.0
 11
512.5
 21
327.5
 31
0.0
  0
LINE
  5
86
  8
0
  6
CONTINUOUS
 62
     7
 10
467.5
 20
307.5
 30
0.0
 11
467.5
 21
327.5
 31
0.0
  0
ARC
  5
87
  8
0
  6
CONTINUOUS
 62
     7
 10
475.0
 20
327.5
 30
0.0
 40
7.500000000000006
 50
90.00000000000001
 51
180.0
  0
LINE
  5
88
  8
0
  6
CONTINUOUS
 62
     7
 10
475.0
 20
334.9999999999999
 30
0.0
 11
505.0
 21
334.9999999999999
 31
0.0
  0
CIRCLE
  5
89
  8
0
  6
CONTINUOUS
 62
     7
 10
505.0000000000001
 20
327.3
 30
0.0
 40
4.249999999999865
  0
LINE
  5
8A
  8
0
  6
CONTINUOUS
 62
   253
 10
505.0000000000001
 20
442.25
 30
0.0
 11
505.0000000000001
 21
444.75
 31
0.0
  0
LINE
  5
8B
  8
0
  6
CONTINUOUS
 62
     7
 10
512.5
 20
444.75
 30
0.0
 11
512.5
 21
442.25
 31
0.0
  0
LINE
  5
8C
  8
0
  6
CONTINUOUS
 62
     7
 10
512.5
 20
442.25
 30
0.0
 11
505.0000000000001
 21
442.25
 31
0.0
  0
LINE
  5
8D
  8
0
  6
CONTINUOUS
 62
     7
 10
505.0000000000001
 20
444.75
 30
0.0
 11
512.5000000000001
 21
444.75
 31
0.0
  0
LINE
  5
8E
  8
0
  6
CONTINUOUS
 62
   253
 10
505.0000000000001
 20
535.25
 30
0.0
 11
505.0000000000001
 21
537.7499999999999
 31
0.0
  0
LINE
  5
8F
  8
0
  6
CONTINUOUS
 62
     7
 10
512.5
 20
537.7499999999999
 30
0.0
 11
512.5
 21
535.25
 31
0.0
  0
LINE
  5
90
  8
0
  6
CONTINUOUS
 62
     7
 10
505.0000000000001
 20
537.7499999999999
 30
0.0
 11
512.5000000000001
 21
537.7499999999999
 31
0.0
  0
LINE
  5
91
  8
0
  6
CONTINUOUS
 62
     7
 10
512.5
 20
535.25
 30
0.0
 11
505.0000000000001
 21
535.25
 31
0.0
  0
LINE
  5
92
  8
0
  6
CONTINUOUS
 62
   253
 10
475.0
 20
444.75
 30
0.0
 11
475.0
 21
442.25
 31
0.0
  0
LINE
  5
93
  8
0
  6
CONTINUOUS
 62
     7
 10
467.5
 20
442.25
 30
0.0
 11
467.5
 21
444.75
 31
0.0
  0
LINE
  5
94
  8
0
  6
CONTINUOUS
 62
     7
 10
475.0
 20
442.25
 30
0.0
 11
467.5
 21
442.25
 31
0.0
  0
LINE
  5
95
  8
0
  6
CONTINUOUS
 62
     7
 10
467.5
 20
444.75
 30
0.0
 11
475.0
 21
444.75
 31
0.0
  0
LINE
  5
96
  8
0
  6
CONTINUOUS
 62
     7
 10
475.0
 20
442.25
 30
0.0
 11
505.0
 21
442.25
 31
0.0
  0
LINE
  5
97
  8
0
  6
CONTINUOUS
 62
     7
 10
505.0000000000001
 20
444.75
 30
0.0
 11
475.0000000000001
 21
444.75
 31
0.0
  0
LINE
  5
98
  8
0
  6
CONTINUOUS
 62
   253
 10
475.0
 20
537.7499999999999
 30
0.0
 11
475.0
 21
535.25
 31
0.0
  0
LINE
  5
99
  8
0
  6
CONTINUOUS
 62
     7
 10
505.0000000000001
 20
537.7499999999999
 30
0.0
 11
475.0000000000001
 21
537.7499999999999
 31
0.0
  0
LINE
  5
9A
  8
0
  6
CONTINUOUS
 62
     7
 10
475.0
 20
535.25
 30
0.0
 11
505.0
 21
535.25
 31
0.0
  0
LINE
  5
9B
  8
0
  6
CONTINUOUS
 62
     7
 10
467.5
 20
535.25
 30
0.0
 11
467.5
 21
537.7499999999999
 31
0.0
  0
LINE
  5
9C
  8
0
  6
CONTINUOUS
 62
     7
 10
467.5
 20
537.7499999999999
 30
0.0
 11
475.0
 21
537.7499999999999
 31
0.0
  0
LINE
  5
9D
  8
0
  6
CONTINUOUS
 62
     7
 10
475.0
 20
535.25
 30
0.0
 11
467.5
 21
535.25
 31
0.0
  0
LINE
  5
9E
  8
0
  6
CONTINUOUS
 62
     7
 10
590.0000000000001
 20
420.0000000000001
 30
0.0
 11
590.0000000000001
 21
560.0
 31
0.0
  0
ARC
  5
9F
  8
0
  6
CONTINUOUS
 62
     7
 10
560.0
 20
420.0000000000001
 30
0.0
 40
30.00000000000002
 50
270.0
 51
0.0
  0
LINE
  5
A0
  8
0
  6
CONTINUOUS
 62
     7
 10
420.0000000000001
 20
390.0
 30
0.0
 11
560.0
 21
390.0
 31
0.0
  0
ARC
  5
A1
  8
0
  6
CONTINUOUS
 62
     7
 10
420.0000000000001
 20
420.0000000000001
 30
0.0
 40
29.99999999999997
 50
180.0
 51
270.0
  0
LINE
  5
A2
  8
0
  6
CONTINUOUS
 62
     7
 10
390.0
 20
559.9999999999999
 30
0.0
 11
390.0
 21
420.0
 31
0.0
  0
ARC
  5
A3
  8
0
  6
CONTINUOUS
 62
     7
 10
420.0000000000001
 20
559.9999999999999
 30
0.0
 40
30.00000000000002
 50
90.0
 51
180.0
  0
LINE
  5
A4
  8
0
  6
CONTINUOUS
 62
     7
 10
560.0
 20
590.0
 30
0.0
 11
420.0000000000001
 21
590.0
 31
0.0
  0
LINE
  5
A5
  8
0
  6
CONTINUOUS
 62
     7
 10
512.5
 20
442.25
 30
0.0
 11
522.5000000000001
 21
442.25
 31
0.0
  0
LINE
  5
A6
  8
0
  6
CONTINUOUS
 62
     7
 10
522.5000000000001
 20
442.25
 30
0.0
 11
522.5000000000001
 21
537.7499999999999
 31
0.0
  0
LINE
  5
A7
  8
0
  6
CONTINUOUS
 62
     7
 10
512.5
 20
537.7499999999999
 30
0.0
 11
522.5000000000001
 21
537.7499999999999
 31
0.0
  0
LINE
  5
A8
  8
0
  6
CONTINUOUS
 62
     7
 10
467.5
 20
537.7499999999999
 30
0.0
 11
457.5
 21
537.7499999999999
 31
0.0
  0
LINE
  5
A9
  8
0
  6
CONTINUOUS
 62
     7
 10
457.5
 20
442.25
 30
0.0
 11
457.5
 21
537.7499999999999
 31
0.0
  0
LINE
  5
AA
  8
0
  6
CONTINUOUS
 62
     7
 10
467.5
 20
442.25
 30
0.0
 11
457.5
 21
442.25
 31
0.0
  0
ARC
  5
AB
  8
0
  6
CONTINUOUS
 62
     7
 10
560.0
 20
559.9999999999999
 30
0.0
 40
30.00000000000002
 50
0.0
 51
90.0
  0
LINE
  5
AC
  8
0
  6
CONTINUOUS
 62
   253
 10
307.5000000000001
 20
560.0
 30
0.0
 11
305.0000000000001
 21
560.0
 31
0.0
  0
LINE
  5
AD
  8
0
  6
CONTINUOUS
 62
     7
 10
305.0000000000001
 20
560.0
 30
0.0
 11
305.0000000000001
 21
590.0000000000001
 31
0.0
  0
LINE
  5
AE
  8
0
  6
CONTINUOUS
 62
     7
 10
305.0000000000001
 20
590.0000000000001
 30
0.0
 11
307.5000000000001
 21
590.0000000000001
 31
0.0
  0
LINE
  5
AF
  8
0
  6
CONTINUOUS
 62
     7
 10
307.5000000000001
 20
590.0000000000001
 30
0.0
 11
307.5000000000001
 21
560.0
 31
0.0
  0
LINE
  5
B0
  8
0
  6
CONTINUOUS
 62
     7
 10
307.5000000000001
 20
390.0
 30
0.0
 11
305.0000000000001
 21
390.0
 31
0.0
  0
LINE
  5
B1
  8
0
  6
CONTINUOUS
 62
     7
 10
305.0000000000001
 20
390.0
 30
0.0
 11
305.0000000000001
 21
420.0000000000001
 31
0.0
  0
LINE
  5
B2
  8
0
  6
CONTINUOUS
 62
   253
 10
305.0000000000001
 20
420.0000000000001
 30
0.0
 11
307.5000000000001
 21
420.0000000000001
 31
0.0
  0
LINE
  5
B3
  8
0
  6
CONTINUOUS
 62
     7
 10
307.5000000000001
 20
420.0000000000001
 30
0.0
 11
307.5000000000001
 21
390.0
 31
0.0
  0
LINE
  5
B4
  8
0
  6
CONTINUOUS
 62
     7
 10
305.0000000000001
 20
560.0
 30
0.0
 11
305.0000000000001
 21
420.0000000000001
 31
0.0
  0
LINE
  5
B5
  8
0
  6
CONTINUOUS
 62
     7
 10
307.5000000000001
 20
560.0
 30
0.0
 11
307.5000000000001
 21
420.0000000000001
 31
0.0
  0
LINE
  5
B6
  8
0
  6
CONTINUOUS
 62
     7
 10
335.0000000000001
 20
444.7500000000001
 30
0.0
 11
335.0000000000001
 21
442.2500000000001
 31
0.0
  0
LINE
  5
B7
  8
0
  6
CONTINUOUS
 62
     7
 10
335.0000000000001
 20
442.25
 30
0.0
 11
327.5000000000001
 21
442.25
 31
0.0
  0
LINE
  5
B8
  8
0
  6
CONTINUOUS
 62
   253
 10
327.5000000000001
 20
442.25
 30
0.0
 11
327.5000000000001
 21
444.75
 31
0.0
  0
LINE
  5
B9
  8
0
  6
CONTINUOUS
 62
     7
 10
327.5000000000001
 20
444.7500000000001
 30
0.0
 11
335.0000000000001
 21
444.7500000000001
 31
0.0
  0
LINE
  5
BA
  8
0
  6
CONTINUOUS
 62
     7
 10
307.5000000000001
 20
444.7500000000001
 30
0.0
 11
327.5000000000001
 21
444.7500000000001
 31
0.0
  0
LINE
  5
BB
  8
0
  6
CONTINUOUS
 62
     7
 10
307.5000000000001
 20
442.25
 30
0.0
 11
327.5000000000001
 21
442.25
 31
0.0
  0
LINE
  5
BC
  8
0
  6
CONTINUOUS
 62
     7
 10
307.5000000000001
 20
537.75
 30
0.0
 11
327.5000000000001
 21
537.75
 31
0.0
  0
LINE
  5
BD
  8
0
  6
CONTINUOUS
 62
   253
 10
327.5000000000001
 20
535.2500000000001
 30
0.0
 11
327.5000000000001
 21
537.7500000000001
 31
0.0
  0
LINE
  5
BE
  8
0
  6
CONTINUOUS
 62
     7
 10
307.5000000000001
 20
535.2500000000001
 30
0.0
 11
327.5000000000001
 21
535.2500000000001
 31
0.0
  0
LINE
  5
BF
  8
0
  6
CONTINUOUS
 62
     7
 10
335.0000000000001
 20
537.75
 30
0.0
 11
335.0000000000001
 21
535.25
 31
0.0
  0
LINE
  5
C0
  8
0
  6
CONTINUOUS
 62
     7
 10
327.5000000000001
 20
537.75
 30
0.0
 11
335.0000000000001
 21
537.75
 31
0.0
  0
LINE
  5
C1
  8
0
  6
CONTINUOUS
 62
     7
 10
335.0000000000001
 20
535.2500000000001
 30
0.0
 11
327.5000000000001
 21
535.2500000000001
 31
0.0
  0
ENDSEC
  0
EOF
