  0
SECTION
  2
HEADER
  9
$ACADVER
  1
AC1006
  9
$DWGCODEPAGE
  3
ansi_932
  9
$INSBASE
 10
0.0
 20
0.0
 30
0.0
  9
$EXTMIN
 10
-4.999999999999983
 20
44.99999999999993
  9
$EXTMAX
 10
995.0
 20
1538.692684514083
  9
$LIMMIN
 10
0.0
 20
0.0
  9
$LIMMAX
 10
12.0
 20
9.0
  9
$ORTHOMODE
 70
     0
  9
$REGENMODE
 70
     1
  9
$FILLMODE
 70
     1
  9
$QTEXTMODE
 70
     0
  9
$MIRRTEXT
 70
     1
  9
$DRAGMODE
 70
     2
  9
$LTSCALE
 40
1.0
  9
$OSMODE
 70
    37
  9
$ATTMODE
 70
     1
  9
$TEXTSIZE
 40
0.2
  9
$TRACEWID
 40
0.05
  9
$TEXTSTYLE
  7
STANDARD
  9
$CLAYER
  8
0
  9
$CELTYPE
  6
BYLAYER
  9
$CECOLOR
 62
   256
  9
$DIMSCALE
 40
1.0
  9
$DIMASZ
 40
3.0
  9
$DIMEXO
 40
0.0625
  9
$DIMDLI
 40
0.38
  9
$DIMRND
 40
0.0
  9
$DIMDLE
 40
0.0
  9
$DIMEXE
 40
1.5
  9
$DIMTP
 40
0.0
  9
$DIMTM
 40
0.0
  9
$DIMTXT
 40
3.0
  9
$DIMCEN
 40
0.09
  9
$DIMTSZ
 40
0.0
  9
$DIMTOL
 70
     0
  9
$DIMLIM
 70
     0
  9
$DIMTIH
 70
     1
  9
$DIMTOH
 70
     1
  9
$DIMSE1
 70
     0
  9
$DIMSE2
 70
     0
  9
$DIMTAD
 70
     1
  9
$DIMZIN
 70
     0
  9
$DIMBLK
  1

  9
$DIMASO
 70
     1
  9
$DIMSHO
 70
     1
  9
$DIMPOST
  1

  9
$DIMAPOST
  1

  9
$DIMALT
 70
     0
  9
$DIMALTD
 70
     2
  9
$DIMALTF
 40
25.4
  9
$DIMLFAC
 40
1.0
  9
$DIMTOFL
 70
     0
  9
$DIMTVP
 40
0.0
  9
$DIMTIX
 70
     0
  9
$DIMSOXD
 70
     0
  9
$DIMSAH
 70
     0
  9
$DIMBLK1
  1

  9
$DIMBLK2
  1

  9
$LUNITS
 70
     2
  9
$LUPREC
 70
     4
  9
$SKETCHINC
 40
0.1
  9
$FILLETRAD
 40
0.5
  9
$AUNITS
 70
     0
  9
$AUPREC
 70
     0
  9
$MENU
  1
.
  9
$ELEVATION
 40
0.0
  9
$THICKNESS
 40
0.0
  9
$LIMCHECK
 70
     0
  9
$CHAMFERA
 40
0.0
  9
$CHAMFERB
 40
0.0
  9
$SKPOLY
 70
     0
  9
$TDCREATE
 40
2458900.607765197
  9
$TDUPDATE
 40
2458900.607765961
  9
$TDINDWG
 40
0.0000000116
  9
$TDUSRTIMER
 40
0.0000000116
  9
$USRTIMER
 70
     1
  9
$ANGBASE
 50
0.0
  9
$ANGDIR
 70
     0
  9
$PDMODE
 70
     0
  9
$PDSIZE
 40
0.0
  9
$PLINEWID
 40
0.0
  9
$COORDS
 70
     1
  9
$SPLFRAME
 70
     0
  9
$SPLINETYPE
 70
     6
  9
$SPLINESEGS
 70
     8
  9
$ATTDIA
 70
     0
  9
$ATTREQ
 70
     1
  9
$HANDLING
 70
     1
  9
$HANDSEED
  5
3BD
  9
$SURFTAB1
 70
     6
  9
$SURFTAB2
 70
     6
  9
$SURFTYPE
 70
     6
  9
$SURFU
 70
     6
  9
$SURFV
 70
     6
  9
$UCSNAME
  2

  9
$UCSORG
 10
0.0
 20
0.0
 30
0.0
  9
$UCSXDIR
 10
1.0
 20
0.0
 30
0.0
  9
$UCSYDIR
 10
0.0
 20
1.0
 30
0.0
  9
$USERI1
 70
     0
  9
$USERI2
 70
     0
  9
$USERI3
 70
     0
  9
$USERI4
 70
     0
  9
$USERI5
 70
     0
  9
$USERR1
 40
0.0
  9
$USERR2
 40
0.0
  9
$USERR3
 40
0.0
  9
$USERR4
 40
0.0
  9
$USERR5
 40
0.0
  9
$WORLDVIEW
 70
     1
  0
ENDSEC
  0
SECTION
  2
TABLES
  0
TABLE
  2
VPORT
 70
     1
  0
VPORT
  2
*ACTIVE
 70
     0
 10
0.0
 20
0.0
 11
1.0
 21
1.0
 12
495.0
 22
791.8463422570417
 13
0.0
 23
0.0
 14
0.5
 24
0.5
 15
0.5
 25
0.5
 16
0.0
 26
0.0
 36
1.0
 17
0.0
 27
0.0
 37
0.0
 40
1493.692684514083
 41
1.6
 42
50.0
 43
0.0
 44
0.0
 50
0.0
 51
0.0
 71
     0
 72
   100
 73
     1
 74
     3
 75
     0
 76
     0
 77
     0
 78
     0
  0
ENDTAB
  0
TABLE
  2
LTYPE
 70
     1
  0
LTYPE
  2
CONTINUOUS
 70
     0
  3
Solid line
 72
    65
 73
     0
 40
0.0
  0
ENDTAB
  0
TABLE
  2
LAYER
 70
     1
  0
LAYER
  2
0
 70
     0
 62
     7
  6
CONTINUOUS
  0
ENDTAB
  0
TABLE
  2
STYLE
 70
     2
  0
STYLE
  2
STANDARD
 70
     0
 40
0.0
 41
1.0
 50
0.0
 71
     0
 42
0.2
  3
txt
  4

  0
STYLE
  2
ＭＳ_ゴシック
 70
     0
 40
0.0
 41
1.0
 50
0.0
 71
     0
 42
0.2
  3
ＭＳ ゴシック.shx
  4

  0
ENDTAB
  0
TABLE
  2
VIEW
 70
     0
  0
ENDTAB
  0
TABLE
  2
UCS
 70
     0
  0
ENDTAB
  0
ENDSEC
  0
SECTION
  2
BLOCKS
  0
ENDSEC
  0
SECTION
  2
ENTITIES
  0
TEXT
  5
6F
  8
0
  6
CONTINUOUS
 62
     7
 10
479.5450481430537
 20
123.2842003251219
 30
0.0
 40
30.0
  1
MRPDB-2
 41
1.5
  0
ARC
  5
70
  8
0
  6
CONTINUOUS
 62
     7
 10
873.739850454584
 20
1309.657071013029
 30
0.0
 40
0.9999999999998899
 50
225.9323016498185
 51
269.999999996486
  0
LINE
  5
71
  8
0
  6
CONTINUOUS
 62
     7
 10
914.989850450156
 20
1237.4570710105
 30
0.0
 11
914.98985044955
 21
1227.569557090661
 31
0.0
  0
LINE
  5
72
  8
0
  6
CONTINUOUS
 62
     7
 10
912.7417809843068
 20
1291.738079694285
 30
0.0
 11
914.989850453468
 21
1291.4570710105
 31
0.0
  0
ARC
  5
73
  8
0
  6
CONTINUOUS
 62
     7
 10
913.539850449205
 20
1221.957071010589
 30
0.0
 40
1.000000000000112
 50
315.9323016498159
 51
44.06769834315548
  0
LINE
  5
74
  8
0
  6
CONTINUOUS
 62
     7
 10
913.879270017517
 20
1227.851997644871
 30
0.0
 11
914.3898504496129
 21
1228.606451804545
 31
0.0
  0
LINE
  5
75
  8
0
  6
CONTINUOUS
 62
     7
 10
875.5898504540099
 20
1300.307690218908
 30
0.0
 11
875.5898504537739
 21
1296.457071012916
 31
0.0
  0
LINE
  5
76
  8
0
  6
CONTINUOUS
 62
     7
 10
878.989850453774
 20
1296.457071012707
 30
0.0
 11
878.9898504536069
 21
1293.722635449782
 31
0.0
  0
LINE
  5
77
  8
0
  6
CONTINUOUS
 62
     7
 10
913.5771543497589
 20
1310.207071010587
 30
0.0
 11
905.489850454618
 21
1310.207071011082
 31
0.0
  0
LINE
  5
78
  8
0
  6
CONTINUOUS
 62
     7
 10
914.389850449849
 20
1232.457071010537
 30
0.0
 11
910.9898504498489
 21
1232.457071010745
 31
0.0
  0
LINE
  5
79
  8
0
  6
CONTINUOUS
 62
     7
 10
905.4898504493399
 20
1224.157071011083
 30
0.0
 11
905.4898504490061
 21
1218.707071011083
 31
0.0
  0
LINE
  5
7A
  8
0
  6
CONTINUOUS
 62
     7
 10
905.4898504546181
 20
1310.207071011082
 30
0.0
 11
905.489850454283
 21
1304.757071011082
 31
0.0
  0
LINE
  5
7B
  8
0
  6
CONTINUOUS
 62
     7
 10
914.3898504496129
 20
1228.606451804545
 30
0.0
 11
914.389850449849
 21
1232.457071010537
 31
0.0
  0
LINE
  5
7C
  8
0
  6
CONTINUOUS
 62
     7
 10
874.989850453468
 20
1291.457071012953
 30
0.0
 11
874.989850454074
 21
1301.344584932792
 31
0.0
  0
ARC
  5
7D
  8
0
  6
CONTINUOUS
 62
     7
 10
889.4898504493399
 20
1224.157071012064
 30
0.0
 40
4.999999999999893
 50
89.99999999648621
 51
179.9999999964862
  0
LINE
  5
7E
  8
0
  6
CONTINUOUS
 62
     7
 10
884.4898504490059
 20
1218.70707101237
 30
0.0
 11
884.48985044934
 21
1224.15707101237
 31
0.0
  0
LINE
  5
7F
  8
0
  6
CONTINUOUS
 62
     7
 10
900.4898504496468
 20
1229.157071011389
 30
0.0
 11
889.489850449647
 21
1229.157071012064
 31
0.0
  0
LINE
  5
80
  8
0
  6
CONTINUOUS
 62
     7
 10
878.9898504498489
 20
1232.457071012707
 30
0.0
 11
878.9898504500169
 21
1235.191506575633
 31
0.0
  0
LINE
  5
81
  8
0
  6
CONTINUOUS
 62
     7
 10
884.4898504546178
 20
1310.20707101237
 30
0.0
 11
880.9025465594759
 21
1310.20707101259
 31
0.0
  0
ARC
  5
82
  8
0
  6
CONTINUOUS
 62
     7
 10
918.939850449206
 20
1221.957071010258
 30
0.0
 40
1.000000000000112
 50
135.9323016498157
 51
224.0676983431561
  0
LINE
  5
83
  8
0
  6
CONTINUOUS
 62
     7
 10
910.989850453774
 20
1296.457071010745
 30
0.0
 11
910.989850453607
 21
1293.72263544782
 31
0.0
  0
LINE
  5
84
  8
0
  6
CONTINUOUS
 62
     7
 10
910.9898504498489
 20
1232.457071010745
 30
0.0
 11
910.989850450017
 21
1235.19150657367
 31
0.0
  0
LINE
  5
85
  8
0
  6
CONTINUOUS
 62
     7
 10
912.74178098096
 20
1237.17606232699
 30
0.0
 11
914.9898504501562
 21
1237.4570710105
 31
0.0
  0
LINE
  5
86
  8
0
  6
CONTINUOUS
 62
     7
 10
914.3898504537739
 20
1296.457071010537
 30
0.0
 11
910.9898504537739
 21
1296.457071010745
 31
0.0
  0
ARC
  5
87
  8
0
  6
CONTINUOUS
 62
     7
 10
873.739850454253
 20
1304.257071013029
 30
0.0
 40
0.9999999999998899
 50
45.93230164981866
 51
134.0676983431556
  0
ARC
  5
88
  8
0
  6
CONTINUOUS
 62
     7
 10
889.4898504542831
 20
1304.757071012064
 30
0.0
 40
5.000000000000115
 50
179.9999999964862
 51
269.9999999964862
  0
LINE
  5
89
  8
0
  6
CONTINUOUS
 62
     7
 10
909.8898504490559
 20
1219.519767115671
 30
0.0
 11
909.889850449205
 21
1221.957071010813
 31
0.0
  0
LINE
  5
8A
  8
0
  6
CONTINUOUS
 62
     7
 10
914.3898504545679
 20
1309.394374905678
 30
0.0
 11
914.3898504537738
 21
1296.457071010537
 31
0.0
  0
LINE
  5
8B
  8
0
  6
CONTINUOUS
 62
     7
 10
896.37185270005
 20
1424.946357966239
 30
0.0
 11
895.4268405184729
 21
1425.273393096875
 31
0.0
  0
ARC
  5
8C
  8
0
  6
CONTINUOUS
 62
     7
 10
916.2398504493708
 20
1224.657071010423
 30
0.0
 40
0.9999999999998899
 50
225.9323016498185
 51
269.9999999964863
  0
ARC
  5
8D
  8
0
  6
CONTINUOUS
 62
     7
 10
871.039850454418
 20
1306.957071013195
 30
0.0
 40
1.000000000000334
 50
315.9323016498155
 51
44.06769834316049
  0
ARC
  5
8E
  8
0
  6
CONTINUOUS
 62
     7
 10
916.2398504492049
 20
1221.957071010423
 30
0.0
 40
6.350000000000078
 50
111.8232731769951
 51
179.9999999964859
  0
ARC
  5
8F
  8
0
  6
CONTINUOUS
 62
     7
 10
876.989850450017
 20
1235.191506575756
 30
0.0
 40
2.000000000000002
 50
359.9999999964887
 51
82.87498364758517
  0
LINE
  5
90
  8
0
  6
CONTINUOUS
 62
     7
 10
875.5898504498488
 20
1232.457071012916
 30
0.0
 11
878.9898504498489
 21
1232.457071012707
 31
0.0
  0
LINE
  5
91
  8
0
  6
CONTINUOUS
 62
     7
 10
895.8976517606279
 20
1423.576090302952
 30
0.0
 11
896.37185270005
 21
1424.946357966239
 31
0.0
  0
ARC
  5
92
  8
0
  6
CONTINUOUS
 62
     7
 10
916.2398504493708
 20
1224.657071010423
 30
0.0
 40
0.9999999999996678
 50
269.9999999964863
 51
314.0676983431556
  0
ARC
  5
93
  8
0
  6
CONTINUOUS
 62
     7
 10
900.48985044934
 20
1224.157071011389
 30
0.0
 40
5.000000000000115
 50
359.9999999964874
 51
89.99999999648621
  0
ARC
  5
94
  8
0
  6
CONTINUOUS
 62
     7
 10
873.7398504544179
 20
1306.95707101303
 30
0.0
 40
6.349999999999856
 50
291.823273176995
 51
359.999999996486
  0
ARC
  5
95
  8
0
  6
CONTINUOUS
 62
     7
 10
912.989850450017
 20
1235.191506573548
 30
0.0
 40
2.000000000000002
 50
97.12501634538756
 51
179.9999999964887
  0
LINE
  5
96
  8
0
  6
CONTINUOUS
 62
     7
 10
875.5898504537739
 20
1296.457071012916
 30
0.0
 11
878.989850453774
 21
1296.457071012707
 31
0.0
  0
LINE
  5
97
  8
0
  6
CONTINUOUS
 62
     7
 10
880.0898504545679
 20
1309.394374907781
 30
0.0
 11
880.0898504544178
 21
1306.95707101264
 31
0.0
  0
ARC
  5
98
  8
0
  6
CONTINUOUS
 62
     7
 10
916.23985044904
 20
1219.257071010423
 30
0.0
 40
0.9999999999998899
 50
45.93230164981838
 51
134.0676983431557
  0
ARC
  5
99
  8
0
  6
CONTINUOUS
 62
     7
 10
876.989850453607
 20
1293.722635449905
 30
0.0
 40
2.000000000000002
 50
277.1250163453872
 51
359.9999999964855
  0
LINE
  5
9A
  8
0
  6
CONTINUOUS
 62
     7
 10
889.489850453977
 20
1299.757071012064
 30
0.0
 11
900.4898504539769
 21
1299.757071011389
 31
0.0
  0
LINE
  5
9B
  8
0
  6
CONTINUOUS
 62
     7
 10
875.5898504490559
 20
1219.519767117775
 30
0.0
 11
875.5898504498489
 21
1232.457071012916
 31
0.0
  0
ARC
  5
9C
  8
0
  6
CONTINUOUS
 62
     7
 10
912.989850453607
 20
1293.722635447697
 30
0.0
 40
2.000000000000002
 50
179.9999999964887
 51
262.8749836475852
  0
LINE
  5
9D
  8
0
  6
CONTINUOUS
 62
     7
 10
876.100430886107
 20
1301.062144378581
 30
0.0
 11
875.58985045401
 21
1300.307690218908
 31
0.0
  0
LINE
  5
9E
  8
0
  6
CONTINUOUS
 62
     7
 10
884.489850454283
 20
1304.75707101237
 30
0.0
 11
884.4898504546178
 21
1310.20707101237
 31
0.0
  0
LINE
  5
9F
  8
0
  6
CONTINUOUS
 62
     7
 10
876.4025465538648
 20
1218.707071012866
 30
0.0
 11
884.4898504490058
 21
1218.70707101237
 31
0.0
  0
LINE
  5
A0
  8
0
  6
CONTINUOUS
 62
     7
 10
905.489850449006
 20
1218.707071011083
 30
0.0
 11
909.0771543441479
 21
1218.707071010863
 31
0.0
  0
LINE
  5
A1
  8
0
  6
CONTINUOUS
 62
     7
 10
877.237919919317
 20
1237.176062329168
 30
0.0
 11
874.9898504501559
 21
1237.457071012953
 31
0.0
  0
LINE
  5
A2
  8
0
  6
CONTINUOUS
 62
     7
 10
877.2379199226631
 20
1291.738079696462
 30
0.0
 11
874.989850453468
 21
1291.457071012953
 31
0.0
  0
ARC
  5
A3
  8
0
  6
CONTINUOUS
 62
     7
 10
876.4398504544179
 20
1306.957071012864
 30
0.0
 40
0.9999999999998899
 50
135.9323016498157
 51
224.0676983431605
  0
ARC
  5
A4
  8
0
  6
CONTINUOUS
 62
     7
 10
873.739850454584
 20
1309.657071013029
 30
0.0
 40
0.9999999999998899
 50
269.9999999964861
 51
314.0676983431556
  0
ARC
  5
A5
  8
0
  6
CONTINUOUS
 62
     7
 10
900.489850454283
 20
1304.757071011389
 30
0.0
 40
5.000000000000115
 50
269.9999999964862
 51
359.999999996486
  0
ARC
  5
A6
  8
0
  6
CONTINUOUS
 62
     7
 10
893.346338494135
 20
1421.707721865995
 30
0.0
 40
0.7999999999999119
 50
340.9110815557945
 51
70.91108155578854
  0
LINE
  5
A7
  8
0
  6
CONTINUOUS
 62
     7
 10
894.5731594815519
 20
1419.748790967563
 30
0.0
 11
895.047360420974
 21
1421.11905863085
 31
0.0
  0
LINE
  5
A8
  8
0
  6
CONTINUOUS
 62
     7
 10
895.426840518473
 20
1425.273393096875
 30
0.0
 11
894.9526395790509
 21
1423.903125433587
 31
0.0
  0
LINE
  5
A9
  8
0
  6
CONTINUOUS
 62
     7
 10
892.7633703749459
 20
1422.75601634762
 30
0.0
 11
893.607966598643
 21
1422.463731611257
 31
0.0
  0
CIRCLE
  5
AA
  8
0
  6
CONTINUOUS
 62
     7
 10
895.0000000000118
 20
1422.511092032219
 30
0.0
 40
4.000000000000004
  0
LINE
  5
AB
  8
0
  6
CONTINUOUS
 62
     7
 10
897.236629625079
 20
1422.266167716818
 30
0.0
 11
896.3920334013809
 21
1422.558452453181
 31
0.0
  0
ARC
  5
AC
  8
0
  6
CONTINUOUS
 62
     7
 10
895.0000000000118
 20
1422.511092032219
 30
0.0
 40
2.249999999999863
 50
328.0714931488831
 51
353.7506699626921
  0
ARC
  5
AD
  8
0
  6
CONTINUOUS
 62
     7
 10
895.0000000000118
 20
1422.511092032219
 30
0.0
 40
2.249999999999863
 50
148.0714931488832
 51
173.7506699626921
  0
LINE
  5
AE
  8
0
  6
CONTINUOUS
 62
     7
 10
874.9898504501559
 20
1237.457071012953
 30
0.0
 11
874.9898504489998
 21
1218.607071012953
 31
0.0
  0
LINE
  5
AF
  8
0
  6
CONTINUOUS
 62
     7
 10
893.9350017292801
 20
1423.408743792835
 30
0.0
 11
893.090405505582
 21
1423.701028529197
 31
0.0
  0
ARC
  5
B0
  8
0
  6
CONTINUOUS
 62
     7
 10
895.8033701662359
 20
1420.857430526341
 30
0.0
 40
0.7999999999996898
 50
70.91108155578603
 51
160.9110815557868
  0
ARC
  5
B1
  8
0
  6
CONTINUOUS
 62
     7
 10
896.6536615058899
 20
1423.314462198442
 30
0.0
 40
0.7999999999999119
 50
160.9110815557945
 51
250.9110815557881
  0
LINE
  5
B2
  8
0
  6
CONTINUOUS
 62
     7
 10
914.989850453468
 20
1291.4570710105
 30
0.0
 11
914.989850454624
 21
1310.3070710105
 31
0.0
  0
ARC
  5
B3
  8
0
  6
CONTINUOUS
 62
     7
 10
895.0000000000118
 20
1506.011092032219
 30
0.0
 40
2.250000000000085
 50
148.0714931488832
 51
173.7506699626921
  0
LINE
  5
B4
  8
0
  6
CONTINUOUS
 62
     7
 10
896.064998270745
 20
1505.113440271604
 30
0.0
 11
896.9095944944431
 21
1504.821155535241
 31
0.0
  0
LINE
  5
B5
  8
0
  6
CONTINUOUS
 62
     7
 10
894.102348239397
 20
1421.446093761487
 30
0.0
 11
893.6281472999739
 21
1420.075826098199
 31
0.0
  0
LINE
  5
B6
  8
0
  6
CONTINUOUS
 62
     7
 10
894.5731594815519
 20
1503.248790967564
 30
0.0
 11
895.047360420974
 21
1504.619058630851
 31
0.0
  0
LINE
  5
B7
  8
0
  6
CONTINUOUS
 62
     7
 10
895.8976517606279
 20
1507.076090302951
 30
0.0
 11
896.37185270005
 21
1508.446357966239
 31
0.0
  0
LINE
  5
B8
  8
0
  6
CONTINUOUS
 62
     7
 10
906.8000127733709
 20
1430.48560591711
 30
0.0
 11
906.7996371598
 21
1430.499134722572
 31
0.0
  0
LINE
  5
B9
  8
0
  6
CONTINUOUS
 62
     7
 10
897.236629625079
 20
1505.766167716818
 30
0.0
 11
896.3920334013809
 21
1506.058452453181
 31
0.0
  0
LINE
  5
BA
  8
0
  6
CONTINUOUS
 62
     7
 10
893.628147299974
 20
1503.575826098199
 30
0.0
 11
894.573159481552
 21
1503.248790967564
 31
0.0
  0
LINE
  5
BB
  8
0
  6
CONTINUOUS
 62
     7
 10
893.628147299974
 20
1420.075826098199
 30
0.0
 11
894.573159481552
 21
1419.748790967563
 31
0.0
  0
LINE
  5
BC
  8
0
  6
CONTINUOUS
 62
     7
 10
894.102348239397
 20
1504.946093761487
 30
0.0
 11
893.6281472999739
 21
1503.575826098199
 31
0.0
  0
LINE
  5
BD
  8
0
  6
CONTINUOUS
 62
     7
 10
892.7633703749459
 20
1506.25601634762
 30
0.0
 11
893.607966598643
 21
1505.963731611257
 31
0.0
  0
LINE
  5
BE
  8
0
  6
CONTINUOUS
 62
     7
 10
910.0837537916078
 20
1438.382798216588
 30
0.0
 11
911.6886581924778
 21
1437.382798216591
 31
0.0
  0
CIRCLE
  5
BF
  8
0
  6
CONTINUOUS
 62
   253
 10
895.0000000000118
 20
1506.011092032219
 30
0.0
 40
1.021236244656443
  0
ARC
  5
C0
  8
0
  6
CONTINUOUS
 62
     7
 10
894.196629833789
 20
1424.164753538097
 30
0.0
 40
0.8000000000001339
 50
250.9110815557859
 51
340.9110815557868
  0
LINE
  5
C1
  8
0
  6
CONTINUOUS
 62
   253
 10
899.9081999695971
 20
1438.382798216662
 30
0.0
 11
899.5000000000041
 21
1438.38279821666
 31
0.0
  0
ARC
  5
C2
  8
0
  6
CONTINUOUS
 62
     7
 10
895.0000000000118
 20
1506.011092032219
 30
0.0
 40
2.249999999999863
 50
328.0714931488831
 51
353.7506699626921
  0
LINE
  5
C3
  8
0
  6
CONTINUOUS
 62
     7
 10
895.426840518473
 20
1508.773393096875
 30
0.0
 11
894.9526395790509
 21
1507.403125433588
 31
0.0
  0
ARC
  5
C4
  8
0
  6
CONTINUOUS
 62
     7
 10
896.6536615058899
 20
1506.814462198443
 30
0.0
 40
0.7999999999999119
 50
160.911081555787
 51
250.9110815557907
  0
LINE
  5
C5
  8
0
  6
CONTINUOUS
 62
     7
 10
900.5
 20
1439.382798216665
 30
0.0
 11
920.0000000000008
 21
1439.382798216747
 31
0.0
  0
LINE
  5
C6
  8
0
  6
CONTINUOUS
 62
     7
 10
893.9350017292801
 20
1506.908743792835
 30
0.0
 11
893.090405505582
 21
1507.201028529198
 31
0.0
  0
CIRCLE
  5
C7
  8
0
  6
CONTINUOUS
 62
     7
 10
895.0000000000118
 20
1506.011092032219
 30
0.0
 40
4.000000000000004
  0
LINE
  5
C8
  8
0
  6
CONTINUOUS
 62
     7
 10
906.1861053617752
 20
1431.633055955496
 30
0.0
 11
901.9514035959402
 21
1431.633055955478
 31
0.0
  0
ARC
  5
C9
  8
0
  6
CONTINUOUS
 62
     7
 10
893.346338494135
 20
1505.207721865995
 30
0.0
 40
0.7999999999999119
 50
340.911081555787
 51
70.9110815557911
  0
LINE
  5
CA
  8
0
  6
CONTINUOUS
 62
     7
 10
899.029293298908
 20
1431.231132166773
 30
0.0
 11
898.908199969643
 21
1431.25985288634
 31
0.0
  0
CIRCLE
  5
CB
  8
0
  6
CONTINUOUS
 62
   253
 10
895.0000000000118
 20
1422.511092032219
 30
0.0
 40
1.021236244656443
  0
LINE
  5
CC
  8
0
  6
CONTINUOUS
 62
     7
 10
896.064998270745
 20
1421.613440271603
 30
0.0
 11
896.9095944944431
 21
1421.321155535241
 31
0.0
  0
LINE
  5
CD
  8
0
  6
CONTINUOUS
 62
     7
 10
911.688658192478
 20
1437.382798216591
 30
0.0
 11
911.6886581925031
 21
1431.633055955398
 31
0.0
  0
LINE
  5
CE
  8
0
  6
CONTINUOUS
 62
     7
 10
917.7833233625779
 20
1431.633055955544
 30
0.0
 11
911.6886581925019
 21
1431.633055955519
 31
0.0
  0
ARC
  5
CF
  8
0
  6
CONTINUOUS
 62
     7
 10
894.196629833789
 20
1507.664753538097
 30
0.0
 40
0.8000000000001339
 50
250.9110815557911
 51
340.9110815557868
  0
ARC
  5
D0
  8
0
  6
CONTINUOUS
 62
     7
 10
895.8033701662359
 20
1504.357430526341
 30
0.0
 40
0.8000000000001339
 50
70.91108155579121
 51
160.9110815557868
  0
LINE
  5
D1
  8
0
  6
CONTINUOUS
 62
     7
 10
896.37185270005
 20
1508.446357966239
 30
0.0
 11
895.426840518473
 21
1508.773393096875
 31
0.0
  0
LINE
  5
D2
  8
0
  6
CONTINUOUS
 62
     7
 10
907.7398415246761
 20
1438.382798216586
 30
0.0
 11
908.2482449236871
 21
1438.382798216588
 31
0.0
  0
LINE
  5
D3
  8
0
  6
CONTINUOUS
 62
     7
 10
919.4026303798969
 20
1438.382798216625
 30
0.0
 11
919.7414775880769
 21
1438.382798216626
 31
0.0
  0
LINE
  5
D4
  8
0
  6
CONTINUOUS
 62
     7
 10
906.1861053617529
 20
1437.382798216586
 30
0.0
 11
906.1861053617769
 21
1431.633055955394
 31
0.0
  0
LINE
  5
D5
  8
0
  6
CONTINUOUS
 62
     7
 10
923.9898504514748
 20
1258.957071014348
 30
0.0
 11
923.9898504505379
 21
1243.681815885739
 31
0.0
  0
LINE
  5
D6
  8
0
  6
CONTINUOUS
 62
     7
 10
865.989850450538
 20
1243.681815889296
 30
0.0
 11
865.7398504505392
 21
1243.707071017914
 31
0.0
  0
LINE
  5
D7
  8
0
  6
CONTINUOUS
 62
     7
 10
865.9898504503869
 20
1241.232326146513
 30
0.0
 11
865.9898504496201
 21
1228.725020210335
 31
0.0
  0
LINE
  5
D8
  8
0
  6
CONTINUOUS
 62
     7
 10
899.9081999695989
 20
1438.382798216621
 30
0.0
 11
899.9687466342389
 21
1438.382798216621
 31
0.0
  0
LINE
  5
D9
  8
0
  6
CONTINUOUS
 62
     7
 10
907.6043990041969
 20
1438.382798216586
 30
0.0
 11
907.7398415246761
 21
1438.382798216584
 31
0.0
  0
CIRCLE
  5
DA
  8
0
  6
CONTINUOUS
 62
     7
 10
894.9999999999999
 20
466.9610920323182
 30
0.0
 40
8.99999999999923
  0
LINE
  5
DB
  8
0
  6
CONTINUOUS
 62
     7
 10
864.989850450386
 20
1241.207071017943
 30
0.0
 11
864.9898504497271
 21
1230.457071017943
 31
0.0
  0
LINE
  5
DC
  8
0
  6
CONTINUOUS
 62
     7
 10
902.9999999999999
 20
1427.511092032318
 30
0.0
 11
902.9999999999999
 21
1426.761092032318
 31
0.0
  0
LINE
  5
DD
  8
0
  6
CONTINUOUS
 62
     7
 10
923.989850453086
 20
1285.232326142956
 30
0.0
 11
923.989850452149
 21
1269.957071014348
 31
0.0
  0
LINE
  5
DE
  8
0
  6
CONTINUOUS
 62
     7
 10
878.9999999999999
 20
1426.761092032318
 30
0.0
 11
878.9999999999999
 21
1429.261092032319
 31
0.0
  0
LINE
  5
DF
  8
0
  6
CONTINUOUS
 62
     7
 10
908.248244923686
 20
1438.382798216697
 30
0.0
 11
908.9983124755611
 21
1438.3827982167
 31
0.0
  0
LINE
  5
E0
  8
0
  6
CONTINUOUS
 62
     7
 10
864.989850451474
 20
1258.957071017943
 30
0.0
 11
864.9898504505388
 21
1243.707071017943
 31
0.0
  0
LINE
  5
E1
  8
0
  6
CONTINUOUS
 62
     7
 10
865.989850452149
 20
1269.957071017905
 30
0.0
 11
869.989850452149
 21
1269.957071017659
 31
0.0
  0
LINE
  5
E2
  8
0
  6
CONTINUOUS
 62
     7
 10
910.9999999999999
 20
1426.761092032318
 30
0.0
 11
903.0
 21
1426.761092032318
 31
0.0
  0
LINE
  5
E3
  8
0
  6
CONTINUOUS
 62
     7
 10
919.7414775880769
 20
1438.382798216633
 30
0.0
 11
919.9999999999998
 21
1438.382798216634
 31
0.0
  0
LINE
  5
E4
  8
0
  6
CONTINUOUS
 62
     7
 10
909.7399939947069
 20
1438.382798216585
 30
0.0
 11
910.0837537916078
 21
1438.382798216587
 31
0.0
  0
LINE
  5
E5
  8
0
  6
CONTINUOUS
 62
     7
 10
878.9999999999999
 20
1426.761092032318
 30
0.0
 11
886.9999999999998
 21
1426.761092032318
 31
0.0
  0
LINE
  5
E6
  8
0
  6
CONTINUOUS
 62
     7
 10
906.1861053617529
 20
1437.382798216586
 30
0.0
 11
907.6043990041968
 21
1438.382798216586
 31
0.0
  0
LINE
  5
E7
  8
0
  6
CONTINUOUS
 62
     7
 10
917.7833233625531
 20
1437.382798216615
 30
0.0
 11
919.402630379897
 21
1438.382798216626
 31
0.0
  0
LINE
  5
E8
  8
0
  6
CONTINUOUS
 62
     7
 10
908.998312475562
 20
1438.382798216589
 30
0.0
 11
909.739993994707
 21
1438.382798216592
 31
0.0
  0
LINE
  5
E9
  8
0
  6
CONTINUOUS
 62
     7
 10
886.9999999999999
 20
1427.511092032318
 30
0.0
 11
886.9999999999999
 21
1426.761092032318
 31
0.0
  0
LINE
  5
EA
  8
0
  6
CONTINUOUS
 62
     7
 10
901.9514035959189
 20
1437.382798216603
 30
0.0
 11
901.9514035959429
 21
1431.633055955411
 31
0.0
  0
LINE
  5
EB
  8
0
  6
CONTINUOUS
 62
     7
 10
901.1294472155761
 20
1438.382798216613
 30
0.0
 11
901.951403595919
 21
1437.382798216603
 31
0.0
  0
LINE
  5
EC
  8
0
  6
CONTINUOUS
 62
     7
 10
899.9687466342359
 20
1438.382798216662
 30
0.0
 11
900.268560347625
 21
1438.382798216663
 31
0.0
  0
LINE
  5
ED
  8
0
  6
CONTINUOUS
 62
     7
 10
910.9999999999999
 20
1429.261092032319
 30
0.0
 11
879.0
 21
1429.261092032319
 31
0.0
  0
LINE
  5
EE
  8
0
  6
CONTINUOUS
 62
     7
 10
900.2685603476281
 20
1438.382798216617
 30
0.0
 11
900.7906000073959
 21
1438.382798216619
 31
0.0
  0
LINE
  5
EF
  8
0
  6
CONTINUOUS
 62
     7
 10
917.7833233625531
 20
1437.382798216615
 30
0.0
 11
917.783323362577
 21
1431.633055955423
 31
0.0
  0
LINE
  5
F0
  8
0
  6
CONTINUOUS
 62
     7
 10
924.9898504530839
 20
1285.207071014264
 30
0.0
 11
924.2398504530838
 21
1285.207071014326
 31
0.0
  0
LINE
  5
F1
  8
0
  6
CONTINUOUS
 62
     7
 10
919.9898504496039
 20
1228.457071014593
 30
0.0
 11
922.989850449604
 21
1228.457071014409
 31
0.0
  0
LINE
  5
F2
  8
0
  6
CONTINUOUS
 62
     7
 10
924.9898504514749
 20
1258.957071014264
 30
0.0
 11
924.9898504505389
 21
1243.707071014264
 31
0.0
  0
LINE
  5
F3
  8
0
  6
CONTINUOUS
 62
     7
 10
865.739850450539
 20
1243.707071017914
 30
0.0
 11
864.9898504505389
 21
1243.707071017943
 31
0.0
  0
ARC
  5
F4
  8
0
  6
CONTINUOUS
 62
     7
 10
922.9898504497268
 20
1230.457071014409
 30
0.0
 40
1.99999999999978
 50
269.9999999964862
 51
299.9999999964864
  0
LINE
  5
F5
  8
0
  6
CONTINUOUS
 62
     7
 10
869.9898504514741
 20
1258.957071017659
 30
0.0
 11
865.989850451475
 21
1258.957071017905
 31
0.0
  0
LINE
  5
F6
  8
0
  6
CONTINUOUS
 62
     7
 10
924.9898504530839
 20
1285.207071014264
 30
0.0
 11
924.9898504521487
 21
1269.957071014264
 31
0.0
  0
LINE
  5
F7
  8
0
  6
CONTINUOUS
 62
     7
 10
919.9898504540199
 20
1300.457071014593
 30
0.0
 11
922.98985045402
 21
1300.457071014409
 31
0.0
  0
LINE
  5
F8
  8
0
  6
CONTINUOUS
 62
     7
 10
900.790600007396
 20
1438.382798216613
 30
0.0
 11
901.1294472155761
 21
1438.382798216613
 31
0.0
  0
ARC
  5
F9
  8
0
  6
CONTINUOUS
 62
     7
 10
922.989850453897
 20
1298.457071014409
 30
0.0
 40
2.000000000000002
 50
59.9999999964873
 51
89.99999999648617
  0
LINE
  5
FA
  8
0
  6
CONTINUOUS
 62
     7
 10
886.9999999999999
 20
1427.511092032318
 30
0.0
 11
902.9999999999999
 21
1427.511092032318
 31
0.0
  0
LINE
  5
FB
  8
0
  6
CONTINUOUS
 62
     7
 10
869.9898504540199
 20
1300.457071017659
 30
0.0
 11
866.9898504540198
 21
1300.457071017843
 31
0.0
  0
ARC
  5
FC
  8
0
  6
CONTINUOUS
 62
     7
 10
924.2398504504629
 20
1242.457071014332
 30
0.0
 40
1.249999999999973
 50
101.5369590293027
 51
179.9999999964887
  0
LINE
  5
FD
  8
0
  6
CONTINUOUS
 62
     7
 10
874.0
 20
1429.477798224858
 30
0.0
 11
874.0
 21
1429.469044506416
 31
0.0
  0
LINE
  5
FE
  8
0
  6
CONTINUOUS
 62
     7
 10
910.9999999999999
 20
1426.761092032318
 30
0.0
 11
910.9999999999999
 21
1429.261092032319
 31
0.0
  0
LINE
  5
FF
  8
0
  6
CONTINUOUS
 62
     7
 10
924.989850450386
 20
1241.207071014263
 30
0.0
 11
924.2398504503861
 21
1241.207071014327
 31
0.0
  0
LINE
  5
100
  8
0
  6
CONTINUOUS
 62
     7
 10
864.989850450386
 20
1241.207071017943
 30
0.0
 11
865.739850450386
 21
1241.207071017914
 31
0.0
  0
LINE
  5
101
  8
0
  6
CONTINUOUS
 62
     7
 10
924.989850449727
 20
1230.457071014264
 30
0.0
 11
923.9898504496201
 21
1228.725020206779
 31
0.0
  0
LINE
  5
102
  8
0
  6
CONTINUOUS
 62
     7
 10
919.9898504540199
 20
1300.457071014494
 30
0.0
 11
919.4898504540199
 21
1300.457071014525
 31
0.0
  0
LINE
  5
103
  8
0
  6
CONTINUOUS
 62
     7
 10
924.9898504514749
 20
1258.957071014214
 30
0.0
 11
924.989850451597
 21
1260.957071014214
 31
0.0
  0
LINE
  5
104
  8
0
  6
CONTINUOUS
 62
     7
 10
864.989850452026
 20
1267.957071017894
 30
0.0
 11
864.989850452149
 21
1269.957071017894
 31
0.0
  0
LINE
  5
105
  8
0
  6
CONTINUOUS
 62
     7
 10
864.989850451474
 20
1258.957071017894
 30
0.0
 11
864.9898504515968
 21
1260.957071017894
 31
0.0
  0
LINE
  5
106
  8
0
  6
CONTINUOUS
 62
     7
 10
923.9898504540029
 20
1300.189121821916
 30
0.0
 11
923.9898504532358
 21
1287.681815885739
 31
0.0
  0
LINE
  5
107
  8
0
  6
CONTINUOUS
 62
     7
 10
865.989850453236
 20
1287.681815889296
 30
0.0
 11
865.7398504532379
 21
1287.707071017914
 31
0.0
  0
LINE
  5
108
  8
0
  6
CONTINUOUS
 62
     7
 10
922.4898504516277
 20
1261.457071014368
 30
0.0
 11
924.4898504516278
 21
1261.457071014245
 31
0.0
  0
LINE
  5
109
  8
0
  6
CONTINUOUS
 62
     7
 10
923.9898504532359
 20
1287.681815885739
 30
0.0
 11
924.239850453238
 21
1287.707071014327
 31
0.0
  0
ARC
  5
10A
  8
0
  6
CONTINUOUS
 62
     7
 10
865.7398504504631
 20
1242.45707101792
 30
0.0
 40
1.249999999999973
 50
359.9999999964887
 51
78.46304096367088
  0
LINE
  5
10B
  8
0
  6
CONTINUOUS
 62
     7
 10
869.9898504540199
 20
1300.457071017659
 30
0.0
 11
869.989850452149
 21
1269.957071017659
 31
0.0
  0
LINE
  5
10C
  8
0
  6
CONTINUOUS
 62
     7
 10
923.989850452149
 20
1269.957071014348
 30
0.0
 11
919.9898504521489
 21
1269.957071014593
 31
0.0
  0
LINE
  5
10D
  8
0
  6
CONTINUOUS
 62
     7
 10
919.9898504540199
 20
1300.457071014593
 30
0.0
 11
919.9898504521489
 21
1269.957071014593
 31
0.0
  0
ARC
  5
10E
  8
0
  6
CONTINUOUS
 62
     7
 10
865.7398504504631
 20
1242.45707101792
 30
0.0
 40
1.249999999999973
 50
281.5369590293026
 51
359.9999999964887
  0
ARC
  5
10F
  8
0
  6
CONTINUOUS
 62
     7
 10
867.4898504519039
 20
1265.957071017741
 30
0.0
 40
1.500000000000057
 50
359.9999999964886
 51
89.99999999648617
  0
LINE
  5
110
  8
0
  6
CONTINUOUS
 62
     7
 10
923.989850450538
 20
1243.681815885739
 30
0.0
 11
924.239850450539
 21
1243.707071014327
 31
0.0
  0
ARC
  5
111
  8
0
  6
CONTINUOUS
 62
     7
 10
924.2398504531609
 20
1286.457071014332
 30
0.0
 40
1.249999999999973
 50
101.5369590293026
 51
179.9999999964887
  0
LINE
  5
112
  8
0
  6
CONTINUOUS
 62
     7
 10
919.489850449604
 20
1228.457071014525
 30
0.0
 11
919.989850449604
 21
1228.457071014494
 31
0.0
  0
LINE
  5
113
  8
0
  6
CONTINUOUS
 62
     7
 10
924.989850450386
 20
1241.207071014263
 30
0.0
 11
924.989850449727
 21
1230.457071014264
 31
0.0
  0
LINE
  5
114
  8
0
  6
CONTINUOUS
 62
     7
 10
924.9898504520258
 20
1267.957071014215
 30
0.0
 11
924.9898504521487
 21
1269.957071014214
 31
0.0
  0
LINE
  5
115
  8
0
  6
CONTINUOUS
 62
     7
 10
923.989850452149
 20
1269.957071014348
 30
0.0
 11
924.9898504521489
 21
1269.957071014264
 31
0.0
  0
LINE
  5
116
  8
0
  6
CONTINUOUS
 62
     7
 10
865.989850454003
 20
1300.189121825474
 30
0.0
 11
864.989850453897
 21
1298.457071017943
 31
0.0
  0
LINE
  5
117
  8
0
  6
CONTINUOUS
 62
     7
 10
865.739850453238
 20
1287.707071017914
 30
0.0
 11
864.9898504532382
 21
1287.707071017943
 31
0.0
  0
ARC
  5
118
  8
0
  6
CONTINUOUS
 62
     7
 10
924.2398504531609
 20
1286.457071014332
 30
0.0
 40
1.249999999999973
 50
179.9999999964887
 51
258.4630409636709
  0
LINE
  5
119
  8
0
  6
CONTINUOUS
 62
     7
 10
920.989850451904
 20
1265.95707101446
 30
0.0
 11
920.9898504517199
 21
1262.95707101446
 31
0.0
  0
LINE
  5
11A
  8
0
  6
CONTINUOUS
 62
     7
 10
923.9898504540029
 20
1300.189121821916
 30
0.0
 11
924.9898504538968
 21
1298.457071014264
 31
0.0
  0
LINE
  5
11B
  8
0
  6
CONTINUOUS
 62
     7
 10
869.9898504496041
 20
1228.457071017659
 30
0.0
 11
866.989850449604
 21
1228.457071017843
 31
0.0
  0
LINE
  5
11C
  8
0
  6
CONTINUOUS
 62
     7
 10
924.2398504530838
 20
1285.207071014326
 30
0.0
 11
923.989850453086
 21
1285.232326142956
 31
0.0
  0
LINE
  5
11D
  8
0
  6
CONTINUOUS
 62
     7
 10
865.989850453086
 20
1285.232326146513
 30
0.0
 11
865.989850452149
 21
1269.957071017905
 31
0.0
  0
ARC
  5
11E
  8
0
  6
CONTINUOUS
 62
     7
 10
865.7398504531609
 20
1286.45707101792
 30
0.0
 40
1.249999999999973
 50
281.5369590293027
 51
359.9999999964886
  0
LINE
  5
11F
  8
0
  6
CONTINUOUS
 62
     7
 10
864.989850449727
 20
1230.457071017943
 30
0.0
 11
865.9898504496199
 21
1228.725020210336
 31
0.0
  0
LINE
  5
120
  8
0
  6
CONTINUOUS
 62
     7
 10
919.989850451475
 20
1258.957071014593
 30
0.0
 11
919.9898504496041
 21
1228.457071014593
 31
0.0
  0
ARC
  5
121
  8
0
  6
CONTINUOUS
 62
     7
 10
866.989850453897
 20
1298.457071017843
 30
0.0
 40
1.99999999999978
 50
89.9999999964862
 51
119.9999999964864
  0
LINE
  5
122
  8
0
  6
CONTINUOUS
 62
     7
 10
924.989850453897
 20
1298.457071014264
 30
0.0
 11
924.9898504532381
 21
1287.707071014264
 31
0.0
  0
LINE
  5
123
  8
0
  6
CONTINUOUS
 62
     7
 10
924.239850453238
 20
1287.707071014327
 30
0.0
 11
924.989850453238
 21
1287.707071014264
 31
0.0
  0
ARC
  5
124
  8
0
  6
CONTINUOUS
 62
     7
 10
924.2398504504629
 20
1242.457071014332
 30
0.0
 40
1.250000000000195
 50
179.9999999964887
 51
258.46304096367
  0
LINE
  5
125
  8
0
  6
CONTINUOUS
 62
     7
 10
919.9898504521487
 20
1269.957071014521
 30
0.0
 11
919.9898504514748
 21
1258.957071014521
 31
0.0
  0
ARC
  5
126
  8
0
  6
CONTINUOUS
 62
     7
 10
867.48985045172
 20
1262.957071017741
 30
0.0
 40
1.500000000000057
 50
269.9999999964862
 51
359.9999999964886
  0
LINE
  5
127
  8
0
  6
CONTINUOUS
 62
     7
 10
865.739850450386
 20
1241.207071017914
 30
0.0
 11
865.9898504503869
 21
1241.232326146513
 31
0.0
  0
LINE
  5
128
  8
0
  6
CONTINUOUS
 62
     7
 10
924.489850451996
 20
1267.457071014245
 30
0.0
 11
922.4898504519958
 21
1267.457071014368
 31
0.0
  0
LINE
  5
129
  8
0
  6
CONTINUOUS
 62
     7
 10
869.9898504514741
 20
1258.957071017659
 30
0.0
 11
869.9898504496041
 21
1228.457071017659
 31
0.0
  0
ARC
  5
12A
  8
0
  6
CONTINUOUS
 62
     7
 10
924.4898504515969
 20
1260.957071014245
 30
0.0
 40
0.4999999999999449
 50
359.9999999964759
 51
89.99999999648628
  0
ARC
  5
12B
  8
0
  6
CONTINUOUS
 62
     7
 10
922.489850451904
 20
1265.957071014367
 30
0.0
 40
1.500000000000057
 50
89.99999999648615
 51
179.9999999964845
  0
ARC
  5
12C
  8
0
  6
CONTINUOUS
 62
     7
 10
922.4898504517201
 20
1262.957071014368
 30
0.0
 40
1.499999999999835
 50
179.9999999964845
 51
269.9999999964862
  0
LINE
  5
12D
  8
0
  6
CONTINUOUS
 62
     7
 10
864.989850453084
 20
1285.207071017944
 30
0.0
 11
864.989850452149
 21
1269.957071017944
 31
0.0
  0
LINE
  5
12E
  8
0
  6
CONTINUOUS
 62
     7
 10
865.7398504530838
 20
1285.207071017914
 30
0.0
 11
865.9898504530859
 21
1285.232326146513
 31
0.0
  0
LINE
  5
12F
  8
0
  6
CONTINUOUS
 62
     7
 10
865.989850452149
 20
1269.957071017905
 30
0.0
 11
864.989850452149
 21
1269.957071017944
 31
0.0
  0
LINE
  5
130
  8
0
  6
CONTINUOUS
 62
     7
 10
924.239850450539
 20
1243.707071014327
 30
0.0
 11
924.9898504505389
 21
1243.707071014264
 31
0.0
  0
LINE
  5
131
  8
0
  6
CONTINUOUS
 62
     7
 10
864.989850453084
 20
1285.207071017944
 30
0.0
 11
865.7398504530839
 21
1285.207071017914
 31
0.0
  0
LINE
  5
132
  8
0
  6
CONTINUOUS
 62
     7
 10
865.489850451996
 20
1267.457071017863
 30
0.0
 11
867.4898504519961
 21
1267.457071017741
 31
0.0
  0
LINE
  5
133
  8
0
  6
CONTINUOUS
 62
     7
 10
924.239850450386
 20
1241.207071014327
 30
0.0
 11
923.9898504503878
 21
1241.232326142956
 31
0.0
  0
LINE
  5
134
  8
0
  6
CONTINUOUS
 62
     7
 10
864.989850451474
 20
1258.957071017943
 30
0.0
 11
865.9898504514749
 21
1258.957071017904
 31
0.0
  0
LINE
  5
135
  8
0
  6
CONTINUOUS
 62
     7
 10
864.9898504538969
 20
1298.457071017943
 30
0.0
 11
864.9898504532381
 21
1287.707071017943
 31
0.0
  0
LINE
  5
136
  8
0
  6
CONTINUOUS
 62
     7
 10
924.9898504514749
 20
1258.957071014264
 30
0.0
 11
923.9898504514749
 21
1258.957071014348
 31
0.0
  0
LINE
  5
137
  8
0
  6
CONTINUOUS
 62
     7
 10
919.989850451475
 20
1258.957071014593
 30
0.0
 11
923.989850451475
 21
1258.957071014348
 31
0.0
  0
ARC
  5
138
  8
0
  6
CONTINUOUS
 62
     7
 10
866.989850449727
 20
1230.457071017843
 30
0.0
 40
1.99999999999978
 50
239.9999999964873
 51
269.9999999964862
  0
ARC
  5
139
  8
0
  6
CONTINUOUS
 62
     7
 10
865.7398504531609
 20
1286.45707101792
 30
0.0
 40
1.249999999999973
 50
359.9999999964886
 51
78.46304096366998
  0
LINE
  5
13A
  8
0
  6
CONTINUOUS
 62
     7
 10
923.989850450388
 20
1241.232326142956
 30
0.0
 11
923.9898504496201
 21
1228.725020206779
 31
0.0
  0
LINE
  5
13B
  8
0
  6
CONTINUOUS
 62
     7
 10
865.989850454003
 20
1300.189121825474
 30
0.0
 11
865.989850453236
 21
1287.681815889296
 31
0.0
  0
LINE
  5
13C
  8
0
  6
CONTINUOUS
 62
     7
 10
865.989850451475
 20
1258.957071017904
 30
0.0
 11
865.989850450538
 21
1243.681815889296
 31
0.0
  0
CIRCLE
  5
13D
  8
0
  6
CONTINUOUS
 62
     7
 10
873.7398504544179
 20
1306.957071017222
 30
0.0
 40
4.000000000000004
  0
LINE
  5
13E
  8
0
  6
CONTINUOUS
 62
     7
 10
889.4898504545928
 20
1309.807071016257
 30
0.0
 11
889.4898504543719
 21
1306.207071016256
 31
0.0
  0
ARC
  5
13F
  8
0
  6
CONTINUOUS
 62
     7
 10
865.489850451597
 20
1260.957071017863
 30
0.0
 40
0.4999999999999449
 50
89.9999999964863
 51
179.9999999964887
  0
LINE
  5
140
  8
0
  6
CONTINUOUS
 62
     7
 10
910.489850449206
 20
1221.957071014969
 30
0.0
 11
910.4898504489998
 21
1218.607071014969
 31
0.0
  0
LINE
  5
141
  8
0
  6
CONTINUOUS
 62
     7
 10
888.489850454654
 20
1310.807071016318
 30
0.0
 11
879.9898504546542
 21
1310.807071016839
 31
0.0
  0
LINE
  5
142
  8
0
  6
CONTINUOUS
 62
     7
 10
918.0898504495582
 20
1227.707071014503
 30
0.0
 11
916.2398504495582
 21
1227.707071014616
 31
0.0
  0
LINE
  5
143
  8
0
  6
CONTINUOUS
 62
     7
 10
879.489850454418
 20
1306.95707101687
 30
0.0
 11
879.4898504546239
 21
1310.30707101687
 31
0.0
  0
ARC
  5
144
  8
0
  6
CONTINUOUS
 62
     7
 10
901.4898504490309
 20
1219.10707101552
 30
0.0
 40
0.9999999999998899
 50
179.9999999964823
 51
269.9999999964862
  0
LINE
  5
145
  8
0
  6
CONTINUOUS
 62
     7
 10
889.489850449031
 20
1219.107071016257
 30
0.0
 11
889.489850449251
 21
1222.707071016257
 31
0.0
  0
LINE
  5
146
  8
0
  6
CONTINUOUS
 62
     7
 10
921.2398504488378
 20
1215.957071014309
 30
0.0
 11
921.2398504496039
 21
1228.457071014309
 31
0.0
  0
ARC
  5
147
  8
0
  6
CONTINUOUS
 62
     7
 10
901.489850454593
 20
1309.807071015521
 30
0.0
 40
1.000000000000112
 50
89.99999999648621
 51
179.9999999964823
  0
LINE
  5
148
  8
0
  6
CONTINUOUS
 62
     7
 10
871.3898504540199
 20
1300.457071017429
 30
0.0
 11
871.3898504496041
 21
1228.45707101743
 31
0.0
  0
LINE
  5
149
  8
0
  6
CONTINUOUS
 62
     7
 10
871.3898504496042
 20
1228.45707101743
 30
0.0
 11
870.4898504496041
 21
1228.457071017484
 31
0.0
  0
LINE
  5
14A
  8
0
  6
CONTINUOUS
 62
     7
 10
869.2398504488069
 20
1215.457071017498
 30
0.0
 11
920.7398504488071
 21
1215.45707101434
 31
0.0
  0
LINE
  5
14B
  8
0
  6
CONTINUOUS
 62
     7
 10
870.48985045402
 20
1300.45707101753
 30
0.0
 11
869.98985045402
 21
1300.457071017561
 31
0.0
  0
LINE
  5
14C
  8
0
  6
CONTINUOUS
 62
     7
 10
869.9898504496041
 20
1228.45707101756
 30
0.0
 11
870.489850449604
 21
1228.45707101753
 31
0.0
  0
CIRCLE
  5
14D
  8
0
  6
CONTINUOUS
 62
     7
 10
894.989850449251
 20
1222.707071015919
 30
0.0
 40
4.000000000000004
  0
ARC
  5
14E
  8
0
  6
CONTINUOUS
 62
     7
 10
894.989850449251
 20
1222.707071015919
 30
0.0
 40
5.50000000000006
 50
359.9999999964863
 51
65.3800226678296
  0
ARC
  5
14F
  8
0
  6
CONTINUOUS
 62
     7
 10
909.989850449
 20
1218.607071014999
 30
0.0
 40
0.4999999999999449
 50
269.9999999964863
 51
359.9999999964886
  0
ARC
  5
150
  8
0
  6
CONTINUOUS
 62
     7
 10
888.4898504545929
 20
1309.807071016318
 30
0.0
 40
1.000000000000112
 50
359.9999999964822
 51
89.99999999648634
  0
ARC
  5
151
  8
0
  6
CONTINUOUS
 62
     7
 10
871.8898504489999
 20
1218.607071017336
 30
0.0
 40
0.4999999999999449
 50
179.9999999964887
 51
269.9999999964863
  0
ARC
  5
152
  8
0
  6
CONTINUOUS
 62
     7
 10
879.989850454624
 20
1310.307071016839
 30
0.0
 40
0.4999999999999449
 50
89.99999999648645
 51
179.9999999964887
  0
ARC
  5
153
  8
0
  6
CONTINUOUS
 62
     7
 10
918.089850449589
 20
1228.207071014503
 30
0.0
 40
0.4999999999999449
 50
269.9999999964863
 51
359.9999999964886
  0
LINE
  5
154
  8
0
  6
CONTINUOUS
 62
     7
 10
918.589850449589
 20
1228.207071014472
 30
0.0
 11
918.589850449604
 21
1228.457071014472
 31
0.0
  0
ARC
  5
155
  8
0
  6
CONTINUOUS
 62
     7
 10
894.9898504543719
 20
1306.20707101592
 30
0.0
 40
5.499999999999838
 50
179.9999999964864
 51
245.3800226678296
  0
LINE
  5
156
  8
0
  6
CONTINUOUS
 62
     7
 10
900.489850449251
 20
1222.707071015582
 30
0.0
 11
900.489850449031
 21
1219.107071015582
 31
0.0
  0
LINE
  5
157
  8
0
  6
CONTINUOUS
 62
     7
 10
911.7562692914681
 20
1225.557071014891
 30
0.0
 11
913.489850449426
 21
1225.557071014785
 31
0.0
  0
LINE
  5
158
  8
0
  6
CONTINUOUS
 62
     7
 10
917.5898504516978
 20
1262.607071011509
 30
0.0
 11
917.5898504517439
 21
1263.357071011442
 31
0.0
  0
LINE
  5
159
  8
0
  6
CONTINUOUS
 62
     7
 10
900.489850454372
 20
1306.207071015582
 30
0.0
 11
900.4898504545929
 21
1309.807071015582
 31
0.0
  0
ARC
  5
15A
  8
0
  6
CONTINUOUS
 62
     7
 10
894.989850449251
 20
1222.707071015919
 30
0.0
 40
5.50000000000006
 50
114.6199773251431
 51
179.9999999964852
  0
LINE
  5
15B
  8
0
  6
CONTINUOUS
 62
     7
 10
871.889850448969
 20
1218.107071017336
 30
0.0
 11
888.489850448969
 21
1218.107071016318
 31
0.0
  0
ARC
  5
15C
  8
0
  6
CONTINUOUS
 62
     7
 10
894.9898504543719
 20
1306.20707101592
 30
0.0
 40
5.500000000000282
 50
294.619977325143
 51
359.9999999964851
  0
LINE
  5
15D
  8
0
  6
CONTINUOUS
 62
     7
 10
918.5898504540198
 20
1300.457071014535
 30
0.0
 11
919.4898504540198
 21
1300.45707101448
 31
0.0
  0
ARC
  5
15E
  8
0
  6
CONTINUOUS
 62
     7
 10
869.2398504488368
 20
1215.957071017498
 30
0.0
 40
0.4999999999999449
 50
179.9999999964887
 51
269.9999999964863
  0
ARC
  5
15F
  8
0
  6
CONTINUOUS
 62
     7
 10
916.2398504492049
 20
1221.957071014616
 30
0.0
 40
5.750000000000144
 50
141.2379882807355
 51
179.9999999964864
  0
ARC
  5
160
  8
0
  6
CONTINUOUS
 62
     7
 10
918.0898504546241
 20
1310.307071014502
 30
0.0
 40
0.4999999999999449
 50
359.9999999964886
 51
89.99999999648628
  0
LINE
  5
161
  8
0
  6
CONTINUOUS
 62
     7
 10
871.3898504517449
 20
1263.357071014275
 30
0.0
 11
872.3898504517441
 21
1263.357071014213
 31
0.0
  0
LINE
  5
162
  8
0
  6
CONTINUOUS
 62
     7
 10
867.4898504516281
 20
1261.457071017741
 30
0.0
 11
865.489850451628
 21
1261.457071017863
 31
0.0
  0
ARC
  5
163
  8
0
  6
CONTINUOUS
 62
     7
 10
865.4898504520269
 20
1267.957071017863
 30
0.0
 40
0.500000000000167
 50
179.9999999964887
 51
269.9999999964863
  0
LINE
  5
164
  8
0
  6
CONTINUOUS
 62
     7
 10
892.6985626065879
 20
1301.20707101606
 30
0.0
 11
897.2811383015438
 21
1301.207071015779
 31
0.0
  0
LINE
  5
165
  8
0
  6
CONTINUOUS
 62
     7
 10
918.589850449604
 20
1228.457071014535
 30
0.0
 11
919.4898504496039
 21
1228.45707101448
 31
0.0
  0
LINE
  5
166
  8
0
  6
CONTINUOUS
 62
     7
 10
868.9898504519039
 20
1265.957071017649
 30
0.0
 11
868.9898504517199
 21
1262.957071017648
 31
0.0
  0
LINE
  5
167
  8
0
  6
CONTINUOUS
 62
     7
 10
871.3898504540199
 20
1300.457071017429
 30
0.0
 11
870.48985045402
 21
1300.457071017485
 31
0.0
  0
LINE
  5
168
  8
0
  6
CONTINUOUS
 62
     7
 10
871.3898504496042
 20
1228.457071017367
 30
0.0
 11
871.389850449
 21
1218.607071017367
 31
0.0
  0
LINE
  5
169
  8
0
  6
CONTINUOUS
 62
     7
 10
918.0898504546541
 20
1310.807071014502
 30
0.0
 11
901.489850454654
 21
1310.807071015521
 31
0.0
  0
ARC
  5
16A
  8
0
  6
CONTINUOUS
 62
     7
 10
888.4898504490309
 20
1219.107071016318
 30
0.0
 40
1.000000000000112
 50
269.9999999964862
 51
359.9999999964822
  0
LINE
  5
16B
  8
0
  6
CONTINUOUS
 62
   253
 10
918.589850451925
 20
1266.307071011448
 30
0.0
 11
917.589850451925
 21
1266.307071011509
 31
0.0
  0
LINE
  5
16C
  8
0
  6
CONTINUOUS
 62
     7
 10
872.389850451698
 20
1262.607071014281
 30
0.0
 11
872.3898504516518
 21
1261.857071014213
 31
0.0
  0
LINE
  5
16D
  8
0
  6
CONTINUOUS
 62
     7
 10
871.3898504519709
 20
1267.057071014275
 30
0.0
 11
872.3898504519709
 21
1267.057071014213
 31
0.0
  0
ARC
  5
16E
  8
0
  6
CONTINUOUS
 62
     7
 10
924.489850452027
 20
1267.957071014245
 30
0.0
 40
0.4999999999999449
 50
269.9999999964863
 51
359.9999999964886
  0
LINE
  5
16F
  8
0
  6
CONTINUOUS
 62
     7
 10
913.4898504494258
 20
1225.557071014785
 30
0.0
 11
913.489850449515
 21
1227.006823483966
 31
0.0
  0
LINE
  5
170
  8
0
  6
CONTINUOUS
 62
     7
 10
901.4898504489692
 20
1218.107071015521
 30
0.0
 11
909.9898504489689
 21
1218.107071014999
 31
0.0
  0
LINE
  5
171
  8
0
  6
CONTINUOUS
 62
     7
 10
892.6985626020798
 20
1227.70707101606
 30
0.0
 11
897.2811382970359
 21
1227.707071015779
 31
0.0
  0
LINE
  5
172
  8
0
  6
CONTINUOUS
 62
     7
 10
917.5898504516521
 20
1261.85707101043
 30
0.0
 11
915.8398504516522
 21
1261.857071010537
 31
0.0
  0
LINE
  5
173
  8
0
  6
CONTINUOUS
 62
     7
 10
869.989850452149
 20
1269.957071017587
 30
0.0
 11
869.989850451474
 21
1258.957071017587
 31
0.0
  0
ARC
  5
174
  8
0
  6
CONTINUOUS
 62
     7
 10
916.2398504492049
 20
1221.957071014616
 30
0.0
 40
5.750000000000144
 50
89.99999999648645
 51
118.571878138795
  0
LINE
  5
175
  8
0
  6
CONTINUOUS
 62
     7
 10
872.3898504516519
 20
1261.857071014213
 30
0.0
 11
871.389850451652
 21
1261.857071014275
 31
0.0
  0
LINE
  5
176
  8
0
  6
CONTINUOUS
 62
     7
 10
921.2398504516689
 20
1262.127914816721
 30
0.0
 11
921.2398504519549
 21
1266.786227211898
 31
0.0
  0
CIRCLE
  5
177
  8
0
  6
CONTINUOUS
 62
     7
 10
894.9898504543719
 20
1306.20707101592
 30
0.0
 40
4.000000000000004
  0
ARC
  5
178
  8
0
  6
CONTINUOUS
 62
     7
 10
920.7398504488369
 20
1215.95707101434
 30
0.0
 40
0.4999999999999449
 50
269.9999999964863
 51
359.9999999964887
  0
LINE
  5
179
  8
0
  6
CONTINUOUS
 62
     7
 10
918.5898504540198
 20
1300.457071014535
 30
0.0
 11
918.589850449604
 21
1228.457071014535
 31
0.0
  0
LINE
  5
17A
  8
0
  6
CONTINUOUS
 62
     7
 10
868.7398504496041
 20
1228.457071017529
 30
0.0
 11
868.739850448838
 21
1215.957071017529
 31
0.0
  0
CIRCLE
  5
17B
  8
0
  6
CONTINUOUS
 62
     7
 10
916.2398504492049
 20
1221.957071014616
 30
0.0
 40
4.000000000000004
  0
ARC
  5
17C
  8
0
  6
CONTINUOUS
 62
     7
 10
874.139850451925
 20
1266.307071013095
 30
0.0
 40
0.7500000000000284
 50
269.9999999964863
 51
359.9999999964886
  0
ARC
  5
17D
  8
0
  6
CONTINUOUS
 62
     7
 10
874.1398504516978
 20
1262.607071013095
 30
0.0
 40
0.7500000000000284
 50
269.9999999964863
 51
359.9999999964802
  0
LINE
  5
17E
  8
0
  6
CONTINUOUS
 62
     7
 10
917.589850451971
 20
1267.05707101043
 30
0.0
 11
915.839850451971
 21
1267.057071010538
 31
0.0
  0
LINE
  5
17F
  8
0
  6
CONTINUOUS
 62
   253
 10
872.389850451698
 20
1262.607071014281
 30
0.0
 11
871.389850451698
 21
1262.607071014342
 31
0.0
  0
LINE
  5
180
  8
0
  6
CONTINUOUS
 62
     7
 10
918.5898504540198
 20
1300.457071014472
 30
0.0
 11
918.589850454624
 21
1310.307071014472
 31
0.0
  0
LINE
  5
181
  8
0
  6
CONTINUOUS
 62
     7
 10
874.139850451744
 20
1263.357071013095
 30
0.0
 11
872.3898504517441
 21
1263.357071013202
 31
0.0
  0
LINE
  5
182
  8
0
  6
CONTINUOUS
 62
     7
 10
878.2234316121561
 20
1303.357071016947
 30
0.0
 11
876.4898504541972
 21
1303.357071017054
 31
0.0
  0
CIRCLE
  5
183
  8
0
  6
CONTINUOUS
 62
     7
 10
894.9898504543719
 20
1306.20707101574
 30
0.0
 40
2.099999999999991
  0
LINE
  5
184
  8
0
  6
CONTINUOUS
 62
     7
 10
918.5898504516531
 20
1261.85707101138
 30
0.0
 11
917.5898504516521
 21
1261.857071011441
 31
0.0
  0
ARC
  5
185
  8
0
  6
CONTINUOUS
 62
     7
 10
873.7398504544179
 20
1306.957071017222
 30
0.0
 40
5.749999999999922
 50
321.2379882807355
 51
359.9999999964865
  0
LINE
  5
186
  8
0
  6
CONTINUOUS
 62
     7
 10
872.3898504517441
 20
1263.357071014213
 30
0.0
 11
872.3898504516981
 21
1262.607071014281
 31
0.0
  0
LINE
  5
187
  8
0
  6
CONTINUOUS
 62
     7
 10
918.5898504518789
 20
1265.55707101138
 30
0.0
 11
917.5898504518789
 21
1265.557071011442
 31
0.0
  0
CIRCLE
  5
188
  8
0
  6
CONTINUOUS
 62
     7
 10
873.7398504544179
 20
1306.957071016998
 30
0.0
 40
2.099999999999991
  0
ARC
  5
189
  8
0
  6
CONTINUOUS
 62
     7
 10
915.8398504516979
 20
1262.607071010537
 30
0.0
 40
0.7499999999998064
 50
179.9999999964887
 51
269.9999999964863
  0
ARC
  5
18A
  8
0
  6
CONTINUOUS
 62
     7
 10
915.8398504516979
 20
1262.607071010537
 30
0.0
 40
0.7500000000000284
 50
89.99999999648628
 51
179.9999999964887
  0
LINE
  5
18B
  8
0
  6
CONTINUOUS
 62
     7
 10
876.4898504541088
 20
1301.907318547566
 30
0.0
 11
878.223431612156
 21
1303.357071016947
 31
0.0
  0
LINE
  5
18C
  8
0
  6
CONTINUOUS
 62
     7
 10
915.8398504518789
 20
1265.557071010537
 30
0.0
 11
917.5898504518788
 21
1265.55707101043
 31
0.0
  0
LINE
  5
18D
  8
0
  6
CONTINUOUS
 62
     7
 10
872.389850451971
 20
1267.057071013202
 30
0.0
 11
874.1398504519709
 21
1267.057071013095
 31
0.0
  0
LINE
  5
18E
  8
0
  6
CONTINUOUS
 62
     7
 10
874.139850451879
 20
1265.557071013095
 30
0.0
 11
872.3898504518789
 21
1265.557071013202
 31
0.0
  0
ARC
  5
18F
  8
0
  6
CONTINUOUS
 62
     7
 10
915.839850451925
 20
1266.307071010538
 30
0.0
 40
0.7499999999998064
 50
89.9999999964863
 51
179.9999999964887
  0
ARC
  5
190
  8
0
  6
CONTINUOUS
 62
     7
 10
874.1398504516978
 20
1262.607071013095
 30
0.0
 40
0.7500000000000284
 50
359.9999999964887
 51
89.99999999648628
  0
ARC
  5
191
  8
0
  6
CONTINUOUS
 62
     7
 10
874.139850451925
 20
1266.307071013095
 30
0.0
 40
0.7500000000002505
 50
359.9999999964886
 51
89.99999999648628
  0
ARC
  5
192
  8
0
  6
CONTINUOUS
 62
     7
 10
915.839850451925
 20
1266.307071010538
 30
0.0
 40
0.7500000000000284
 50
179.9999999964887
 51
269.9999999964863
  0
LINE
  5
193
  8
0
  6
CONTINUOUS
 62
     7
 10
872.3898504516528
 20
1261.857071013202
 30
0.0
 11
874.139850451652
 21
1261.857071013095
 31
0.0
  0
LINE
  5
194
  8
0
  6
CONTINUOUS
 62
     7
 10
871.3898504505179
 20
1243.365516053433
 30
0.0
 11
871.8898504505178
 21
1243.364175570784
 31
0.0
  0
LINE
  5
195
  8
0
  6
CONTINUOUS
 62
     7
 10
871.8898504540658
 20
1301.207071017336
 30
0.0
 11
873.7398504540658
 21
1301.207071017222
 31
0.0
  0
LINE
  5
196
  8
0
  6
CONTINUOUS
 62
     7
 10
917.5898504516521
 20
1261.857071011441
 30
0.0
 11
917.589850451698
 21
1262.607071011509
 31
0.0
  0
LINE
  5
197
  8
0
  6
CONTINUOUS
 62
     7
 10
917.5898504519249
 20
1266.307071011509
 30
0.0
 11
917.589850451971
 21
1267.057071011441
 31
0.0
  0
LINE
  5
198
  8
0
  6
CONTINUOUS
 62
   253
 10
871.8898504489999
 20
1218.607071013188
 30
0.0
 11
871.3898504489999
 21
1218.607071013219
 31
0.0
  0
CIRCLE
  5
199
  8
0
  6
CONTINUOUS
 62
     7
 10
894.989850449251
 20
1222.707071015739
 30
0.0
 40
2.099999999999991
  0
ARC
  5
19A
  8
0
  6
CONTINUOUS
 62
     7
 10
873.7398504544179
 20
1306.957071017222
 30
0.0
 40
5.749999999999922
 50
269.9999999964865
 51
298.5718781387951
  0
LINE
  5
19B
  8
0
  6
CONTINUOUS
 62
   253
 10
871.8898504505178
 20
1243.364175570784
 30
0.0
 11
871.8898504489998
 21
1218.607071013143
 31
0.0
  0
LINE
  5
19C
  8
0
  6
CONTINUOUS
 62
     7
 10
872.3898504519251
 20
1266.307071014281
 30
0.0
 11
872.3898504518789
 21
1265.557071014213
 31
0.0
  0
LINE
  5
19D
  8
0
  6
CONTINUOUS
 62
     7
 10
917.589850451879
 20
1265.557071011442
 30
0.0
 11
917.589850451925
 21
1266.307071011509
 31
0.0
  0
LINE
  5
19E
  8
0
  6
CONTINUOUS
 62
     7
 10
874.9898504489689
 20
1218.107071012998
 30
0.0
 11
874.9898504489998
 21
1218.607071012953
 31
0.0
  0
LINE
  5
19F
  8
0
  6
CONTINUOUS
 62
     7
 10
872.389850451971
 20
1267.057071014214
 30
0.0
 11
872.3898504519251
 21
1266.307071014281
 31
0.0
  0
LINE
  5
1A0
  8
0
  6
CONTINUOUS
 62
     7
 10
918.0898504505549
 20
1243.957071010355
 30
0.0
 11
918.589850450555
 21
1243.957071010324
 31
0.0
  0
ARC
  5
1A1
  8
0
  6
CONTINUOUS
 62
     7
 10
869.2398504547859
 20
1312.957071017499
 30
0.0
 40
0.4999999999999449
 50
89.9999999964863
 51
179.9999999964887
  0
LINE
  5
1A2
  8
0
  6
CONTINUOUS
 62
     7
 10
920.7398504548171
 20
1313.45707101434
 30
0.0
 11
869.2398504548169
 21
1313.457071017499
 31
0.0
  0
ARC
  5
1A3
  8
0
  6
CONTINUOUS
 62
     7
 10
920.7398504547858
 20
1312.95707101434
 30
0.0
 40
0.500000000000167
 50
359.9999999964887
 51
89.99999999648628
  0
LINE
  5
1A4
  8
0
  6
CONTINUOUS
 62
   253
 10
918.5898504516979
 20
1262.607071011448
 30
0.0
 11
917.5898504516979
 21
1262.607071011509
 31
0.0
  0
LINE
  5
1A5
  8
0
  6
CONTINUOUS
 62
   253
 10
918.0898504505549
 20
1243.95707101031
 30
0.0
 11
918.089850450764
 21
1247.36417556795
 31
0.0
  0
LINE
  5
1A6
  8
0
  6
CONTINUOUS
 62
     7
 10
876.489850454197
 20
1303.357071017054
 30
0.0
 11
876.4898504541088
 21
1301.907318547873
 31
0.0
  0
LINE
  5
1A7
  8
0
  6
CONTINUOUS
 62
     7
 10
872.3898504518788
 20
1265.557071014213
 30
0.0
 11
871.3898504518788
 21
1265.557071014275
 31
0.0
  0
LINE
  5
1A8
  8
0
  6
CONTINUOUS
 62
   253
 10
872.3898504519251
 20
1266.307071014281
 30
0.0
 11
871.3898504519251
 21
1266.307071014342
 31
0.0
  0
LINE
  5
1A9
  8
0
  6
CONTINUOUS
 62
     7
 10
917.589850451744
 20
1263.357071011442
 30
0.0
 11
918.589850451744
 21
1263.35707101138
 31
0.0
  0
LINE
  5
1AA
  8
0
  6
CONTINUOUS
 62
     7
 10
913.4898504495148
 20
1227.006823483659
 30
0.0
 11
911.7562692914679
 21
1225.557071014891
 31
0.0
  0
LINE
  5
1AB
  8
0
  6
CONTINUOUS
 62
   253
 10
871.8898504489999
 20
1218.607071013143
 30
0.0
 11
871.8898504489689
 21
1218.107071013188
 31
0.0
  0
LINE
  5
1AC
  8
0
  6
CONTINUOUS
 62
     7
 10
915.8398504517438
 20
1263.357071010537
 30
0.0
 11
917.5898504517439
 21
1263.35707101043
 31
0.0
  0
LINE
  5
1AD
  8
0
  6
CONTINUOUS
 62
     7
 10
917.589850451971
 20
1267.057071011441
 30
0.0
 11
918.589850451971
 21
1267.05707101138
 31
0.0
  0
LINE
  5
1AE
  8
0
  6
CONTINUOUS
 62
     7
 10
921.2398504540199
 20
1300.457071014309
 30
0.0
 11
921.239850454786
 21
1312.957071014309
 31
0.0
  0
LINE
  5
1AF
  8
0
  6
CONTINUOUS
 62
     7
 10
914.989850454654
 20
1310.807071010545
 30
0.0
 11
914.9898504546239
 21
1310.307071010501
 31
0.0
  0
LINE
  5
1B0
  8
0
  6
CONTINUOUS
 62
   253
 10
871.8898504489999
 20
1218.607071013143
 30
0.0
 11
874.9898504489998
 21
1218.607071012953
 31
0.0
  0
LINE
  5
1B1
  8
0
  6
CONTINUOUS
 62
     7
 10
871.389850454035
 20
1300.707071017367
 30
0.0
 11
871.38985045402
 21
1300.457071017367
 31
0.0
  0
ARC
  5
1B2
  8
0
  6
CONTINUOUS
 62
     7
 10
871.889850454035
 20
1300.707071017336
 30
0.0
 40
0.4999999999999449
 50
89.99999999648628
 51
179.9999999964887
  0
LINE
  5
1B3
  8
0
  6
CONTINUOUS
 62
     7
 10
868.7398504547859
 20
1312.957071017529
 30
0.0
 11
868.7398504540199
 21
1300.457071017529
 31
0.0
  0
CIRCLE
  5
1B4
  8
0
  6
CONTINUOUS
 62
     7
 10
916.2398504492049
 20
1221.957071014391
 30
0.0
 40
2.099999999999991
  0
ARC
  5
1B5
  8
0
  6
CONTINUOUS
 62
   253
 10
1017.221742426736
 20
1536.181145232989
 30
0.0
 40
149.7827188940692
 50
194.9366924128826
 51
205.4732734419406
  0
LINE
  5
1B6
  8
0
  6
CONTINUOUS
 62
   253
 10
918.0898504546241
 20
1310.30707101031
 30
0.0
 11
914.989850454624
 21
1310.3070710105
 31
0.0
  0
LINE
  5
1B7
  8
0
  6
CONTINUOUS
 62
     7
 10
841.9445974148049
 20
1535.315845421434
 30
0.0
 11
841.9067296604769
 21
1537.5065117306
 31
0.0
  0
LINE
  5
1B8
  8
0
  6
CONTINUOUS
 62
     7
 10
910.9999999999999
 20
1429.28727263569
 30
0.0
 11
919.9999999999999
 21
1429.28727263569
 31
0.0
  0
LINE
  5
1B9
  8
0
  6
CONTINUOUS
 62
     7
 10
870.0
 20
1429.28727263569
 30
0.0
 11
879.0
 21
1429.28727263569
 31
0.0
  0
LINE
  5
1BA
  8
0
  6
CONTINUOUS
 62
   253
 10
882.0
 20
1471.761092032318
 30
0.0
 11
870.01215814201
 21
1478.103469742728
 31
0.0
  0
LINE
  5
1BB
  8
0
  6
CONTINUOUS
 62
   253
 10
918.0898504510199
 20
1251.549966452669
 30
0.0
 11
918.0898504516518
 21
1261.85707101031
 31
0.0
  0
LINE
  5
1BC
  8
0
  6
CONTINUOUS
 62
     7
 10
910.9999999999999
 20
1426.761092032318
 30
0.0
 11
910.9999999999999
 21
1424.711092032318
 31
0.0
  0
LINE
  5
1BD
  8
0
  6
CONTINUOUS
 62
     7
 10
948.093270340287
 20
1537.50651173059
 30
0.0
 11
948.056871811199
 21
1535.400840750351
 31
0.0
  0
LINE
  5
1BE
  8
0
  6
CONTINUOUS
 62
     7
 10
878.9999999999999
 20
1499.261092032318
 30
0.0
 11
878.9999999999999
 21
1501.011092032318
 31
0.0
  0
LINE
  5
1BF
  8
0
  6
CONTINUOUS
 62
     7
 10
872.9999999999999
 20
1499.261092032318
 30
0.0
 11
878.9999999999999
 21
1499.261092032318
 31
0.0
  0
ARC
  5
1C0
  8
0
  6
CONTINUOUS
 62
   253
 10
772.7780111052821
 20
1536.181235939887
 30
0.0
 40
149.7829804140478
 50
334.5267357824665
 51
345.0632983627101
  0
LINE
  5
1C1
  8
0
  6
CONTINUOUS
 62
     7
 10
878.9999999999999
 20
1429.261092032319
 30
0.0
 11
878.9999999999999
 21
1429.28727263569
 31
0.0
  0
LINE
  5
1C2
  8
0
  6
CONTINUOUS
 62
     7
 10
917.4999999999999
 20
1499.261092032318
 30
0.0
 11
916.9999999999999
 21
1499.261092032318
 31
0.0
  0
LINE
  5
1C3
  8
0
  6
CONTINUOUS
 62
   253
 10
871.889850451652
 20
1261.857071013143
 30
0.0
 11
871.889850450775
 21
1247.549966455502
 31
0.0
  0
LINE
  5
1C4
  8
0
  6
CONTINUOUS
 62
     7
 10
903.10743594753
 20
1424.711092032318
 30
0.0
 11
911.0
 21
1424.711092032318
 31
0.0
  0
LINE
  5
1C5
  8
0
  6
CONTINUOUS
 62
     7
 10
910.9999999999999
 20
1499.261092032318
 30
0.0
 11
910.9999999999999
 21
1501.011092032318
 31
0.0
  0
LINE
  5
1C6
  8
0
  6
CONTINUOUS
 62
     7
 10
878.9999999999999
 20
1424.711092032318
 30
0.0
 11
878.9999999999999
 21
1426.761092032318
 31
0.0
  0
LINE
  5
1C7
  8
0
  6
CONTINUOUS
 62
     7
 10
878.9999999999999
 20
1501.011092032318
 30
0.0
 11
910.9999999999998
 21
1501.011092032318
 31
0.0
  0
LINE
  5
1C8
  8
0
  6
CONTINUOUS
 62
   253
 10
948.0554025859587
 20
1535.315845421434
 30
0.0
 11
948.037030919405
 21
1534.253036398898
 31
0.0
  0
LINE
  5
1C9
  8
0
  6
CONTINUOUS
 62
   253
 10
917.4999999999999
 20
1499.261092032318
 30
0.0
 11
917.4999999999999
 21
1497.574408149039
 31
0.0
  0
LINE
  5
1CA
  8
0
  6
CONTINUOUS
 62
     7
 10
918.58985045102
 20
1251.54862597011
 30
0.0
 11
918.08985045102
 21
1251.549966452669
 31
0.0
  0
LINE
  5
1CB
  8
0
  6
CONTINUOUS
 62
     7
 10
871.3898504526039
 20
1277.365516053433
 30
0.0
 11
871.8898504526029
 21
1277.364175570784
 31
0.0
  0
LINE
  5
1CC
  8
0
  6
CONTINUOUS
 62
     7
 10
842.1968988185209
 20
1537.609706853938
 30
0.0
 11
841.906325722116
 21
1537.546091276583
 31
0.0
  0
LINE
  5
1CD
  8
0
  6
CONTINUOUS
 62
     7
 10
886.89256405247
 20
1424.711092032318
 30
0.0
 11
879.0
 21
1424.711092032318
 31
0.0
  0
LINE
  5
1CE
  8
0
  6
CONTINUOUS
 62
     7
 10
874.0
 20
1429.69891021818
 30
0.0
 11
874.0
 21
1429.690156498507
 31
0.0
  0
LINE
  5
1CF
  8
0
  6
CONTINUOUS
 62
     7
 10
871.8898504507749
 20
1247.549966455502
 30
0.0
 11
871.3898504507749
 21
1247.548625973004
 31
0.0
  0
LINE
  5
1D0
  8
0
  6
CONTINUOUS
 62
   253
 10
918.0898504546241
 20
1310.307071010355
 30
0.0
 11
918.5898504546241
 21
1310.307071010324
 31
0.0
  0
LINE
  5
1D1
  8
0
  6
CONTINUOUS
 62
   253
 10
842.2235341940091
 20
1537.612801468
 30
0.0
 11
842.196898818521
 21
1537.609706853938
 31
0.0
  0
LINE
  5
1D2
  8
0
  6
CONTINUOUS
 62
     7
 10
910.9999999999999
 20
1429.28727263569
 30
0.0
 11
910.9999999999999
 21
1429.261092032318
 31
0.0
  0
LINE
  5
1D3
  8
0
  6
CONTINUOUS
 62
   253
 10
908.0
 20
1439.382798216595
 30
0.0
 11
908.0
 21
1471.761092032318
 31
0.0
  0
LINE
  5
1D4
  8
0
  6
CONTINUOUS
 62
     7
 10
872.9999999999999
 20
1499.261092032318
 30
0.0
 11
872.4999999999999
 21
1499.261092032318
 31
0.0
  0
LINE
  5
1D5
  8
0
  6
CONTINUOUS
 62
     7
 10
903.0655097241039
 20
1425.511092032318
 30
0.0
 11
903.0
 21
1426.761092032318
 31
0.0
  0
LINE
  5
1D6
  8
0
  6
CONTINUOUS
 62
   253
 10
908.0
 20
1471.761092032318
 30
0.0
 11
882.0
 21
1471.761092032318
 31
0.0
  0
LINE
  5
1D7
  8
0
  6
CONTINUOUS
 62
     7
 10
886.9344902758959
 20
1425.511092032318
 30
0.0
 11
887.0
 21
1426.761092032318
 31
0.0
  0
LINE
  5
1D8
  8
0
  6
CONTINUOUS
 62
     7
 10
903.0655097241039
 20
1425.511092032318
 30
0.0
 11
903.1074359475299
 21
1424.711092032318
 31
0.0
  0
LINE
  5
1D9
  8
0
  6
CONTINUOUS
 62
     7
 10
918.0898504507638
 20
1247.36417556795
 30
0.0
 11
918.5898504507638
 21
1247.365516050538
 31
0.0
  0
LINE
  5
1DA
  8
0
  6
CONTINUOUS
 62
   253
 10
920.0031912070009
 20
1478.111859702453
 30
0.0
 11
907.9999999999999
 21
1471.761092032318
 31
0.0
  0
LINE
  5
1DB
  8
0
  6
CONTINUOUS
 62
     7
 10
916.9999999999999
 20
1499.261092032318
 30
0.0
 11
910.9999999999999
 21
1499.261092032318
 31
0.0
  0
LINE
  5
1DC
  8
0
  6
CONTINUOUS
 62
     7
 10
948.093270340287
 20
1537.50651173059
 30
0.0
 11
948.0970499110992
 21
1537.543964547712
 31
0.0
  0
LINE
  5
1DD
  8
0
  6
CONTINUOUS
 62
   253
 10
918.0898504546241
 20
1310.30707101031
 30
0.0
 11
918.0898504546541
 21
1310.807071010355
 31
0.0
  0
LINE
  5
1DE
  8
0
  6
CONTINUOUS
 62
     7
 10
865.7499999999999
 20
1214.761092032318
 30
0.0
 11
924.2499999999998
 21
1214.761092032318
 31
0.0
  0
LINE
  5
1DF
  8
0
  6
CONTINUOUS
 62
     7
 10
947.7399826971498
 20
1533.962829797225
 30
0.0
 11
948.0370309194049
 21
1534.253036398898
 31
0.0
  0
ARC
  5
1E0
  8
0
  6
CONTINUOUS
 62
     7
 10
903.7499999999999
 20
1425.261092032318
 30
0.0
 40
0.9999999999998899
 50
180.0
 51
270.0
  0
LINE
  5
1E1
  8
0
  6
CONTINUOUS
 62
   253
 10
872.4999999999999
 20
1497.574408149039
 30
0.0
 11
872.4999999999999
 21
1499.261092032318
 31
0.0
  0
LINE
  5
1E2
  8
0
  6
CONTINUOUS
 62
     7
 10
842.2521241285731
 20
1534.039530814829
 30
0.0
 11
842.368163677003
 21
1534.10662056314
 31
0.0
  0
LINE
  5
1E3
  8
0
  6
CONTINUOUS
 62
     7
 10
887.25
 20
1427.261092032318
 30
0.0
 11
902.75
 21
1427.261092032318
 31
0.0
  0
LINE
  5
1E4
  8
0
  6
CONTINUOUS
 62
     7
 10
995.0
 20
431.2610920323181
 30
0.0
 11
987.5
 21
431.2610920323181
 31
0.0
  0
LINE
  5
1E5
  8
0
  6
CONTINUOUS
 62
     7
 10
924.2499999999999
 20
1313.761092032318
 30
0.0
 11
865.75
 21
1313.761092032318
 31
0.0
  0
LINE
  5
1E6
  8
0
  6
CONTINUOUS
 62
     7
 10
903.7499999999999
 20
1424.261092032318
 30
0.0
 11
919.0
 21
1424.261092032318
 31
0.0
  0
LINE
  5
1E7
  8
0
  6
CONTINUOUS
 62
   253
 10
946.2687659661589
 20
1534.261092032318
 30
0.0
 11
946.2677659661589
 21
1534.261092032318
 31
0.0
  0
ARC
  5
1E8
  8
0
  6
CONTINUOUS
 62
     7
 10
916.5
 20
1500.261092032318
 30
0.0
 40
0.9999999999998899
 50
0.0
 51
90.0
  0
LINE
  5
1E9
  8
0
  6
CONTINUOUS
 62
     7
 10
795.0
 20
431.2610920323181
 30
0.0
 11
795.0
 21
434.2610920323181
 31
0.0
  0
LINE
  5
1EA
  8
0
  6
CONTINUOUS
 62
     7
 10
947.7495248995798
 20
1534.037724121908
 30
0.0
 11
947.7523585014249
 21
1533.958789801798
 31
0.0
  0
LINE
  5
1EB
  8
0
  6
CONTINUOUS
 62
     7
 10
995.0
 20
434.261092032318
 30
0.0
 11
995.0
 21
431.2610920323181
 31
0.0
  0
LINE
  5
1EC
  8
0
  6
CONTINUOUS
 62
     7
 10
802.4999999999999
 20
434.261092032318
 30
0.0
 11
987.4999999999999
 21
434.261092032318
 31
0.0
  0
LINE
  5
1ED
  8
0
  6
CONTINUOUS
 62
     7
 10
842.260017303614
 20
1533.962829797225
 30
0.0
 11
841.9629690813191
 21
1534.253036401198
 31
0.0
  0
LINE
  5
1EE
  8
0
  6
CONTINUOUS
 62
     7
 10
802.4999999999999
 20
431.2610920323181
 30
0.0
 11
794.9999999999999
 21
431.2610920323181
 31
0.0
  0
LINE
  5
1EF
  8
0
  6
CONTINUOUS
 62
   253
 10
946.273611557698
 20
1534.261092032318
 30
0.0
 11
946.2687659661589
 21
1534.261092032318
 31
0.0
  0
LINE
  5
1F0
  8
0
  6
CONTINUOUS
 62
     7
 10
916.5
 20
1501.261092032318
 30
0.0
 11
873.4999999999998
 21
1501.261092032318
 31
0.0
  0
LINE
  5
1F1
  8
0
  6
CONTINUOUS
 62
     7
 10
878.9999999999999
 20
1499.261092032318
 30
0.0
 11
910.9999999999998
 21
1499.261092032318
 31
0.0
  0
LINE
  5
1F2
  8
0
  6
CONTINUOUS
 62
     7
 10
987.4999999999999
 20
434.261092032318
 30
0.0
 11
994.9999999999999
 21
434.261092032318
 31
0.0
  0
LINE
  5
1F3
  8
0
  6
CONTINUOUS
 62
     7
 10
841.9629690813629
 20
1534.253036398648
 30
0.0
 11
841.9479353307288
 21
1534.276141217712
 31
0.0
  0
LINE
  5
1F4
  8
0
  6
CONTINUOUS
 62
     7
 10
870.9999999999999
 20
1424.261092032318
 30
0.0
 11
886.2499999999999
 21
1424.261092032318
 31
0.0
  0
ARC
  5
1F5
  8
0
  6
CONTINUOUS
 62
     7
 10
918.9999999999999
 20
1425.261092032318
 30
0.0
 40
0.9999999999998899
 50
270.0
 51
0.0
  0
LINE
  5
1F6
  8
0
  6
CONTINUOUS
 62
     7
 10
795.0
 20
434.261092032318
 30
0.0
 11
802.5
 21
434.261092032318
 31
0.0
  0
LINE
  5
1F7
  8
0
  6
CONTINUOUS
 62
     7
 10
902.75
 20
1427.261092032318
 30
0.0
 11
902.75
 21
1425.261092032318
 31
0.0
  0
LINE
  5
1F8
  8
0
  6
CONTINUOUS
 62
     7
 10
841.9479352496498
 20
1534.276141210771
 30
0.0
 11
841.9622855525758
 21
1534.323206724308
 31
0.0
  0
LINE
  5
1F9
  8
0
  6
CONTINUOUS
 62
     7
 10
919.9999999999998
 20
1425.261092032318
 30
0.0
 11
919.9999999999998
 21
1498.261092032318
 31
0.0
  0
ARC
  5
1FA
  8
0
  6
CONTINUOUS
 62
     7
 10
924.2499999999999
 20
1312.761092032318
 30
0.0
 40
1.000000000000112
 50
0.0
 51
90.0
  0
ARC
  5
1FB
  8
0
  6
CONTINUOUS
 62
     7
 10
918.9999999999999
 20
1498.261092032318
 30
0.0
 40
0.9999999999998899
 50
0.0
 51
90.0
  0
LINE
  5
1FC
  8
0
  6
CONTINUOUS
 62
     7
 10
843.726388443066
 20
1538.685453417044
 30
0.0
 11
843.726388443066
 21
1538.692684514083
 31
0.0
  0
LINE
  5
1FD
  8
0
  6
CONTINUOUS
 62
     7
 10
886.9344902758959
 20
1425.511092032318
 30
0.0
 11
886.89256405247
 21
1424.711092032318
 31
0.0
  0
LINE
  5
1FE
  8
0
  6
CONTINUOUS
 62
     7
 10
947.63188691268
 20
1534.106601059525
 30
0.0
 11
947.7495248995797
 21
1534.037724121908
 31
0.0
  0
ARC
  5
1FF
  8
0
  6
CONTINUOUS
 62
     7
 10
924.2499999999999
 20
1215.761092032318
 30
0.0
 40
0.9999999999998899
 50
270.0
 51
0.0
  0
LINE
  5
200
  8
0
  6
CONTINUOUS
 62
   253
 10
987.4999999999999
 20
431.2610920323181
 30
0.0
 11
987.4999999999999
 21
434.2610920323181
 31
0.0
  0
LINE
  5
201
  8
0
  6
CONTINUOUS
 62
     7
 10
917.4999999999999
 20
1499.261092032318
 30
0.0
 11
919.0
 21
1499.261092032318
 31
0.0
  0
LINE
  5
202
  8
0
  6
CONTINUOUS
 62
   253
 10
946.2677659661588
 20
1534.261092032318
 30
0.0
 11
843.7322340338409
 21
1534.261092032318
 31
0.0
  0
LINE
  5
203
  8
0
  6
CONTINUOUS
 62
     7
 10
802.4999999999999
 20
431.2610920323181
 30
0.0
 11
987.4999999999999
 21
431.2610920323181
 31
0.0
  0
LINE
  5
204
  8
0
  6
CONTINUOUS
 62
     7
 10
842.3681636770029
 20
1534.10662056314
 30
0.0
 11
843.7322340338409
 21
1534.261092032318
 31
0.0
  0
LINE
  5
205
  8
0
  6
CONTINUOUS
 62
     7
 10
946.2677659661588
 20
1534.261092032318
 30
0.0
 11
947.6318869126801
 21
1534.106601059525
 31
0.0
  0
ARC
  5
206
  8
0
  6
CONTINUOUS
 62
     7
 10
870.9999999999999
 20
1425.261092032318
 30
0.0
 40
0.9999999999998899
 50
180.0
 51
270.0
  0
ARC
  5
207
  8
0
  6
CONTINUOUS
 62
     7
 10
873.4999999999998
 20
1500.261092032318
 30
0.0
 40
0.9999999999998899
 50
90.0
 51
180.0
  0
LINE
  5
208
  8
0
  6
CONTINUOUS
 62
     7
 10
925.25
 20
1215.761092032318
 30
0.0
 11
925.25
 21
1312.761092032318
 31
0.0
  0
LINE
  5
209
  8
0
  6
CONTINUOUS
 62
   253
 10
843.7312340338409
 20
1534.261092032318
 30
0.0
 11
843.7263884565668
 21
1534.261092032318
 31
0.0
  0
ARC
  5
20A
  8
0
  6
CONTINUOUS
 62
     7
 10
886.2499999999999
 20
1425.261092032318
 30
0.0
 40
0.9999999999998899
 50
270.0
 51
0.0
  0
LINE
  5
20B
  8
0
  6
CONTINUOUS
 62
     7
 10
917.4999999999999
 20
1500.261092032318
 30
0.0
 11
917.4999999999999
 21
1499.261092032318
 31
0.0
  0
LINE
  5
20C
  8
0
  6
CONTINUOUS
 62
     7
 10
946.2736115576588
 20
1538.692684514083
 30
0.0
 11
946.273611557658
 21
1538.685453033418
 31
0.0
  0
ARC
  5
20D
  8
0
  6
CONTINUOUS
 62
     7
 10
865.7499999999999
 20
1215.761092032318
 30
0.0
 40
0.9999999999998899
 50
180.0
 51
270.0
  0
LINE
  5
20E
  8
0
  6
CONTINUOUS
 62
     7
 10
872.4999999999999
 20
1500.261092032318
 30
0.0
 11
872.4999999999999
 21
1499.261092032318
 31
0.0
  0
LINE
  5
20F
  8
0
  6
CONTINUOUS
 62
     7
 10
868.0
 20
1215.761092032318
 30
0.0
 11
868.0
 21
1228.457071017781
 31
0.0
  0
ARC
  5
210
  8
0
  6
CONTINUOUS
 62
     7
 10
918.9999999999999
 20
1428.261092032318
 30
0.0
 40
0.9999999999998899
 50
270.0
 51
0.0
  0
ARC
  5
211
  8
0
  6
CONTINUOUS
 62
     7
 10
869.0000000000001
 20
1312.761092032318
 30
0.0
 40
1.000000000000112
 50
90.0
 51
180.0
  0
LINE
  5
212
  8
0
  6
CONTINUOUS
 62
     7
 10
872.4999999999999
 20
1499.261092032318
 30
0.0
 11
870.9999999999998
 21
1499.261092032318
 31
0.0
  0
LINE
  5
213
  8
0
  6
CONTINUOUS
 62
   253
 10
902.4330127018919
 20
1313.761092032318
 30
0.0
 11
902.4330127018919
 21
1313.457071015463
 31
0.0
  0
LINE
  5
214
  8
0
  6
CONTINUOUS
 62
     7
 10
944.0818682015312
 20
1534.261092032318
 30
0.0
 11
946.2677659661589
 21
1534.261092032318
 31
0.0
  0
LINE
  5
215
  8
0
  6
CONTINUOUS
 62
   253
 10
887.5669872981078
 20
1313.457071016374
 30
0.0
 11
887.5669872981078
 21
1313.761092032318
 31
0.0
  0
LINE
  5
216
  8
0
  6
CONTINUOUS
 62
     7
 10
538.5000000000001
 20
1534.261092032318
 30
0.0
 11
538.7478598552469
 21
1534.551298636291
 31
0.0
  0
LINE
  5
217
  8
0
  6
CONTINUOUS
 62
     7
 10
899.5000000000069
 20
1438.38279821666
 30
0.0
 11
899.5000000000069
 21
1438.295690754011
 31
0.0
  0
LINE
  5
218
  8
0
  6
CONTINUOUS
 62
     7
 10
447.3777852986581
 20
1514.374444561298
 30
0.0
 11
447.3777852986581
 21
1514.314445122204
 31
0.0
  0
ARC
  5
219
  8
0
  6
CONTINUOUS
 62
     7
 10
453.1000000000001
 20
1512.261092032317
 30
0.0
 40
6.079473661428136
 50
160.2600401879658
 51
167.6528527105329
  0
LINE
  5
21A
  8
0
  6
CONTINUOUS
 62
     7
 10
898.9081999696278
 20
1431.474483615237
 30
0.0
 11
897.0705904774869
 21
1430.982097635805
 31
0.0
  0
LINE
  5
21B
  8
0
  6
CONTINUOUS
 62
     7
 10
922.0
 20
1228.457071014469
 30
0.0
 11
922.0
 21
1215.761092032318
 31
0.0
  0
LINE
  5
21C
  8
0
  6
CONTINUOUS
 62
     7
 10
538.802388316821
 20
1537.675232107646
 30
0.0
 11
538.7675311260883
 21
1535.678264988027
 31
0.0
  0
LINE
  5
21D
  8
0
  6
CONTINUOUS
 62
     7
 10
447.1611448914798
 20
1511.761092032318
 30
0.0
 11
447.1611448914798
 21
1510.961092032318
 31
0.0
  0
ARC
  5
21E
  8
0
  6
CONTINUOUS
 62
     7
 10
899.908199969604
 20
1437.382798216621
 30
0.0
 40
0.9999999999998899
 50
90.00000000024639
 51
180.0000000002417
  0
ARC
  5
21F
  8
0
  6
CONTINUOUS
 62
     7
 10
865.7499999999999
 20
1312.761092032318
 30
0.0
 40
1.000000000000112
 50
90.0
 51
180.0
  0
ARC
  5
220
  8
0
  6
CONTINUOUS
 62
     7
 10
897.2000000000429
 20
1430.499134722662
 30
0.0
 40
0.500000000000167
 50
105.0000000003992
 51
180.0000000002418
  0
ARC
  5
221
  8
0
  6
CONTINUOUS
 62
     7
 10
869.0000000000001
 20
1215.761092032318
 30
0.0
 40
0.9999999999998899
 50
180.0
 51
270.0
  0
LINE
  5
222
  8
0
  6
CONTINUOUS
 62
     7
 10
540.2025529982237
 20
1418.731043305909
 30
0.0
 11
540.2025529982237
 21
1426.511092032219
 31
0.0
  0
ARC
  5
223
  8
0
  6
CONTINUOUS
 62
     7
 10
920.9999999999999
 20
1215.761092032318
 30
0.0
 40
1.000000000000112
 50
270.0
 51
0.0
  0
LINE
  5
224
  8
0
  6
CONTINUOUS
 62
     7
 10
538.7675311260883
 20
1535.678264988027
 30
0.0
 11
538.7478598552469
 21
1534.551298636291
 31
0.0
  0
LINE
  5
225
  8
0
  6
CONTINUOUS
 62
     7
 10
841.906326267687
 20
1537.546086108815
 30
0.0
 11
841.9433794770079
 21
1535.402242318295
 31
0.0
  0
LINE
  5
226
  8
0
  6
CONTINUOUS
 62
   253
 10
868.8549408054179
 20
1313.750515010658
 30
0.0
 11
868.8549408054179
 21
1313.276201965266
 31
0.0
  0
LINE
  5
227
  8
0
  6
CONTINUOUS
 62
   253
 10
885.9792740578368
 20
1313.457071016472
 30
0.0
 11
885.9792740578368
 21
1313.761092032318
 31
0.0
  0
LINE
  5
228
  8
0
  6
CONTINUOUS
 62
     7
 10
864.7499999999998
 20
1312.761092032318
 30
0.0
 11
864.7499999999998
 21
1215.761092032318
 31
0.0
  0
LINE
  5
229
  8
0
  6
CONTINUOUS
 62
     7
 10
868.0
 20
1300.457071017781
 30
0.0
 11
868.0
 21
1312.761092032318
 31
0.0
  0
LINE
  5
22A
  8
0
  6
CONTINUOUS
 62
   253
 10
802.4999999999999
 20
434.261092032318
 30
0.0
 11
802.4999999999999
 21
431.2610920323181
 31
0.0
  0
LINE
  5
22B
  8
0
  6
CONTINUOUS
 62
   253
 10
921.1450591945819
 20
1313.249997416688
 30
0.0
 11
921.1450591945819
 21
1313.750515010658
 31
0.0
  0
ARC
  5
22C
  8
0
  6
CONTINUOUS
 62
     7
 10
870.9999999999999
 20
1498.261092032318
 30
0.0
 40
0.9999999999998899
 50
90.0
 51
180.0
  0
LINE
  5
22D
  8
0
  6
CONTINUOUS
 62
   253
 10
868.8549408054179
 20
1215.637940062556
 30
0.0
 11
868.8549408054179
 21
1214.771669053978
 31
0.0
  0
LINE
  5
22E
  8
0
  6
CONTINUOUS
 62
   253
 10
888.8660254037849
 20
1313.761092032318
 30
0.0
 11
888.8660254037849
 21
1313.457071016295
 31
0.0
  0
LINE
  5
22F
  8
0
  6
CONTINUOUS
 62
   253
 10
902.7216878364868
 20
1313.457071015445
 30
0.0
 11
902.7216878364868
 21
1313.761092032318
 31
0.0
  0
LINE
  5
230
  8
0
  6
CONTINUOUS
 62
     7
 10
878.9999999999999
 20
1427.261092032318
 30
0.0
 11
870.9999999999998
 21
1427.261092032318
 31
0.0
  0
LINE
  5
231
  8
0
  6
CONTINUOUS
 62
     7
 10
922.0
 20
1312.761092032318
 30
0.0
 11
922.0
 21
1300.45707101447
 31
0.0
  0
LINE
  5
232
  8
0
  6
CONTINUOUS
 62
   253
 10
901.133974596216
 20
1313.457071015542
 30
0.0
 11
901.133974596216
 21
1313.761092032318
 31
0.0
  0
LINE
  5
233
  8
0
  6
CONTINUOUS
 62
   253
 10
904.0207259421641
 20
1313.761092032318
 30
0.0
 11
904.0207259421641
 21
1313.457071015366
 31
0.0
  0
LINE
  5
234
  8
0
  6
CONTINUOUS
 62
   253
 10
921.1450591945819
 20
1214.771669053978
 30
0.0
 11
921.1450591945819
 21
1215.664144620221
 31
0.0
  0
LINE
  5
235
  8
0
  6
CONTINUOUS
 62
     7
 10
462.2293057417401
 20
1525.38251079722
 30
0.0
 11
536.6720316370001
 21
1538.508771890039
 31
0.0
  0
LINE
  5
236
  8
0
  6
CONTINUOUS
 62
     7
 10
946.2736115576588
 20
1538.692684514083
 30
0.0
 11
843.7263884430658
 21
1538.692684514083
 31
0.0
  0
LINE
  5
237
  8
0
  6
CONTINUOUS
 62
     7
 10
540.2025529982237
 20
1502.011092032219
 30
0.0
 11
540.2025529982237
 21
1502.23104330591
 31
0.0
  0
LINE
  5
238
  8
0
  6
CONTINUOUS
 62
     7
 10
870.0
 20
1498.261092032318
 30
0.0
 11
870.0
 21
1425.261092032318
 31
0.0
  0
LINE
  5
239
  8
0
  6
CONTINUOUS
 62
     7
 10
902.9999999999999
 20
1427.261092032318
 30
0.0
 11
902.7499999999999
 21
1427.261092032318
 31
0.0
  0
LINE
  5
23A
  8
0
  6
CONTINUOUS
 62
     7
 10
922.0
 20
1267.374832113696
 30
0.0
 11
922.0
 21
1261.539309914975
 31
0.0
  0
LINE
  5
23B
  8
0
  6
CONTINUOUS
 62
     7
 10
918.9999999999999
 20
1427.261092032318
 30
0.0
 11
910.9999999999998
 21
1427.261092032318
 31
0.0
  0
ARC
  5
23C
  8
0
  6
CONTINUOUS
 62
     7
 10
870.9999999999999
 20
1428.261092032318
 30
0.0
 40
0.9999999999998899
 50
180.0
 51
270.0
  0
LINE
  5
23D
  8
0
  6
CONTINUOUS
 62
     7
 10
887.25
 20
1425.261092032318
 30
0.0
 11
887.25
 21
1427.261092032318
 31
0.0
  0
LINE
  5
23E
  8
0
  6
CONTINUOUS
 62
     7
 10
887.25
 20
1427.261092032318
 30
0.0
 11
887.0
 21
1427.261092032318
 31
0.0
  0
LINE
  5
23F
  8
0
  6
CONTINUOUS
 62
   253
 10
887.278312163513
 20
1313.761092032318
 30
0.0
 11
887.278312163513
 21
1313.457071016392
 31
0.0
  0
LINE
  5
240
  8
0
  6
CONTINUOUS
 62
     7
 10
843.732234033841
 20
1534.261092032318
 30
0.0
 11
944.0818682015312
 21
1534.261092032318
 31
0.0
  0
LINE
  5
241
  8
0
  6
CONTINUOUS
 62
     7
 10
539.4
 20
457.9610920323191
 30
0.0
 11
539.4
 21
466.9610920323182
 31
0.0
  0
LINE
  5
242
  8
0
  6
CONTINUOUS
 62
     7
 10
540.5025529982236
 20
1418.731043305909
 30
0.0
 11
540.5025529982236
 21
1426.511092032219
 31
0.0
  0
LINE
  5
243
  8
0
  6
CONTINUOUS
 62
     7
 10
841.9435866305162
 20
1535.40149726999
 30
0.0
 11
841.9621921122421
 21
1534.328679771461
 31
0.0
  0
LINE
  5
244
  8
0
  6
CONTINUOUS
 62
     7
 10
842.2322340338409
 20
1533.996601561255
 30
0.0
 11
842.2322340338409
 21
434.2610920323185
 31
0.0
  0
ARC
  5
245
  8
0
  6
CONTINUOUS
 62
     7
 10
920.9999999999999
 20
1312.761092032318
 30
0.0
 40
1.000000000000112
 50
0.0
 51
90.0
  0
LINE
  5
246
  8
0
  6
CONTINUOUS
 62
   253
 10
462.2641118489585
 20
1524.380250637771
 30
0.0
 11
462.2694217316841
 21
1522.189584328606
 31
0.0
  0
LINE
  5
247
  8
0
  6
CONTINUOUS
 62
     7
 10
587.5
 20
434.261092032318
 30
0.0
 11
595.0
 21
434.261092032318
 31
0.0
  0
LINE
  5
248
  8
0
  6
CONTINUOUS
 62
     7
 10
896.7000000000398
 20
1430.499134722659
 30
0.0
 11
896.700000000045
 21
1429.382798216648
 31
0.0
  0
ARC
  5
249
  8
0
  6
CONTINUOUS
 62
     7
 10
453.1000000000001
 20
1512.261092032317
 30
0.0
 40
6.079473661428136
 50
192.3471472894672
 51
199.7399598120342
  0
LINE
  5
24A
  8
0
  6
CONTINUOUS
 62
     7
 10
522.7382312628012
 20
1531.481866940263
 30
0.0
 11
536.7855588560172
 21
1533.958789801798
 31
0.0
  0
LINE
  5
24B
  8
0
  6
CONTINUOUS
 62
     7
 10
462.3840356449852
 20
1520.839793853885
 30
0.0
 11
522.7382312628012
 21
1531.481866940264
 31
0.0
  0
LINE
  5
24C
  8
0
  6
CONTINUOUS
 62
     7
 10
448.5000000005771
 20
463.5110920323182
 30
0.0
 11
447.6000000005772
 21
463.5110920323762
 31
0.0
  0
LINE
  5
24D
  8
0
  6
CONTINUOUS
 62
     7
 10
841.9621921122421
 20
1534.328679771461
 30
0.0
 11
841.9622872227101
 21
1534.32319557194
 31
0.0
  0
LINE
  5
24E
  8
0
  6
CONTINUOUS
 62
     7
 10
447.1611448914798
 20
1512.761092032318
 30
0.0
 11
447.3777852986582
 21
1512.761092032318
 31
0.0
  0
LINE
  5
24F
  8
0
  6
CONTINUOUS
 62
     7
 10
536.6720316370001
 20
1538.508771890039
 30
0.0
 11
537.6288924439974
 21
1538.677492267096
 31
0.0
  0
ARC
  5
250
  8
0
  6
CONTINUOUS
 62
     7
 10
459.1145161290321
 20
454.5110920316371
 30
0.0
 40
14.61451612903231
 50
141.9880316042515
 51
179.999999996325
  0
LINE
  5
251
  8
0
  6
CONTINUOUS
 62
     7
 10
540.2025529982237
 20
1502.011092032219
 30
0.0
 11
540.5025529982236
 21
1502.011092032219
 31
0.0
  0
ARC
  5
252
  8
0
  6
CONTINUOUS
 62
     7
 10
449.0265997634083
 20
1522.039090902994
 30
0.0
 40
1.000000000000001
 50
100.0000000000002
 51
181.0000000000042
  0
LINE
  5
253
  8
0
  6
CONTINUOUS
 62
     7
 10
402.4999999999999
 20
431.2610920323181
 30
0.0
 11
587.5
 21
431.2610920323181
 31
0.0
  0
ARC
  5
254
  8
0
  6
CONTINUOUS
 62
     7
 10
459.1145161290321
 20
454.5110920316371
 30
0.0
 40
14.61451612903231
 50
179.999999996325
 51
218.0119683883986
  0
LINE
  5
255
  8
0
  6
CONTINUOUS
 62
     7
 10
462.3657449133211
 20
1520.836568704395
 30
0.0
 11
448.4372897092127
 21
1518.380606252322
 31
0.0
  0
LINE
  5
256
  8
0
  6
CONTINUOUS
 62
   253
 10
587.5
 20
431.2610920323181
 30
0.0
 11
587.5
 21
434.2610920323181
 31
0.0
  0
LINE
  5
257
  8
0
  6
CONTINUOUS
 62
     7
 10
538.5000000000001
 20
1534.261092032318
 30
0.0
 11
536.8084708086362
 21
1533.962829797225
 31
0.0
  0
LINE
  5
258
  8
0
  6
CONTINUOUS
 62
     7
 10
898.9081999696039
 20
1437.382798216617
 30
0.0
 11
898.908199969629
 21
1431.259945983723
 31
0.0
  0
LINE
  5
259
  8
0
  6
CONTINUOUS
 62
     7
 10
538.5000000000001
 20
1534.261092032318
 30
0.0
 11
538.5000000000001
 21
434.261092032318
 31
0.0
  0
LINE
  5
25A
  8
0
  6
CONTINUOUS
 62
     7
 10
402.4999999999999
 20
434.261092032318
 30
0.0
 11
587.5
 21
434.261092032318
 31
0.0
  0
LINE
  5
25B
  8
0
  6
CONTINUOUS
 62
     7
 10
540.2025529982237
 20
1418.511092032219
 30
0.0
 11
540.5025529982236
 21
1418.511092032219
 31
0.0
  0
LINE
  5
25C
  8
0
  6
CONTINUOUS
 62
   253
 10
402.4999999999999
 20
434.261092032318
 30
0.0
 11
402.4999999999999
 21
431.2610920323181
 31
0.0
  0
LINE
  5
25D
  8
0
  6
CONTINUOUS
 62
     7
 10
522.7382312628012
 20
1531.481866940263
 30
0.0
 11
462.3657449133213
 21
1520.836568704395
 31
0.0
  0
CIRCLE
  5
25E
  8
0
  6
CONTINUOUS
 62
     7
 10
95.00000000000003
 20
454.511092032376
 30
0.0
 40
8.999999999999952
  0
ARC
  5
25F
  8
0
  6
CONTINUOUS
 62
     7
 10
900.5000000000091
 20
1438.382798216664
 30
0.0
 40
0.9999999999998899
 50
90.00000000031635
 51
180.0000000002418
  0
LINE
  5
260
  8
0
  6
CONTINUOUS
 62
     7
 10
447.5999999999999
 20
454.511092032376
 30
0.0
 11
447.5999999994226
 21
445.5110920323759
 31
0.0
  0
LINE
  5
261
  8
0
  6
CONTINUOUS
 62
     7
 10
93.69999999999989
 20
1511.761092032318
 30
0.0
 11
92.94664691011353
 21
1511.761092032318
 31
0.0
  0
LINE
  5
262
  8
0
  6
CONTINUOUS
 62
     7
 10
536.7855588560172
 20
1533.958789801798
 30
0.0
 11
522.7382312628012
 21
1531.481866940264
 31
0.0
  0
LINE
  5
263
  8
0
  6
CONTINUOUS
 62
     7
 10
540.2025529982237
 20
1510.011092032219
 30
0.0
 11
538.5000000000001
 21
1508.308539033995
 31
0.0
  0
LINE
  5
264
  8
0
  6
CONTINUOUS
 62
     7
 10
948.0970537415699
 20
1537.543961996768
 30
0.0
 11
946.2736115576638
 21
1538.685453846583
 31
0.0
  0
LINE
  5
265
  8
0
  6
CONTINUOUS
 62
     7
 10
540.2025529982237
 20
1426.511092032219
 30
0.0
 11
538.5
 21
1424.808539033995
 31
0.0
  0
LINE
  5
266
  8
0
  6
CONTINUOUS
 62
     7
 10
447.6000000005772
 20
463.5110920323762
 30
0.0
 11
447.5999999999999
 21
454.511092032376
 31
0.0
  0
LINE
  5
267
  8
0
  6
CONTINUOUS
 62
     7
 10
595.0000000000001
 20
434.261092032318
 30
0.0
 11
595.0000000000001
 21
431.2610920323181
 31
0.0
  0
ARC
  5
268
  8
0
  6
CONTINUOUS
 62
     7
 10
527.8854838709682
 20
466.9610920323182
 30
0.0
 40
14.61451612903231
 50
0.0
 51
38.01196839207358
  0
LINE
  5
269
  8
0
  6
CONTINUOUS
 62
     7
 10
447.3777852986581
 20
1512.761092032318
 30
0.0
 11
447.3777852986581
 21
1511.761092032318
 31
0.0
  0
LINE
  5
26A
  8
0
  6
CONTINUOUS
 62
   253
 10
462.2694217316842
 20
1522.189584328606
 30
0.0
 11
462.2719978388866
 21
1521.126775308381
 31
0.0
  0
LINE
  5
26B
  8
0
  6
CONTINUOUS
 62
     7
 10
540.2025529982237
 20
1418.511092032219
 30
0.0
 11
540.2025529982237
 21
1418.731043305909
 31
0.0
  0
LINE
  5
26C
  8
0
  6
CONTINUOUS
 62
     7
 10
447.3777852986581
 20
1510.207738942432
 30
0.0
 11
447.3777852986581
 21
1510.147739503338
 31
0.0
  0
LINE
  5
26D
  8
0
  6
CONTINUOUS
 62
     7
 10
539.4
 20
475.9610920323172
 30
0.0
 11
538.5000000000001
 21
475.9610920323172
 31
0.0
  0
LINE
  5
26E
  8
0
  6
CONTINUOUS
 62
     7
 10
947.7677659661591
 20
434.261092032318
 30
0.0
 11
947.7677659661591
 21
1533.996601561255
 31
0.0
  0
LINE
  5
26F
  8
0
  6
CONTINUOUS
 62
     7
 10
538.5000000000001
 20
457.9610920323191
 30
0.0
 11
539.4
 21
457.9610920323191
 31
0.0
  0
LINE
  5
270
  8
0
  6
CONTINUOUS
 62
     7
 10
539.4
 20
466.9610920323182
 30
0.0
 11
539.4
 21
475.9610920323172
 31
0.0
  0
LINE
  5
271
  8
0
  6
CONTINUOUS
 62
     7
 10
395.0
 20
431.2610920323181
 30
0.0
 11
395.0
 21
434.2610920323181
 31
0.0
  0
ARC
  5
272
  8
0
  6
CONTINUOUS
 62
     7
 10
537.8025406216644
 20
1537.692684514083
 30
0.0
 40
1.000000000000001
 50
358.9999999999958
 51
100.0000000000018
  0
LINE
  5
273
  8
0
  6
CONTINUOUS
 62
     7
 10
540.2025529982237
 20
1502.231043305909
 30
0.0
 11
540.2025529982237
 21
1510.011092032219
 31
0.0
  0
LINE
  5
274
  8
0
  6
CONTINUOUS
 62
     7
 10
540.5025529982238
 20
1502.231043305909
 30
0.0
 11
540.5025529982237
 21
1510.011092032219
 31
0.0
  0
LINE
  5
275
  8
0
  6
CONTINUOUS
 62
     7
 10
462.2719978388865
 20
1521.126775308368
 30
0.0
 11
462.3657449133212
 21
1520.836568704395
 31
0.0
  0
LINE
  5
276
  8
0
  6
CONTINUOUS
 62
     7
 10
540.5025529982236
 20
1418.511092032219
 30
0.0
 11
540.5025529982236
 21
1418.731043305909
 31
0.0
  0
LINE
  5
277
  8
0
  6
CONTINUOUS
 62
     7
 10
447.1611448914798
 20
1513.561092032318
 30
0.0
 11
447.1611448914798
 21
1512.761092032318
 31
0.0
  0
LINE
  5
278
  8
0
  6
CONTINUOUS
 62
     7
 10
448.0675311260883
 20
1519.685407837769
 30
0.0
 11
448.0852409473658
 21
1518.670812856295
 31
0.0
  0
LINE
  5
279
  8
0
  6
CONTINUOUS
 62
   253
 10
462.3840356449852
 20
1520.839793853885
 30
0.0
 11
462.3840356449852
 21
434.2610920323182
 31
0.0
  0
LINE
  5
27A
  8
0
  6
CONTINUOUS
 62
     7
 10
447.3777852986581
 20
1511.761092032318
 30
0.0
 11
447.1611448914796
 21
1511.761092032318
 31
0.0
  0
LINE
  5
27B
  8
0
  6
CONTINUOUS
 62
     7
 10
540.5025529982236
 20
1502.011092032219
 30
0.0
 11
540.5025529982236
 21
1502.23104330591
 31
0.0
  0
LINE
  5
27C
  8
0
  6
CONTINUOUS
 62
     7
 10
843.7263884431
 20
1538.685453846583
 30
0.0
 11
842.2016758426919
 21
1537.610276728828
 31
0.0
  0
LINE
  5
27D
  8
0
  6
CONTINUOUS
 62
     7
 10
447.5999999994226
 20
445.5110920323759
 30
0.0
 11
448.4999999994226
 21
445.5110920323179
 31
0.0
  0
ARC
  5
27E
  8
0
  6
CONTINUOUS
 62
     7
 10
453.1000000000001
 20
1512.261092032317
 30
0.0
 40
6.099999999999994
 50
200.2704096967911
 51
221.0533512362931
  0
LINE
  5
27F
  8
0
  6
CONTINUOUS
 62
     7
 10
395.0
 20
434.261092032318
 30
0.0
 11
402.5
 21
434.261092032318
 31
0.0
  0
ARC
  5
280
  8
0
  6
CONTINUOUS
 62
     7
 10
453.1000000000001
 20
1512.261092032317
 30
0.0
 40
6.099999999999772
 50
138.9466487637069
 51
159.7295903032089
  0
LINE
  5
281
  8
0
  6
CONTINUOUS
 62
     7
 10
402.4999999999999
 20
431.2610920323181
 30
0.0
 11
394.9999999999999
 21
431.2610920323181
 31
0.0
  0
LINE
  5
282
  8
0
  6
CONTINUOUS
 62
     7
 10
540.5025529982238
 20
1510.011092032219
 30
0.0
 11
540.2025529982237
 21
1510.011092032219
 31
0.0
  0
LINE
  5
283
  8
0
  6
CONTINUOUS
 62
     7
 10
448.0675311260883
 20
1519.685407837769
 30
0.0
 11
448.0267520682518
 21
1522.021638496557
 31
0.0
  0
LINE
  5
284
  8
0
  6
CONTINUOUS
 62
     7
 10
538.5000000000001
 20
1420.213645030443
 30
0.0
 11
540.2025529982237
 21
1418.511092032219
 31
0.0
  0
LINE
  5
285
  8
0
  6
CONTINUOUS
 62
     7
 10
448.5000000000001
 20
434.261092032318
 30
0.0
 11
448.5000000000001
 21
1518.391663768556
 31
0.0
  0
LINE
  5
286
  8
0
  6
CONTINUOUS
 62
     7
 10
540.5025529982236
 20
1426.511092032219
 30
0.0
 11
540.2025529982237
 21
1426.511092032219
 31
0.0
  0
LINE
  5
287
  8
0
  6
CONTINUOUS
 62
     7
 10
493.0802487411577
 20
445.5110920323179
 30
0.0
 11
493.2089134275526
 21
445.5110920323179
 31
0.0
  0
LINE
  5
288
  8
0
  6
CONTINUOUS
 62
     7
 10
595.0000000000001
 20
431.2610920323181
 30
0.0
 11
587.5000000000001
 21
431.2610920323181
 31
0.0
  0
LINE
  5
289
  8
0
  6
CONTINUOUS
 62
     7
 10
493.2089134275527
 20
463.5110920323182
 30
0.0
 11
493.0802487411578
 21
463.5110920323182
 31
0.0
  0
LINE
  5
28A
  8
0
  6
CONTINUOUS
 62
     7
 10
538.5000000000001
 20
1503.713645030443
 30
0.0
 11
540.2025529982237
 21
1502.011092032219
 31
0.0
  0
ARC
  5
28B
  8
0
  6
CONTINUOUS
 62
     7
 10
94.99999999999997
 20
1512.261092032317
 30
0.0
 40
2.113352528980039
 50
256.3145799001944
 51
283.6854200998056
  0
LINE
  5
28C
  8
0
  6
CONTINUOUS
 62
     7
 10
94.49999999999991
 20
1510.207738942432
 30
0.0
 11
94.49999999999991
 21
1510.961092032318
 31
0.0
  0
ARC
  5
28D
  8
0
  6
CONTINUOUS
 62
     7
 10
527.8854838709682
 20
466.9610920323182
 30
0.0
 40
14.61451612903231
 50
321.9880316079265
 51
0.0
  0
LINE
  5
28E
  8
0
  6
CONTINUOUS
 62
     7
 10
536.7855588560172
 20
1533.958789801798
 30
0.0
 11
538.5000000000001
 21
1534.261092032319
 31
0.0
  0
LINE
  5
28F
  8
0
  6
CONTINUOUS
 62
     7
 10
448.0852409473659
 20
1518.670812856295
 30
0.0
 11
448.4372897092128
 21
1518.380606252322
 31
0.0
  0
LINE
  5
290
  8
0
  6
CONTINUOUS
 62
   253
 10
53.56674085978042
 20
1525.382510797222
 30
0.0
 11
54.60101545463674
 21
1524.718565575845
 31
0.0
  0
ARC
  5
291
  8
0
  6
CONTINUOUS
 62
   253
 10
67.63485967880112
 20
1573.446046747674
 30
0.0
 40
50.44054437266445
 50
255.0248461487313
 51
271.5474832800192
  0
LINE
  5
292
  8
0
  6
CONTINUOUS
 62
     7
 10
448.8529515857414
 20
1523.023898656006
 30
0.0
 11
462.2293057417402
 21
1525.38251079722
 31
0.0
  0
LINE
  5
293
  8
0
  6
CONTINUOUS
 62
     7
 10
95.49999999999991
 20
1510.961092032318
 30
0.0
 11
95.49999999999991
 21
1510.207738942431
 31
0.0
  0
LINE
  5
294
  8
0
  6
CONTINUOUS
 62
   253
 10
137.3855521261091
 20
1522.189584328606
 30
0.0
 11
137.3671804595952
 21
1521.126775308381
 31
0.0
  0
ARC
  5
295
  8
0
  6
CONTINUOUS
 62
     7
 10
94.99999999999997
 20
1512.261092032317
 30
0.0
 40
2.113352528980039
 50
76.31457990019442
 51
103.6854200998056
  0
LINE
  5
296
  8
0
  6
CONTINUOUS
 62
   253
 10
42.89689040069566
 20
1538.508771890049
 30
0.0
 11
53.56674085978044
 21
1525.382510797222
 31
0.0
  0
LINE
  5
297
  8
0
  6
CONTINUOUS
 62
   253
 10
68.99702649408607
 20
1523.023898656006
 30
0.0
 11
121.0029735051499
 21
1523.023898656006
 31
0.0
  0
LINE
  5
298
  8
0
  6
CONTINUOUS
 62
     7
 10
52.63281953964077
 20
1521.126775308379
 30
0.0
 11
52.92986776193548
 21
1520.836568704396
 31
0.0
  0
LINE
  5
299
  8
0
  6
CONTINUOUS
 62
     7
 10
68.99702649408607
 20
1518.670812856295
 30
0.0
 11
68.99702649418668
 21
1518.380606252322
 31
0.0
  0
LINE
  5
29A
  8
0
  6
CONTINUOUS
 62
     7
 10
93.69999999999989
 20
1512.761092032318
 30
0.0
 11
94.49999999999993
 21
1513.561092032318
 31
0.0
  0
LINE
  5
29B
  8
0
  6
CONTINUOUS
 62
     7
 10
137.3671804595949
 20
1521.126775308368
 30
0.0
 11
137.0701322373002
 21
1520.836568704395
 31
0.0
  0
LINE
  5
29C
  8
0
  6
CONTINUOUS
 62
     7
 10
121.00297350515
 20
1518.670812856295
 30
0.0
 11
121.00297350515
 21
1518.380606252322
 31
0.0
  0
LINE
  5
29D
  8
0
  6
CONTINUOUS
 62
   253
 10
121.0029735051499
 20
1519.685407837769
 30
0.0
 11
121.0029735051499
 21
1518.670812856295
 31
0.0
  0
LINE
  5
29E
  8
0
  6
CONTINUOUS
 62
   253
 10
68.99702649408607
 20
1523.023898656006
 30
0.0
 11
68.99702649408607
 21
1522.021638496557
 31
0.0
  0
LINE
  5
29F
  8
0
  6
CONTINUOUS
 62
     7
 10
43.72638844234994
 20
1538.677492267096
 30
0.0
 11
42.88963892468295
 21
1538.522992068016
 31
0.0
  0
LINE
  5
2A0
  8
0
  6
CONTINUOUS
 62
   253
 10
121.0029735051499
 20
1522.021638496557
 30
0.0
 11
68.99702649408604
 21
1522.021638496557
 31
0.0
  0
LINE
  5
2A1
  8
0
  6
CONTINUOUS
 62
   253
 10
52.57658011879906
 20
1524.380250637771
 30
0.0
 11
41.90672965971331
 21
1537.50651173059
 31
0.0
  0
LINE
  5
2A2
  8
0
  6
CONTINUOUS
 62
     7
 10
96.3
 20
1512.761092032318
 30
0.0
 11
97.05335308988643
 21
1512.761092032318
 31
0.0
  0
LINE
  5
2A3
  8
0
  6
CONTINUOUS
 62
   253
 10
148.0932703395229
 20
1537.5065117306
 30
0.0
 11
137.4234198804369
 21
1524.380250637771
 31
0.0
  0
CIRCLE
  5
2A4
  8
0
  6
CONTINUOUS
 62
   253
 10
94.99999999999997
 20
1512.261092032317
 30
0.0
 40
1.021236244656276
  0
LINE
  5
2A5
  8
0
  6
CONTINUOUS
 62
   253
 10
121.0029735051601
 20
1522.021638496557
 30
0.0
 11
121.0029735051516
 21
1523.023898656006
 31
0.0
  0
LINE
  5
2A6
  8
0
  6
CONTINUOUS
 62
   253
 10
68.99702649408611
 20
1519.685407837769
 30
0.0
 11
68.99702649408606
 21
1518.670812856295
 31
0.0
  0
LINE
  5
2A7
  8
0
  6
CONTINUOUS
 62
     7
 10
137.0683367210199
 20
1520.858173649995
 30
0.0
 11
137.3671804595951
 21
1521.126775308381
 31
0.0
  0
LINE
  5
2A8
  8
0
  6
CONTINUOUS
 62
   253
 10
52.61444787312686
 20
1522.189584328606
 30
0.0
 11
52.63281953964077
 21
1521.126775308379
 31
0.0
  0
LINE
  5
2A9
  8
0
  6
CONTINUOUS
 62
     7
 10
94.49999999999991
 20
1513.561092032318
 30
0.0
 11
94.49999999999991
 21
1514.314445122204
 31
0.0
  0
LINE
  5
2AA
  8
0
  6
CONTINUOUS
 62
     7
 10
96.3
 20
1511.761092032318
 30
0.0
 11
95.49999999999989
 21
1510.961092032318
 31
0.0
  0
LINE
  5
2AB
  8
0
  6
CONTINUOUS
 62
     7
 10
137.0701322373002
 20
1520.836568704395
 30
0.0
 11
136.1815387206086
 21
1520.229031233322
 31
0.0
  0
ARC
  5
2AC
  8
0
  6
CONTINUOUS
 62
     7
 10
122.8349723136227
 20
1566.581450745308
 30
0.0
 40
48.23564687522335
 50
267.8233721650681
 51
286.0630556572203
  0
ARC
  5
2AD
  8
0
  6
CONTINUOUS
 62
   253
 10
122.6402850540075
 20
1570.151674351297
 30
0.0
 40
47.15620882867519
 50
268.010232310235
 51
285.970650629021
  0
LINE
  5
2AE
  8
0
  6
CONTINUOUS
 62
   253
 10
135.6150763573219
 20
1524.815564882915
 30
0.0
 11
136.4332591394543
 21
1525.38251079722
 31
0.0
  0
LINE
  5
2AF
  8
0
  6
CONTINUOUS
 62
     7
 10
95.49999999999991
 20
1514.314445122204
 30
0.0
 11
95.49999999999991
 21
1513.561092032318
 31
0.0
  0
LINE
  5
2B0
  8
0
  6
CONTINUOUS
 62
   253
 10
136.4332591394543
 20
1525.38251079722
 30
0.0
 11
147.1031095985325
 21
1538.508771890039
 31
0.0
  0
LINE
  5
2B1
  8
0
  6
CONTINUOUS
 62
     7
 10
41.90672965971331
 20
1537.50651173059
 30
0.0
 11
41.94312818880054
 21
1535.400840750351
 31
0.0
  0
LINE
  5
2B2
  8
0
  6
CONTINUOUS
 62
   253
 10
68.99702649408607
 20
1522.021638496557
 30
0.0
 11
68.99702649408607
 21
1519.685407837769
 31
0.0
  0
LINE
  5
2B3
  8
0
  6
CONTINUOUS
 62
   253
 10
137.4234198804369
 20
1524.380250637771
 30
0.0
 11
136.3530126865625
 21
1523.728134439685
 31
0.0
  0
ARC
  5
2B4
  8
0
  6
CONTINUOUS
 62
   253
 10
122.739305800351
 20
1576.293755138306
 30
0.0
 40
54.2998848490037
 50
268.1675564427721
 51
284.51972949574
  0
LINE
  5
2B5
  8
0
  6
CONTINUOUS
 62
   253
 10
121.0029735051499
 20
1519.685407837769
 30
0.0
 11
121.0029735051499
 21
1522.021638496557
 31
0.0
  0
ARC
  5
2B6
  8
0
  6
CONTINUOUS
 62
     7
 10
94.99999999999997
 20
1512.261092032317
 30
0.0
 40
2.113352528980039
 50
346.3145799001957
 51
13.68542009980416
  0
LINE
  5
2B7
  8
0
  6
CONTINUOUS
 62
   253
 10
147.1072075955163
 20
1538.507938355104
 30
0.0
 11
146.2736115569335
 21
1538.677492267096
 31
0.0
  0
LINE
  5
2B8
  8
0
  6
CONTINUOUS
 62
     7
 10
94.49999999999991
 20
1510.961092032318
 30
0.0
 11
93.69999999999987
 21
1511.761092032318
 31
0.0
  0
LINE
  5
2B9
  8
0
  6
CONTINUOUS
 62
   253
 10
187.5
 20
431.2610920323181
 30
0.0
 11
187.5
 21
434.2610920323181
 31
0.0
  0
LINE
  5
2BA
  8
0
  6
CONTINUOUS
 62
     7
 10
2.500000000000058
 20
434.261092032318
 30
0.0
 11
187.4999999999999
 21
434.261092032318
 31
0.0
  0
LINE
  5
2BB
  8
0
  6
CONTINUOUS
 62
     7
 10
-4.999999999999948
 20
431.2610920323181
 30
0.0
 11
-4.999999999999948
 21
434.2610920323181
 31
0.0
  0
LINE
  5
2BC
  8
0
  6
CONTINUOUS
 62
     7
 10
195.0000000000001
 20
431.2610920323181
 30
0.0
 11
187.5
 21
431.2610920323181
 31
0.0
  0
LINE
  5
2BD
  8
0
  6
CONTINUOUS
 62
     7
 10
2.500000000000058
 20
431.2610920323181
 30
0.0
 11
-4.999999999999983
 21
431.2610920323181
 31
0.0
  0
LINE
  5
2BE
  8
0
  6
CONTINUOUS
 62
     7
 10
41.90672965971331
 20
1537.50651173059
 30
0.0
 11
41.90632676657613
 21
1537.546091901437
 31
0.0
  0
LINE
  5
2BF
  8
0
  6
CONTINUOUS
 62
   253
 10
147.7523585014248
 20
434.261092032318
 30
0.0
 11
147.7523585014248
 21
1533.797882045876
 31
0.0
  0
LINE
  5
2C0
  8
0
  6
CONTINUOUS
 62
     7
 10
-4.999999999999948
 20
434.261092032318
 30
0.0
 11
2.500000000000092
 21
434.261092032318
 31
0.0
  0
ARC
  5
2C1
  8
0
  6
CONTINUOUS
 62
     7
 10
130.9524665745928
 20
454.5110920323181
 30
0.0
 40
14.61451612903225
 50
0.0
 51
37.24460764642243
  0
CIRCLE
  5
2C2
  8
0
  6
CONTINUOUS
 62
     7
 10
95.00000000000003
 20
559.261092032318
 30
0.0
 40
21.00000000000007
  0
LINE
  5
2C3
  8
0
  6
CONTINUOUS
 62
   253
 10
2.500000000000058
 20
434.261092032318
 30
0.0
 11
2.500000000000058
 21
431.2610920323181
 31
0.0
  0
ARC
  5
2C4
  8
0
  6
CONTINUOUS
 62
     7
 10
59.04753342540725
 20
454.5110920323181
 30
0.0
 40
14.61451612903225
 50
142.7553923535776
 51
180.0
  0
LINE
  5
2C5
  8
0
  6
CONTINUOUS
 62
   253
 10
52.61444787312686
 20
1522.189584328606
 30
0.0
 11
52.57658011879906
 21
1524.380250637771
 31
0.0
  0
LINE
  5
2C6
  8
0
  6
CONTINUOUS
 62
     7
 10
95.49999999999991
 20
1513.561092032318
 30
0.0
 11
96.30000000000003
 21
1512.761092032318
 31
0.0
  0
LINE
  5
2C7
  8
0
  6
CONTINUOUS
 62
   253
 10
69.02812756548538
 20
1518.391663768556
 30
0.0
 11
69.02812756548538
 21
434.2610920323182
 31
0.0
  0
LINE
  5
2C8
  8
0
  6
CONTINUOUS
 62
     7
 10
2.500000000000058
 20
431.2610920323181
 30
0.0
 11
187.4999999999999
 21
431.2610920323181
 31
0.0
  0
CIRCLE
  5
2C9
  8
0
  6
CONTINUOUS
 62
     7
 10
95.00000000000003
 20
466.9610920323182
 30
0.0
 40
2.000000000000002
  0
LINE
  5
2CA
  8
0
  6
CONTINUOUS
 62
     7
 10
148.0936740725813
 20
1537.546091399319
 30
0.0
 11
148.0932703395227
 21
1537.50651173059
 31
0.0
  0
LINE
  5
2CB
  8
0
  6
CONTINUOUS
 62
     7
 10
47.65129029717646
 20
445.5110920323179
 30
0.0
 11
48.54204581833535
 21
445.5110920323179
 31
0.0
  0
LINE
  5
2CC
  8
0
  6
CONTINUOUS
 62
     7
 10
195.0000000000001
 20
434.261092032318
 30
0.0
 11
195.0000000000001
 21
431.2610920323181
 31
0.0
  0
LINE
  5
2CD
  8
0
  6
CONTINUOUS
 62
     7
 10
137.3728098221526
 20
1521.028755944973
 30
0.0
 11
147.9809588753022
 21
1534.079110747716
 31
0.0
  0
LINE
  5
2CE
  8
0
  6
CONTINUOUS
 62
     7
 10
97.05335308988644
 20
1511.761092032318
 30
0.0
 11
96.30000000000001
 21
1511.761092032318
 31
0.0
  0
CIRCLE
  5
2CF
  8
0
  6
CONTINUOUS
 62
     7
 10
94.99999999999997
 20
1512.261092032317
 30
0.0
 40
5.000000000000004
  0
ARC
  5
2D0
  8
0
  6
CONTINUOUS
 62
     7
 10
130.9524665745928
 20
454.5110920323181
 30
0.0
 40
14.61451612903225
 50
322.7553923535776
 51
0.0
  0
LINE
  5
2D1
  8
0
  6
CONTINUOUS
 62
   253
 10
120.9718724345147
 20
434.261092032318
 30
0.0
 11
120.9718724345147
 21
1518.376048578226
 31
0.0
  0
LINE
  5
2D2
  8
0
  6
CONTINUOUS
 62
     7
 10
42.09710918677889
 20
1533.983069872556
 30
0.0
 11
52.70376175754744
 21
1520.934556072039
 31
0.0
  0
ARC
  5
2D3
  8
0
  6
CONTINUOUS
 62
     7
 10
94.99999999999997
 20
1512.261092032317
 30
0.0
 40
2.113352528980095
 50
166.3145799001957
 51
193.6854200998041
  0
LINE
  5
2D4
  8
0
  6
CONTINUOUS
 62
     7
 10
941.7280244275711
 20
174.6690585945212
 30
0.0
 11
939.625513272899
 21
160.0000000000001
 31
0.0
  0
LINE
  5
2D5
  8
0
  6
CONTINUOUS
 62
     7
 10
48.54204581833532
 20
463.5110920323182
 30
0.0
 11
47.65129029717644
 21
463.5110920323182
 31
0.0
  0
LINE
  5
2D6
  8
0
  6
CONTINUOUS
 62
     7
 10
187.5
 20
434.261092032318
 30
0.0
 11
195.0000000000001
 21
434.261092032318
 31
0.0
  0
CIRCLE
  5
2D7
  8
0
  6
CONTINUOUS
 62
     7
 10
95.00000000000003
 20
499.2610920323179
 30
0.0
 40
21.00000000000007
  0
LINE
  5
2D8
  8
0
  6
CONTINUOUS
 62
     7
 10
850.3744867278649
 20
160.0000000000001
 30
0.0
 11
848.271975573084
 21
174.6690585952793
 31
0.0
  0
LINE
  5
2D9
  8
0
  6
CONTINUOUS
 62
     7
 10
932.276507797103
 20
130.0000000000001
 30
0.0
 11
935.276510797198
 21
130.0000000000001
 31
0.0
  0
LINE
  5
2DA
  8
0
  6
CONTINUOUS
 62
     7
 10
875.7373567122798
 20
146.0998750057072
 30
0.0
 11
875.7398504488378
 21
146.0500000043461
 31
0.0
  0
LINE
  5
2DB
  8
0
  6
CONTINUOUS
 62
     7
 10
92.94664691011356
 20
1512.761092032318
 30
0.0
 11
93.69999999999992
 21
1512.761092032318
 31
0.0
  0
LINE
  5
2DC
  8
0
  6
CONTINUOUS
 62
   253
 10
137.0054718153868
 20
1520.839793853885
 30
0.0
 11
137.0054718153868
 21
434.2610920323182
 31
0.0
  0
LINE
  5
2DD
  8
0
  6
CONTINUOUS
 62
     7
 10
142.3487097028236
 20
463.5110920323182
 30
0.0
 11
141.4579541816649
 21
463.5110920323182
 31
0.0
  0
LINE
  5
2DE
  8
0
  6
CONTINUOUS
 62
     7
 10
69.4970364940588
 20
1518.376048578226
 30
0.0
 11
121.0079735051503
 21
1518.376048578226
 31
0.0
  0
LINE
  5
2DF
  8
0
  6
CONTINUOUS
 62
     7
 10
141.4579541816649
 20
445.5110920323179
 30
0.0
 11
142.3487097028236
 21
445.5110920323179
 31
0.0
  0
LINE
  5
2E0
  8
0
  6
CONTINUOUS
 62
     7
 10
936.653034491038
 20
160.0000000000001
 30
0.0
 11
939.6530374909628
 21
160.0000000000001
 31
0.0
  0
LINE
  5
2E1
  8
0
  6
CONTINUOUS
 62
     7
 10
909.0000000000001
 20
184.4999999999999
 30
0.0
 11
933.227200957538
 21
184.4999999999999
 31
0.0
  0
LINE
  5
2E2
  8
0
  6
CONTINUOUS
 62
   253
 10
42.24764149857524
 20
1533.797882044937
 30
0.0
 11
42.24764149857524
 21
434.2610920323186
 31
0.0
  0
LINE
  5
2E3
  8
0
  6
CONTINUOUS
 62
   253
 10
52.99452818461331
 20
434.261092032318
 30
0.0
 11
52.99452818461331
 21
1520.839793853885
 31
0.0
  0
ARC
  5
2E4
  8
0
  6
CONTINUOUS
 62
     7
 10
59.04753342540725
 20
454.5110920323181
 30
0.0
 40
14.61451612903231
 50
180.0
 51
217.2446076464224
  0
LINE
  5
2E5
  8
0
  6
CONTINUOUS
 62
     7
 10
909.0000000000001
 20
181.5000000000002
 30
0.0
 11
909.0000000000001
 21
184.4999999999999
 31
0.0
  0
LINE
  5
2E6
  8
0
  6
CONTINUOUS
 62
     7
 10
971.3448866924449
 20
78.52029896415003
 30
0.0
 11
963.6078063966461
 21
87.66669149660505
 31
0.0
  0
LINE
  5
2E7
  8
0
  6
CONTINUOUS
 62
     7
 10
148.0554025851951
 20
1535.315845421434
 30
0.0
 11
148.0932703395229
 21
1537.5065117306
 31
0.0
  0
LINE
  5
2E8
  8
0
  6
CONTINUOUS
 62
     7
 10
146.2736115569335
 20
1538.692684514083
 30
0.0
 11
43.72638844234154
 21
1538.692684514083
 31
0.0
  0
LINE
  5
2E9
  8
0
  6
CONTINUOUS
 62
   253
 10
148.0554025851951
 20
1535.315845421434
 30
0.0
 11
148.0370309186369
 21
1534.253036398649
 31
0.0
  0
LINE
  5
2EA
  8
0
  6
CONTINUOUS
 62
   253
 10
41.944597414041
 20
1535.315845421434
 30
0.0
 11
41.96296908059481
 21
1534.253036398898
 31
0.0
  0
LINE
  5
2EB
  8
0
  6
CONTINUOUS
 62
   253
 10
137.4234198804369
 20
1524.380250637771
 30
0.0
 11
137.3855521261091
 21
1522.189584328606
 31
0.0
  0
LINE
  5
2EC
  8
0
  6
CONTINUOUS
 62
     7
 10
880.9999999999999
 20
105.5000000000001
 30
0.0
 11
868.2976526693768
 21
105.5000000000001
 31
0.0
  0
LINE
  5
2ED
  8
0
  6
CONTINUOUS
 62
     7
 10
933.145909340633
 20
115.39525789069
 30
0.0
 11
935.276510797198
 21
130.0000000000002
 31
0.0
  0
ARC
  5
2EE
  8
0
  6
CONTINUOUS
 62
     7
 10
966.0005560953787
 20
73.9994439046212
 30
0.0
 40
7.000000000000117
 50
229.7715823490017
 51
40.22841765099872
  0
LINE
  5
2EF
  8
0
  6
CONTINUOUS
 62
     7
 10
889.5000000000251
 20
1439.382798216665
 30
0.0
 11
870.000000000023
 21
1439.382798216747
 31
0.0
  0
LINE
  5
2F0
  8
0
  6
CONTINUOUS
 62
     7
 10
909.0000000000001
 20
108.5
 30
0.0
 11
909.0000000000001
 21
105.5000000000001
 31
0.0
  0
LINE
  5
2F1
  8
0
  6
CONTINUOUS
 62
     7
 10
870.5973696201269
 20
1438.382798216625
 30
0.0
 11
870.2585224119479
 21
1438.382798216626
 31
0.0
  0
LINE
  5
2F2
  8
0
  6
CONTINUOUS
 62
     7
 10
933.145909340633
 20
115.39525789069
 30
0.0
 11
921.7023473306241
 21
105.5000000000001
 31
0.0
  0
ARC
  5
2F3
  8
0
  6
CONTINUOUS
 62
     7
 10
832.4999999999999
 20
207.5000000000002
 30
0.0
 40
8.000000000000007
 50
220.2284176509988
 51
49.77158234900129
  0
CIRCLE
  5
2F4
  8
0
  6
CONTINUOUS
 62
     7
 10
95.00000000000003
 20
559.261092032318
 30
0.0
 40
25.99999999999997
  0
LINE
  5
2F5
  8
0
  6
CONTINUOUS
 62
     7
 10
909.0000000000001
 20
105.5000000000001
 30
0.0
 11
921.7023473306241
 21
105.5000000000001
 31
0.0
  0
LINE
  5
2F6
  8
0
  6
CONTINUOUS
 62
     7
 10
872.2166766374469
 20
1431.633055955544
 30
0.0
 11
878.311341807523
 21
1431.633055955519
 31
0.0
  0
LINE
  5
2F7
  8
0
  6
CONTINUOUS
 62
     7
 10
837.6666914966049
 20
213.607806396646
 30
0.0
 11
828.52029896415
 21
221.3448866924442
 31
0.0
  0
LINE
  5
2F8
  8
0
  6
CONTINUOUS
 62
     7
 10
872.216676637472
 20
1437.382798216615
 30
0.0
 11
870.5973696201271
 21
1438.382798216626
 31
0.0
  0
LINE
  5
2F9
  8
0
  6
CONTINUOUS
 62
     7
 10
872.216676637472
 20
1437.382798216615
 30
0.0
 11
872.216676637447
 21
1431.633055955423
 31
0.0
  0
LINE
  5
2FA
  8
0
  6
CONTINUOUS
 62
     7
 10
881.0016875244618
 20
1438.382798216589
 30
0.0
 11
880.2600060053169
 21
1438.382798216592
 31
0.0
  0
LINE
  5
2FB
  8
0
  6
CONTINUOUS
 62
     7
 10
857.723492202897
 20
130.0000000000001
 30
0.0
 11
853.3469655089621
 21
160.0000000000001
 31
0.0
  0
LINE
  5
2FC
  8
0
  6
CONTINUOUS
 62
     7
 10
818.6551133075558
 20
211.4797010358502
 30
0.0
 11
826.3921936033539
 21
202.3333085033952
 31
0.0
  0
LINE
  5
2FD
  8
0
  6
CONTINUOUS
 62
     7
 10
880.9999999999999
 20
181.5000000000002
 30
0.0
 11
909.0
 21
181.5000000000002
 31
0.0
  0
LINE
  5
2FE
  8
0
  6
CONTINUOUS
 62
     7
 10
850.3469625090371
 20
160.0000000000001
 30
0.0
 11
848.2163610524718
 21
174.6047421093103
 31
0.0
  0
ARC
  5
2FF
  8
0
  6
CONTINUOUS
 62
     7
 10
966.0005560953787
 20
216.000556095379
 30
0.0
 40
7.000000000000117
 50
319.7715823490017
 51
130.2284176509991
  0
LINE
  5
300
  8
0
  6
CONTINUOUS
 62
     7
 10
826.3921936033539
 20
87.66669149660511
 30
0.0
 11
818.6551133075558
 21
78.52029896415009
 31
0.0
  0
LINE
  5
301
  8
0
  6
CONTINUOUS
 62
     7
 10
880.9999999999999
 20
108.5
 30
0.0
 11
880.9999999999999
 21
105.5000000000001
 31
0.0
  0
LINE
  5
302
  8
0
  6
CONTINUOUS
 62
     7
 10
856.854090659367
 20
115.39525789069
 30
0.0
 11
854.723489202802
 21
130.0000000000002
 31
0.0
  0
LINE
  5
303
  8
0
  6
CONTINUOUS
 62
     7
 10
868.2976526693769
 20
105.5000000000001
 30
0.0
 11
856.854090659367
 21
115.3952578906901
 31
0.0
  0
ARC
  5
304
  8
0
  6
CONTINUOUS
 62
     7
 10
987.4999999999999
 20
237.5000000000003
 30
0.0
 40
7.500000000000062
 50
0.0
 51
90.0
  0
LINE
  5
305
  8
0
  6
CONTINUOUS
 62
     7
 10
933.2272009575379
 20
184.4999999999999
 30
0.0
 11
941.7836389475281
 21
174.6047421093102
 31
0.0
  0
ARC
  5
306
  8
0
  6
CONTINUOUS
 62
     7
 10
823.9994439046209
 20
73.9994439046212
 30
0.0
 40
6.999999999999895
 50
139.7715823490014
 51
310.2284176509987
  0
ARC
  5
307
  8
0
  6
CONTINUOUS
 62
     7
 10
823.9994439046209
 20
216.000556095379
 30
0.0
 40
6.999999999999895
 50
49.77158234900135
 51
220.2284176509989
  0
LINE
  5
308
  8
0
  6
CONTINUOUS
 62
     7
 10
848.2163610524718
 20
174.6047421093102
 30
0.0
 11
856.7727990424619
 21
184.4999999999999
 31
0.0
  0
ARC
  5
309
  8
0
  6
CONTINUOUS
 62
     7
 10
957.4999999999999
 20
207.5000000000002
 30
0.0
 40
7.999999999999785
 50
130.2284176509988
 51
319.7715823490013
  0
LINE
  5
30A
  8
0
  6
CONTINUOUS
 62
     7
 10
880.9999999999999
 20
184.4999999999999
 30
0.0
 11
856.7727990424619
 21
184.4999999999999
 31
0.0
  0
LINE
  5
30B
  8
0
  6
CONTINUOUS
 62
     7
 10
828.5202989641499
 20
68.65511330755614
 30
0.0
 11
837.6666914966049
 21
76.39219360335423
 31
0.0
  0
LINE
  5
30C
  8
0
  6
CONTINUOUS
 62
     7
 10
802.4999999999999
 20
245.0000000000001
 30
0.0
 11
987.4999999999999
 21
245.0000000000001
 31
0.0
  0
ARC
  5
30D
  8
0
  6
CONTINUOUS
 62
     7
 10
802.4999999999999
 20
52.49999999999999
 30
0.0
 40
7.500000000000062
 50
180.0
 51
270.0
  0
LINE
  5
30E
  8
0
  6
CONTINUOUS
 62
     7
 10
909.0000000000001
 20
108.5
 30
0.0
 11
881.0
 21
108.5
 31
0.0
  0
LINE
  5
30F
  8
0
  6
CONTINUOUS
 62
     7
 10
879.916246208417
 20
1438.382798216588
 30
0.0
 11
878.3113418075461
 21
1437.382798216591
 31
0.0
  0
LINE
  5
310
  8
0
  6
CONTINUOUS
 62
     7
 10
853.346965508962
 20
160.0000000000001
 30
0.0
 11
850.346962509037
 21
160.0000000000001
 31
0.0
  0
ARC
  5
311
  8
0
  6
CONTINUOUS
 62
     7
 10
802.4999999999999
 20
237.5000000000003
 30
0.0
 40
7.500000000000062
 50
90.0
 51
180.0
  0
LINE
  5
312
  8
0
  6
CONTINUOUS
 62
     7
 10
939.6530374909627
 20
160.0000000000001
 30
0.0
 11
941.7836389475281
 21
174.6047421093103
 31
0.0
  0
LINE
  5
313
  8
0
  6
CONTINUOUS
 62
     7
 10
963.6078063966459
 20
202.3333085033951
 30
0.0
 11
971.3448866924447
 21
211.4797010358502
 31
0.0
  0
LINE
  5
314
  8
0
  6
CONTINUOUS
 62
     7
 10
880.9999999999999
 20
181.5000000000002
 30
0.0
 11
880.9999999999999
 21
184.4999999999999
 31
0.0
  0
LINE
  5
315
  8
0
  6
CONTINUOUS
 62
     7
 10
932.276507797103
 20
130.0000000000001
 30
0.0
 11
936.653034491038
 21
160.0000000000001
 31
0.0
  0
LINE
  5
316
  8
0
  6
CONTINUOUS
 62
     7
 10
961.4797010358499
 20
221.3448866924441
 30
0.0
 11
952.333308503396
 21
213.6078063966459
 31
0.0
  0
LINE
  5
317
  8
0
  6
CONTINUOUS
 62
     7
 10
995.0
 20
237.5000000000003
 30
0.0
 11
995.0
 21
52.5000000000001
 31
0.0
  0
ARC
  5
318
  8
0
  6
CONTINUOUS
 62
     7
 10
832.4999999999999
 20
82.50000000000001
 30
0.0
 40
8.00000000000023
 50
310.2284176509989
 51
139.7715823490011
  0
LINE
  5
319
  8
0
  6
CONTINUOUS
 62
     7
 10
952.3333085033959
 20
76.39219360335426
 30
0.0
 11
961.4797010358498
 21
68.6551133075552
 31
0.0
  0
LINE
  5
31A
  8
0
  6
CONTINUOUS
 62
     7
 10
987.4999999999999
 20
44.99999999999993
 30
0.0
 11
802.4999999999999
 21
44.99999999999993
 31
0.0
  0
LINE
  5
31B
  8
0
  6
CONTINUOUS
 62
     7
 10
795.0
 20
52.49999999999999
 30
0.0
 11
795.0
 21
237.5000000000001
 31
0.0
  0
ARC
  5
31C
  8
0
  6
CONTINUOUS
 62
     7
 10
957.4999999999999
 20
82.50000000000001
 30
0.0
 40
8.00000000000023
 50
40.22841765099874
 51
229.7715823490013
  0
ARC
  5
31D
  8
0
  6
CONTINUOUS
 62
     7
 10
987.4999999999999
 20
52.49999999999999
 30
0.0
 40
7.500000000000062
 50
270.0
 51
0.0
  0
LINE
  5
31E
  8
0
  6
CONTINUOUS
 62
     7
 10
857.723492202897
 20
130.0000000000001
 30
0.0
 11
854.723489202802
 21
130.0000000000001
 31
0.0
  0
LINE
  5
31F
  8
0
  6
CONTINUOUS
 62
     7
 10
879.0000000000239
 20
1429.28727263569
 30
0.0
 11
870.0000000000241
 21
1429.28727263569
 31
0.0
  0
ARC
  5
320
  8
0
  6
CONTINUOUS
 62
     7
 10
48.54204581833515
 20
463.1634505244639
 30
0.0
 40
0.3476415078542683
 50
12.04030080575836
 51
89.99999999997253
  0
ARC
  5
321
  8
0
  6
CONTINUOUS
 62
     7
 10
50.35477393633403
 20
463.5500906265135
 30
0.0
 40
1.50586160741043
 50
192.0403008057884
 51
208.7404649859983
  0
ARC
  5
322
  8
0
  6
CONTINUOUS
 62
     7
 10
46.9206197436991
 20
461.6667925678008
 30
0.0
 40
2.410798525501727
 50
4.778621088583691
 51
28.74046498596686
  0
ARC
  5
323
  8
0
  6
CONTINUOUS
 62
     7
 10
60.25286004320024
 20
462.7813224531145
 30
0.0
 40
10.96794611922854
 50
184.7786210885647
 51
190.0090471592398
  0
ARC
  5
324
  8
0
  6
CONTINUOUS
 62
     7
 10
27.57411894835554
 20
457.0138580597807
 30
0.0
 40
22.21584156500469
 50
1.773248196178827
 51
10.0090471592506
  0
ARC
  5
325
  8
0
  6
CONTINUOUS
 62
     7
 10
-53.26743706738274
 20
454.5110920323181
 30
0.0
 40
103.0961297496667
 50
0.0
 51
1.773248196175587
  0
ARC
  5
326
  8
0
  6
CONTINUOUS
 62
     7
 10
-53.26743706738274
 20
454.5110920323181
 30
0.0
 40
103.0961297496667
 50
358.2267518038245
 51
0.0
  0
ARC
  5
327
  8
0
  6
CONTINUOUS
 62
     7
 10
27.57411894835748
 20
452.0083260048557
 30
0.0
 40
22.21584156500275
 50
349.990952840748
 51
358.2267518038205
  0
ARC
  5
328
  8
0
  6
CONTINUOUS
 62
     7
 10
60.25286004320718
 20
446.2408616115198
 30
0.0
 40
10.96794611923563
 50
169.9909528407567
 51
175.2213789114226
  0
ARC
  5
329
  8
0
  6
CONTINUOUS
 62
     7
 10
46.92061974369971
 20
447.3553914968364
 30
0.0
 40
2.410798525501153
 50
331.2595350140246
 51
355.2213789114136
  0
ARC
  5
32A
  8
0
  6
CONTINUOUS
 62
     7
 10
50.35477393633691
 20
445.4720934381235
 30
0.0
 40
1.505861607413009
 50
151.2595350140444
 51
167.9596991942529
  0
ARC
  5
32B
  8
0
  6
CONTINUOUS
 62
     7
 10
48.5420458183351
 20
445.8587335401725
 30
0.0
 40
0.3476415078546771
 50
270.0000000000448
 51
347.9596991942547
  0
LINE
  5
32C
  8
0
  6
CONTINUOUS
 62
     7
 10
890.0918000304259
 20
1438.382798216621
 30
0.0
 11
890.0312533657861
 21
1438.382798216621
 31
0.0
  0
LINE
  5
32D
  8
0
  6
CONTINUOUS
 62
   253
 10
890.091800030428
 20
1438.382798216662
 30
0.0
 11
890.5000000000208
 21
1438.38279821666
 31
0.0
  0
ARC
  5
32E
  8
0
  6
CONTINUOUS
 62
     7
 10
889.5000000000158
 20
1438.382798216664
 30
0.0
 40
0.9999999999998899
 50
359.9999999997566
 51
89.99999999968198
  0
ARC
  5
32F
  8
0
  6
CONTINUOUS
 62
     7
 10
142.3487097028238
 20
463.1634505244633
 30
0.0
 40
0.3476415078549344
 50
90.00000000001829
 51
167.9596991941683
  0
ARC
  5
330
  8
0
  6
CONTINUOUS
 62
     7
 10
140.5359815848248
 20
463.5500906265133
 30
0.0
 40
1.50586160741033
 50
331.2595350140096
 51
347.9596991942194
  0
ARC
  5
331
  8
0
  6
CONTINUOUS
 62
     7
 10
143.9701357774599
 20
461.6667925678008
 30
0.0
 40
2.410798525501776
 50
151.2595350140338
 51
175.2213789114163
  0
ARC
  5
332
  8
0
  6
CONTINUOUS
 62
     7
 10
130.6378954779586
 20
462.7813224531165
 30
0.0
 40
10.96794611922876
 50
349.99095284075
 51
355.2213789114248
  0
ARC
  5
333
  8
0
  6
CONTINUOUS
 62
     7
 10
163.3166365727961
 20
457.0138580597824
 30
0.0
 40
22.21584156499728
 50
169.9909528407507
 51
178.2267518038252
  0
ARC
  5
334
  8
0
  6
CONTINUOUS
 62
     7
 10
244.158192588395
 20
454.5110920323203
 30
0.0
 40
103.0961297495201
 50
178.2267518038232
 51
180.0000000000013
  0
ARC
  5
335
  8
0
  6
CONTINUOUS
 62
     7
 10
244.158192588395
 20
454.5110920323158
 30
0.0
 40
103.09612974952
 50
179.9999999999988
 51
181.7732481961769
  0
ARC
  5
336
  8
0
  6
CONTINUOUS
 62
     7
 10
163.316636572794
 20
452.0083260048538
 30
0.0
 40
22.21584156499537
 50
181.773248196175
 51
190.0090471592503
  0
ARC
  5
337
  8
0
  6
CONTINUOUS
 62
     7
 10
130.6378954779515
 20
446.2408616115174
 30
0.0
 40
10.96794611923616
 50
4.778621088589886
 51
10.00904715925572
  0
ARC
  5
338
  8
0
  6
CONTINUOUS
 62
     7
 10
143.9701357774591
 20
447.3553914968362
 30
0.0
 40
2.410798525501023
 50
184.7786210885814
 51
208.7404649859718
  0
ARC
  5
339
  8
0
  6
CONTINUOUS
 62
     7
 10
140.5359815848219
 20
445.4720934381237
 30
0.0
 40
1.505861607413
 50
12.04030080573722
 51
28.74046498594618
  0
ARC
  5
33A
  8
0
  6
CONTINUOUS
 62
     7
 10
142.3487097028239
 20
445.8587335401729
 30
0.0
 40
0.3476415078548783
 50
192.0403008058131
 51
269.999999999992
  0
ARC
  5
33B
  8
0
  6
CONTINUOUS
 62
     7
 10
493.0802487411568
 20
454.7271253032048
 30
0.0
 40
8.783966729113413
 50
89.99999999999422
 51
112.8585654715885
  0
ARC
  5
33C
  8
0
  6
CONTINUOUS
 62
     7
 10
493.1701832036533
 20
454.5137903491492
 30
0.0
 40
9.015483489125359
 50
112.8585654715911
 51
135.1225224198936
  0
ARC
  5
33D
  8
0
  6
CONTINUOUS
 62
     7
 10
493.0845706692389
 20
454.599037513272
 30
0.0
 40
8.894667161421392
 50
135.1225224198925
 51
157.8555116413158
  0
ARC
  5
33E
  8
0
  6
CONTINUOUS
 62
     7
 10
493.3006727514697
 20
454.5110920323181
 30
0.0
 40
9.127979221900084
 50
157.8555116413164
 51
180.0
  0
ARC
  5
33F
  8
0
  6
CONTINUOUS
 62
     7
 10
493.3006727514668
 20
454.5110920323187
 30
0.0
 40
9.12797922189712
 50
180.0000000000041
 51
202.144488358688
  0
ARC
  5
340
  8
0
  6
CONTINUOUS
 62
     7
 10
493.0845706692408
 20
454.4231465513648
 30
0.0
 40
8.89466716142323
 50
202.1444883586773
 51
224.8774775801024
  0
ARC
  5
341
  8
0
  6
CONTINUOUS
 62
     7
 10
493.1701832036511
 20
454.5083937154879
 30
0.0
 40
9.0154834891243
 50
224.8774775801191
 51
247.1414345284209
  0
ARC
  5
342
  8
0
  6
CONTINUOUS
 62
     7
 10
493.0802487411597
 20
454.2950587614316
 30
0.0
 40
8.783966729113468
 50
247.141434528392
 51
269.9999999999869
  0
ARC
  5
343
  8
0
  6
CONTINUOUS
 62
     7
 10
917.4999999999999
 20
1483.365751390636
 30
0.0
 40
14.20865675840255
 50
79.8617763019091
 51
90.00000000000055
  0
LINE
  5
344
  8
0
  6
CONTINUOUS
 62
     7
 10
879.0000000000239
 20
1429.28727263569
 30
0.0
 11
879.0000000000239
 21
1429.261092032318
 31
0.0
  0
ARC
  5
345
  8
0
  6
CONTINUOUS
 62
     7
 10
877.455945732058
 20
1219.583484695984
 30
0.0
 40
1.85313244644023
 50
181.9555971062266
 51
188.62539802054
  0
ARC
  5
346
  8
0
  6
CONTINUOUS
 62
     7
 10
876.2892959216202
 20
1219.406516485443
 30
0.0
 40
0.6731368838483699
 50
188.6253980205521
 51
224.9999999964527
  0
ARC
  5
347
  8
0
  6
CONTINUOUS
 62
     7
 10
876.2892959216194
 20
1219.406516485443
 30
0.0
 40
0.6731368838473891
 50
224.9999999964852
 51
261.3746019724452
  0
ARC
  5
348
  8
0
  6
CONTINUOUS
 62
     7
 10
876.4662641323092
 20
1220.573166295851
 30
0.0
 40
1.853132446431808
 50
261.3746019722346
 51
268.0444028865594
  0
LINE
  5
349
  8
0
  6
CONTINUOUS
 62
     7
 10
888.0485964041059
 20
1437.382798216603
 30
0.0
 11
888.048596404082
 21
1431.633055955411
 31
0.0
  0
ARC
  5
34A
  8
0
  6
CONTINUOUS
 62
     7
 10
892.7999999999809
 20
1430.499134722662
 30
0.0
 40
0.4999999999999449
 50
359.9999999997638
 51
74.99999999960619
  0
LINE
  5
34B
  8
0
  6
CONTINUOUS
 62
     7
 10
890.0312533657889
 20
1438.382798216662
 30
0.0
 11
889.731439652399
 21
1438.382798216663
 31
0.0
  0
LINE
  5
34C
  8
0
  6
CONTINUOUS
 62
     7
 10
883.813894638272
 20
1437.382798216586
 30
0.0
 11
883.813894638248
 21
1431.633055955394
 31
0.0
  0
LINE
  5
34D
  8
0
  6
CONTINUOUS
 62
     7
 10
889.7314396523968
 20
1438.382798216617
 30
0.0
 11
889.2093999926279
 21
1438.382798216619
 31
0.0
  0
LINE
  5
34E
  8
0
  6
CONTINUOUS
 62
     7
 10
882.2601584753479
 20
1438.382798216586
 30
0.0
 11
881.751755076338
 21
1438.382798216588
 31
0.0
  0
CIRCLE
  5
34F
  8
0
  6
CONTINUOUS
 62
     7
 10
95.00000000000003
 20
499.9891632329933
 30
0.0
 40
25.99999999999997
  0
LINE
  5
350
  8
0
  6
CONTINUOUS
 62
     7
 10
888.870552784449
 20
1438.382798216613
 30
0.0
 11
888.0485964041059
 21
1437.382798216603
 31
0.0
  0
ARC
  5
351
  8
0
  6
CONTINUOUS
 62
     7
 10
47.65129029717663
 20
463.1634505244642
 30
0.0
 40
0.3476415078546014
 50
90.00000000001143
 51
140.9883282416606
  0
LINE
  5
352
  8
0
  6
CONTINUOUS
 62
     7
 10
889.2093999926279
 20
1438.382798216613
 30
0.0
 11
888.870552784449
 21
1438.382798216613
 31
0.0
  0
LINE
  5
353
  8
0
  6
CONTINUOUS
 62
     7
 10
893.299999999984
 20
1430.499134722659
 30
0.0
 11
893.29999999998
 21
1429.382798216648
 31
0.0
  0
LINE
  5
354
  8
0
  6
CONTINUOUS
 62
     7
 10
890.500000000018
 20
1438.38279821666
 30
0.0
 11
890.500000000018
 21
1438.295690754011
 31
0.0
  0
LINE
  5
355
  8
0
  6
CONTINUOUS
 62
   253
 10
882.0
 20
1471.761092032318
 30
0.0
 11
882.0
 21
1439.382798216696
 31
0.0
  0
ARC
  5
356
  8
0
  6
CONTINUOUS
 62
     7
 10
872.4999999999999
 20
1483.365751390628
 30
0.0
 40
14.20865675841032
 50
90.0000000000005
 51
100.1382236980861
  0
LINE
  5
357
  8
0
  6
CONTINUOUS
 62
     7
 10
870.258522411948
 20
1438.382798216633
 30
0.0
 11
870.0000000000241
 21
1438.382798216634
 31
0.0
  0
ARC
  5
358
  8
0
  6
CONTINUOUS
 62
     7
 10
141.4579541816649
 20
463.1634505244633
 30
0.0
 40
0.3476415078549344
 50
90.00000000000915
 51
167.9596991941615
  0
ARC
  5
359
  8
0
  6
CONTINUOUS
 62
     7
 10
139.645226063666
 20
463.5500906265133
 30
0.0
 40
1.505861607410275
 50
331.2595350140085
 51
347.959699194219
  0
ARC
  5
35A
  8
0
  6
CONTINUOUS
 62
     7
 10
143.079380256301
 20
461.6667925678006
 30
0.0
 40
2.410798525501882
 50
151.2595350140292
 51
175.2213789114109
  0
ARC
  5
35B
  8
0
  6
CONTINUOUS
 62
     7
 10
129.7471399567998
 20
462.7813224531159
 30
0.0
 40
10.9679461192287
 50
349.9909528407532
 51
355.2213789114282
  0
ARC
  5
35C
  8
0
  6
CONTINUOUS
 62
     7
 10
162.4258810516445
 20
457.0138580597813
 30
0.0
 40
22.21584156500457
 50
169.9909528407512
 51
178.2267518038229
  0
ARC
  5
35D
  8
0
  6
CONTINUOUS
 62
     7
 10
243.2674370673827
 20
454.5110920323203
 30
0.0
 40
103.0961297496665
 50
178.2267518038257
 51
180.0000000000013
  0
ARC
  5
35E
  8
0
  6
CONTINUOUS
 62
     7
 10
243.2674370673827
 20
454.5110920323158
 30
0.0
 40
103.0961297496665
 50
179.9999999999988
 51
181.7732481961744
  0
ARC
  5
35F
  8
0
  6
CONTINUOUS
 62
     7
 10
162.4258810516424
 20
452.0083260048553
 30
0.0
 40
22.21584156500263
 50
181.7732481961785
 51
190.0090471592509
  0
ARC
  5
360
  8
0
  6
CONTINUOUS
 62
     7
 10
129.7471399567928
 20
446.2408616115198
 30
0.0
 40
10.96794611923563
 50
4.778621088577381
 51
10.00904715924332
  0
ARC
  5
361
  8
0
  6
CONTINUOUS
 62
     7
 10
143.0793802563003
 20
447.3553914968367
 30
0.0
 40
2.410798525501282
 50
184.7786210885914
 51
208.7404649859799
  0
ARC
  5
362
  8
0
  6
CONTINUOUS
 62
     7
 10
139.6452260636631
 20
445.4720934381237
 30
0.0
 40
1.505861607412903
 50
12.04030080573858
 51
28.74046498594817
  0
ARC
  5
363
  8
0
  6
CONTINUOUS
 62
     7
 10
141.4579541816651
 20
445.8587335401729
 30
0.0
 40
0.3476415078549326
 50
192.0403008058112
 51
269.9999999999926
  0
LINE
  5
364
  8
0
  6
CONTINUOUS
 62
     7
 10
878.311341807546
 20
1437.382798216591
 30
0.0
 11
878.311341807522
 21
1431.633055955398
 31
0.0
  0
LINE
  5
365
  8
0
  6
CONTINUOUS
 62
     7
 10
883.8138946382488
 20
1431.633055955496
 30
0.0
 11
888.0485964040838
 21
1431.633055955478
 31
0.0
  0
ARC
  5
366
  8
0
  6
CONTINUOUS
 62
     7
 10
880.9662641376862
 20
1308.340975729588
 30
0.0
 40
1.853132446440895
 50
91.95559710622592
 51
98.62539802054019
  0
ARC
  5
367
  8
0
  6
CONTINUOUS
 62
     7
 10
880.7892959271467
 20
1309.507625540027
 30
0.0
 40
0.6731368838481306
 50
98.62539802066995
 51
134.9999999966056
  0
ARC
  5
368
  8
0
  6
CONTINUOUS
 62
     7
 10
880.789295927144
 20
1309.507625540027
 30
0.0
 40
0.6731368838466041
 50
134.9999999964451
 51
171.3746019723658
  0
ARC
  5
369
  8
0
  6
CONTINUOUS
 62
     7
 10
881.955945737571
 20
1309.330657329337
 30
0.0
 40
1.853132446450195
 50
171.3746019722862
 51
178.0444028865887
  0
LINE
  5
36A
  8
0
  6
CONTINUOUS
 62
     7
 10
882.3956009958279
 20
1438.382798216586
 30
0.0
 11
882.2601584753478
 21
1438.382798216584
 31
0.0
  0
LINE
  5
36B
  8
0
  6
CONTINUOUS
 62
     7
 10
891.0918000304209
 20
1437.382798216617
 30
0.0
 11
891.0918000303949
 21
1431.259945983723
 31
0.0
  0
ARC
  5
36C
  8
0
  6
CONTINUOUS
 62
     7
 10
912.5237551715734
 20
1309.330657327467
 30
0.0
 40
1.853132446432745
 50
1.955597106289469
 51
8.625398020603756
  0
ARC
  5
36D
  8
0
  6
CONTINUOUS
 62
     7
 10
913.690404982002
 20
1309.507625538009
 30
0.0
 40
0.6731368838497733
 50
8.625398020457528
 51
44.99999999635091
  0
ARC
  5
36E
  8
0
  6
CONTINUOUS
 62
     7
 10
913.6904049820043
 20
1309.50762553801
 30
0.0
 40
0.6731368838477031
 50
44.99999999651193
 51
81.37460197247192
  0
ARC
  5
36F
  8
0
  6
CONTINUOUS
 62
     7
 10
913.5134367713243
 20
1308.340975727601
 30
0.0
 40
1.853132446431693
 50
81.37460197253266
 51
88.04440288685622
  0
LINE
  5
370
  8
0
  6
CONTINUOUS
 62
     7
 10
881.751755076339
 20
1438.382798216697
 30
0.0
 11
881.0016875244629
 21
1438.3827982167
 31
0.0
  0
LINE
  5
371
  8
0
  6
CONTINUOUS
 62
     7
 10
891.0918000303959
 20
1431.474483615237
 30
0.0
 11
892.9294095225379
 21
1430.982097635805
 31
0.0
  0
ARC
  5
372
  8
0
  6
CONTINUOUS
 62
     7
 10
67.19036864420985
 20
1572.115428262983
 30
0.0
 40
50.12635819356323
 50
253.5689178124994
 51
272.0655060122473
  0
LINE
  5
373
  8
0
  6
CONTINUOUS
 62
     7
 10
53.01153522619184
 20
1524.036197105928
 30
0.0
 11
52.57658011879909
 21
1524.380250637772
 31
0.0
  0
ARC
  5
374
  8
0
  6
CONTINUOUS
 62
     7
 10
925.2898011993422
 20
77.57835929662704
 30
0.0
 40
35.97179148058815
 50
81.5627605679824
 51
81.82374674523182
  0
ARC
  5
375
  8
0
  6
CONTINUOUS
 62
     7
 10
147.08791155126
 20
1537.50463284799
 30
0.0
 40
1.004687015409571
 50
0.1070781095035567
 51
6.192405279096652
  0
ARC
  5
376
  8
0
  6
CONTINUOUS
 62
     7
 10
147.1202513790672
 20
1537.508141740296
 30
0.0
 40
0.9721573860261307
 50
6.192405279192299
 51
29.25500962600158
  0
ARC
  5
377
  8
0
  6
CONTINUOUS
 62
     7
 10
147.0651674132513
 20
1537.477286910153
 30
0.0
 40
1.035294251906852
 50
29.25500962585154
 51
50.89361936547213
  0
ARC
  5
378
  8
0
  6
CONTINUOUS
 62
     7
 10
147.0651674132569
 20
1537.477286910154
 30
0.0
 40
1.035294251901844
 50
50.89361936565436
 51
72.53222910533356
  0
ARC
  5
379
  8
0
  6
CONTINUOUS
 62
     7
 10
147.0841191609769
 20
1537.537512279318
 30
0.0
 40
0.9721573860266965
 50
72.53222910532493
 51
88.87987383825215
  0
ARC
  5
37A
  8
0
  6
CONTINUOUS
 62
     7
 10
67.23464376107485
 20
1564.670296708778
 30
0.0
 40
46.3232278177213
 50
252.5768486396958
 51
272.1803633505979
  0
LINE
  5
37B
  8
0
  6
CONTINUOUS
 62
     7
 10
53.36424895299724
 20
1520.472405545052
 30
0.0
 11
52.92986776193575
 21
1520.836568704395
 31
0.0
  0
ARC
  5
37C
  8
0
  6
CONTINUOUS
 62
     7
 10
142.3487097028235
 20
463.1634505244642
 30
0.0
 40
0.3476415078546014
 50
39.01167175833941
 51
89.99999999998859
  0
ARC
  5
37D
  8
0
  6
CONTINUOUS
 62
     7
 10
864.7101988015389
 20
77.57835929580104
 30
0.0
 40
35.97179148142238
 50
98.1762532547646
 51
98.437239433125
  0
ARC
  5
37E
  8
0
  6
CONTINUOUS
 62
     7
 10
408.8242773531353
 20
1514.950336774911
 30
0.0
 40
54.26544734018725
 50
10.00730897317886
 51
10.37462151009585
  0
ARC
  5
37F
  8
0
  6
CONTINUOUS
 62
     7
 10
463.5970661662557
 20
1524.977948519968
 30
0.0
 40
1.417686476762022
 50
175.9973944805121
 51
190.3746215100975
  0
ARC
  5
380
  8
0
  6
CONTINUOUS
 62
     7
 10
461.8540095326185
 20
1525.099914566553
 30
0.0
 40
0.3296320816542029
 50
355.9973944804877
 51
24.70977614366041
  0
ARC
  5
381
  8
0
  6
CONTINUOUS
 62
     7
 10
462.2472300341355
 20
1525.280857083625
 30
0.0
 40
0.1032218859810198
 50
99.99999999940768
 51
204.7097761433519
  0
ARC
  5
382
  8
0
  6
CONTINUOUS
 62
     7
 10
47.6512902971763
 20
463.1634505244633
 30
0.0
 40
0.3476415078549344
 50
12.04030080583641
 51
89.99999999997253
  0
ARC
  5
383
  8
0
  6
CONTINUOUS
 62
     7
 10
49.46401841517511
 20
463.5500906265135
 30
0.0
 40
1.505861607410322
 50
192.0403008057893
 51
208.740464986
  0
ARC
  5
384
  8
0
  6
CONTINUOUS
 62
     7
 10
46.02986422254018
 20
461.6667925678006
 30
0.0
 40
2.410798525501882
 50
4.778621088589148
 51
28.74046498597085
  0
ARC
  5
385
  8
0
  6
CONTINUOUS
 62
     7
 10
59.36210452204149
 20
462.7813224531145
 30
0.0
 40
10.96794611922859
 50
184.7786210885647
 51
190.0090471592398
  0
ARC
  5
386
  8
0
  6
CONTINUOUS
 62
     7
 10
26.68336342720401
 20
457.0138580597818
 30
0.0
 40
22.21584156499734
 50
1.773248196176553
 51
10.00904715925105
  0
ARC
  5
387
  8
0
  6
CONTINUOUS
 62
     7
 10
-54.15819258839494
 20
454.5110920323181
 30
0.0
 40
103.0961297495201
 50
0.0
 51
1.773248196178088
  0
ARC
  5
388
  8
0
  6
CONTINUOUS
 62
     7
 10
-54.15819258839494
 20
454.5110920323181
 30
0.0
 40
103.09612974952
 50
358.2267518038219
 51
0.0
  0
ARC
  5
389
  8
0
  6
CONTINUOUS
 62
     7
 10
26.68336342720601
 20
452.0083260048544
 30
0.0
 40
22.21584156499533
 50
349.9909528407482
 51
358.2267518038233
  0
ARC
  5
38A
  8
0
  6
CONTINUOUS
 62
     7
 10
59.36210452204854
 20
446.240861611519
 30
0.0
 40
10.967946119236
 50
169.9909528407524
 51
175.2213789114183
  0
ARC
  5
38B
  8
0
  6
CONTINUOUS
 62
     7
 10
46.02986422254091
 20
447.3553914968362
 30
0.0
 40
2.410798525501078
 50
331.2595350140291
 51
355.2213789114189
  0
ARC
  5
38C
  8
0
  6
CONTINUOUS
 62
     7
 10
49.46401841517811
 20
445.4720934381237
 30
0.0
 40
1.505861607412951
 50
151.2595350140528
 51
167.9596991942624
  0
ARC
  5
38D
  8
0
  6
CONTINUOUS
 62
     7
 10
47.65129029717624
 20
445.8587335401729
 30
0.0
 40
0.3476415078548241
 50
270.0000000000084
 51
347.959699194185
  0
ARC
  5
38E
  8
0
  6
CONTINUOUS
 62
     7
 10
890.0918000304208
 20
1437.382798216621
 30
0.0
 40
0.9999999999998899
 50
359.9999999997582
 51
89.99999999975354
  0
ARC
  5
38F
  8
0
  6
CONTINUOUS
 62
     7
 10
909.0134367659384
 20
1220.573166293856
 30
0.0
 40
1.853132446432432
 50
271.9555971062074
 51
278.6253980205536
  0
ARC
  5
390
  8
0
  6
CONTINUOUS
 62
     7
 10
909.190404976479
 20
1219.406516483426
 30
0.0
 40
0.6731368838474252
 50
278.6253980205261
 51
314.999999996466
  0
ARC
  5
391
  8
0
  6
CONTINUOUS
 62
     7
 10
909.1904049764781
 20
1219.406516483426
 30
0.0
 40
0.6731368838480171
 50
314.9999999965119
 51
351.3746019724704
  0
ARC
  5
392
  8
0
  6
CONTINUOUS
 62
     7
 10
908.0237551660703
 20
1219.583484694117
 30
0.0
 40
1.853132446432699
 50
351.3746019721901
 51
358.044402886504
  0
ARC
  5
393
  8
0
  6
CONTINUOUS
 62
     7
 10
142.3487097028235
 20
445.8587335401731
 30
0.0
 40
0.3476415078546014
 50
270.0000000000114
 51
320.9883282416606
  0
LINE
  5
394
  8
0
  6
CONTINUOUS
 62
     7
 10
880.2600060053168
 20
1438.382798216585
 30
0.0
 11
879.9162462084169
 21
1438.382798216587
 31
0.0
  0
LINE
  5
395
  8
0
  6
CONTINUOUS
 62
     7
 10
883.813894638272
 20
1437.382798216586
 30
0.0
 11
882.395600995828
 21
1438.382798216586
 31
0.0
  0
ARC
  5
396
  8
0
  6
CONTINUOUS
 62
     7
 10
493.0802487411559
 20
454.2950587614314
 30
0.0
 40
8.783966729113413
 50
270.0000000000123
 51
292.8585654716079
  0
ARC
  5
397
  8
0
  6
CONTINUOUS
 62
     7
 10
492.9903142786646
 20
454.5083937154879
 30
0.0
 40
9.015483489124042
 50
292.8585654715786
 51
315.1225224198802
  0
ARC
  5
398
  8
0
  6
CONTINUOUS
 62
     7
 10
493.0759268130745
 20
454.4231465513655
 30
0.0
 40
8.894667161423747
 50
315.1225224198955
 51
337.8555116413194
  0
ARC
  5
399
  8
0
  6
CONTINUOUS
 62
     7
 10
492.8598247308487
 20
454.5110920323183
 30
0.0
 40
9.127979221897077
 50
337.8555116413148
 51
359.9999999999987
  0
ARC
  5
39A
  8
0
  6
CONTINUOUS
 62
     7
 10
492.8598247308459
 20
454.5110920323183
 30
0.0
 40
9.127979221899896
 50
359.9999999999986
 51
22.14448835868228
  0
ARC
  5
39B
  8
0
  6
CONTINUOUS
 62
     7
 10
493.0759268130768
 20
454.5990375132716
 30
0.0
 40
8.894667161421715
 50
22.14448835868744
 51
44.87747758011069
  0
ARC
  5
39C
  8
0
  6
CONTINUOUS
 62
     7
 10
492.9903142786621
 20
454.5137903491492
 30
0.0
 40
9.015483489125247
 50
44.87747758010514
 51
67.14143452840884
  0
ARC
  5
39D
  8
0
  6
CONTINUOUS
 62
     7
 10
493.0802487411586
 20
454.727125303205
 30
0.0
 40
8.78396672911321
 50
67.14143452841101
 51
90.00000000000587
  0
ARC
  5
39E
  8
0
  6
CONTINUOUS
 62
     7
 10
42.91588083825959
 20
1537.537512279341
 30
0.0
 40
0.9721573860142599
 50
91.12012616224116
 51
107.4677709070912
  0
ARC
  5
39F
  8
0
  6
CONTINUOUS
 62
     7
 10
42.93483258599218
 20
1537.477286910159
 30
0.0
 40
1.03529425191118
 50
107.4677709066951
 51
129.1063806461568
  0
ARC
  5
3A0
  8
0
  6
CONTINUOUS
 62
     7
 10
42.93483258599695
 20
1537.477286910153
 30
0.0
 40
1.035294251918109
 50
129.1063806461681
 51
150.7449903854852
  0
ARC
  5
3A1
  8
0
  6
CONTINUOUS
 62
     7
 10
42.8797486201637
 20
1537.508141740298
 30
0.0
 40
0.972157386022283
 50
150.7449903856063
 51
173.8075947325061
  0
ARC
  5
3A2
  8
0
  6
CONTINUOUS
 62
     7
 10
42.91208844796246
 20
1537.504632847997
 30
0.0
 40
1.004687015396545
 50
173.8075947325159
 51
179.8929218914192
  0
ARC
  5
3A3
  8
0
  6
CONTINUOUS
 62
     7
 10
136.418061092176
 20
1524.378371755167
 30
0.0
 40
1.00468701540834
 50
0.1070781091997786
 51
6.192405267843796
  0
ARC
  5
3A4
  8
0
  6
CONTINUOUS
 62
     7
 10
136.450400919986
 20
1524.381880647469
 30
0.0
 40
0.9721573860227176
 50
6.192405267814638
 51
29.2550096147091
  0
ARC
  5
3A5
  8
0
  6
CONTINUOUS
 62
     7
 10
136.3953169541523
 20
1524.351025817325
 30
0.0
 40
1.035294251918894
 50
29.2550096148018
 51
50.89361935411051
  0
ARC
  5
3A6
  8
0
  6
CONTINUOUS
 62
     7
 10
136.3953169541603
 20
1524.351025817333
 30
0.0
 40
1.035294251907795
 50
50.89361935418346
 51
72.53222909369643
  0
ARC
  5
3A7
  8
0
  6
CONTINUOUS
 62
     7
 10
136.4142687018967
 20
1524.411251186513
 30
0.0
 40
0.9721573860117239
 50
72.53222909356766
 51
88.87987383812587
  0
ARC
  5
3A8
  8
0
  6
CONTINUOUS
 62
     7
 10
47.65129029717663
 20
445.8587335401731
 30
0.0
 40
0.3476415078546014
 50
219.0116717583394
 51
269.9999999999886
  0
ARC
  5
3A9
  8
0
  6
CONTINUOUS
 62
     7
 10
493.2089134275509
 20
454.2950587614312
 30
0.0
 40
8.78396672911319
 50
270.0000000000109
 51
292.8585654716081
  0
ARC
  5
3AA
  8
0
  6
CONTINUOUS
 62
     7
 10
493.1189789650594
 20
454.5083937154879
 30
0.0
 40
9.015483489124042
 50
292.8585654715786
 51
315.1225224198802
  0
ARC
  5
3AB
  8
0
  6
CONTINUOUS
 62
     7
 10
493.2045914994695
 20
454.4231465513655
 30
0.0
 40
8.894667161423747
 50
315.1225224198955
 51
337.8555116413194
  0
ARC
  5
3AC
  8
0
  6
CONTINUOUS
 62
     7
 10
492.9884894172437
 20
454.5110920323187
 30
0.0
 40
9.12797922189714
 50
337.8555116413119
 51
359.9999999999957
  0
ARC
  5
3AD
  8
0
  6
CONTINUOUS
 62
     7
 10
492.9884894172408
 20
454.5110920323181
 30
0.0
 40
9.127979221900006
 50
0.0
 51
22.14448835868389
  0
ARC
  5
3AE
  8
0
  6
CONTINUOUS
 62
     7
 10
493.2045914994717
 20
454.5990375132716
 30
0.0
 40
8.894667161421612
 50
22.1444883586877
 51
44.87747758011095
  0
ARC
  5
3AF
  8
0
  6
CONTINUOUS
 62
     7
 10
493.1189789650571
 20
454.5137903491492
 30
0.0
 40
9.015483489125247
 50
44.87747758010514
 51
67.14143452840884
  0
ARC
  5
3B0
  8
0
  6
CONTINUOUS
 62
     7
 10
493.2089134275536
 20
454.727125303205
 30
0.0
 40
8.783966729113166
 50
67.14143452841166
 51
90.00000000000561
  0
ARC
  5
3B1
  8
0
  6
CONTINUOUS
 62
     7
 10
53.58573129734157
 20
1524.411251186506
 30
0.0
 40
0.9721573860208678
 50
91.12012616207647
 51
107.4677709080389
  0
ARC
  5
3B2
  8
0
  6
CONTINUOUS
 62
     7
 10
53.60468304508137
 20
1524.351025817327
 30
0.0
 40
1.035294251916767
 50
107.4677709080052
 51
129.106380647341
  0
ARC
  5
3B3
  8
0
  6
CONTINUOUS
 62
     7
 10
53.60468304508387
 20
1524.351025817328
 30
0.0
 40
1.035294251917427
 50
129.1063806474855
 51
150.7449903868383
  0
ARC
  5
3B4
  8
0
  6
CONTINUOUS
 62
     7
 10
53.54959907924523
 20
1524.38188064747
 30
0.0
 40
0.9721573860181815
 50
150.7449903867609
 51
173.8075947337429
  0
ARC
  5
3B5
  8
0
  6
CONTINUOUS
 62
     7
 10
53.58193890705648
 20
1524.378371755168
 30
0.0
 40
1.004687015404993
 50
173.80759473374
 51
179.8929218909076
  0
ENDSEC
  0
EOF
