  0
SECTION
  2
HEADER
  9
$ACADVER
  1
AC1014
  9
$ACADMAINTVER
 70
     9
  9
$DWGCODEPAGE
  3
ANSI_932
  9
$INSBASE
 10
0.0
 20
0.0
 30
0.0
  9
$EXTMIN
 10
-1560.614609241856
 20
-1206.680263181091
 30
0.0
  9
$EXTMAX
 10
-883.319736818909
 20
1087.192681170977
 30
0.0
  9
$LIMMIN
 10
0.0
 20
0.0
  9
$LIMMAX
 10
12.0
 20
9.0
  9
$ORTHOMODE
 70
     0
  9
$REGENMODE
 70
     1
  9
$FILLMODE
 70
     1
  9
$QTEXTMODE
 70
     0
  9
$MIRRTEXT
 70
     1
  9
$DRAGMODE
 70
     2
  9
$LTSCALE
 40
1.0
  9
$OSMODE
 70
    37
  9
$ATTMODE
 70
     1
  9
$TEXTSIZE
 40
0.2
  9
$TRACEWID
 40
0.05
  9
$TEXTSTYLE
  7
STANDARD
  9
$CLAYER
  8
0
  9
$CELTYPE
  6
BYLAYER
  9
$CECOLOR
 62
   256
  9
$CELTSCALE
 40
1.0
  9
$DELOBJ
 70
     1
  9
$DISPSILH
 70
     0
  9
$DIMSCALE
 40
1.0
  9
$DIMASZ
 40
3.0
  9
$DIMEXO
 40
0.0625
  9
$DIMDLI
 40
0.38
  9
$DIMRND
 40
0.0
  9
$DIMDLE
 40
0.0
  9
$DIMEXE
 40
1.5
  9
$DIMTP
 40
0.0
  9
$DIMTM
 40
0.0
  9
$DIMTXT
 40
3.0
  9
$DIMCEN
 40
0.09
  9
$DIMTSZ
 40
0.0
  9
$DIMTOL
 70
     0
  9
$DIMLIM
 70
     0
  9
$DIMTIH
 70
     1
  9
$DIMTOH
 70
     1
  9
$DIMSE1
 70
     0
  9
$DIMSE2
 70
     0
  9
$DIMTAD
 70
     1
  9
$DIMZIN
 70
     0
  9
$DIMBLK
  1

  9
$DIMASO
 70
     1
  9
$DIMSHO
 70
     1
  9
$DIMPOST
  1

  9
$DIMAPOST
  1

  9
$DIMALT
 70
     0
  9
$DIMALTD
 70
     2
  9
$DIMALTF
 40
25.4
  9
$DIMLFAC
 40
1.0
  9
$DIMTOFL
 70
     0
  9
$DIMTVP
 40
0.0
  9
$DIMTIX
 70
     0
  9
$DIMSOXD
 70
     0
  9
$DIMSAH
 70
     0
  9
$DIMBLK1
  1

  9
$DIMBLK2
  1

  9
$DIMSTYLE
  2
STANDARD
  9
$DIMCLRD
 70
     0
  9
$DIMCLRE
 70
     0
  9
$DIMCLRT
 70
     0
  9
$DIMTFAC
 40
1.0
  9
$DIMGAP
 40
1.5
  9
$DIMJUST
 70
     0
  9
$DIMSD1
 70
     0
  9
$DIMSD2
 70
     0
  9
$DIMTOLJ
 70
     1
  9
$DIMTZIN
 70
     0
  9
$DIMALTZ
 70
     0
  9
$DIMALTTZ
 70
     0
  9
$DIMFIT
 70
     3
  9
$DIMUPT
 70
     0
  9
$DIMUNIT
 70
     2
  9
$DIMDEC
 70
     2
  9
$DIMTDEC
 70
     4
  9
$DIMALTU
 70
     2
  9
$DIMALTTD
 70
     2
  9
$DIMTXSTY
  7
ＭＳ_ゴシック
  9
$DIMAUNIT
 70
     0
  9
$LUNITS
 70
     2
  9
$LUPREC
 70
     4
  9
$SKETCHINC
 40
0.1
  9
$FILLETRAD
 40
0.5
  9
$AUNITS
 70
     0
  9
$AUPREC
 70
     0
  9
$MENU
  1
.
  9
$ELEVATION
 40
0.0
  9
$PELEVATION
 40
0.0
  9
$THICKNESS
 40
0.0
  9
$LIMCHECK
 70
     0
  9
$CHAMFERA
 40
0.0
  9
$CHAMFERB
 40
0.0
  9
$CHAMFERC
 40
0.0
  9
$CHAMFERD
 40
0.0
  9
$SKPOLY
 70
     0
  9
$TDCREATE
 40
2459410.485104688
  9
$TDUPDATE
 40
2459410.485105231
  9
$TDINDWG
 40
0.0000000116
  9
$TDUSRTIMER
 40
0.0000000116
  9
$USRTIMER
 70
     1
  9
$ANGBASE
 50
0.0
  9
$ANGDIR
 70
     0
  9
$PDMODE
 70
     0
  9
$PDSIZE
 40
0.0
  9
$PLINEWID
 40
0.0
  9
$COORDS
 70
     1
  9
$SPLFRAME
 70
     0
  9
$SPLINETYPE
 70
     6
  9
$SPLINESEGS
 70
     8
  9
$ATTDIA
 70
     0
  9
$ATTREQ
 70
     1
  9
$HANDLING
 70
     1
  9
$HANDSEED
  5
594
  9
$SURFTAB1
 70
     6
  9
$SURFTAB2
 70
     6
  9
$SURFTYPE
 70
     6
  9
$SURFU
 70
     6
  9
$SURFV
 70
     6
  9
$UCSNAME
  2

  9
$UCSORG
 10
0.0
 20
0.0
 30
0.0
  9
$UCSXDIR
 10
1.0
 20
0.0
 30
0.0
  9
$UCSYDIR
 10
0.0
 20
1.0
 30
0.0
  9
$PUCSNAME
  2

  9
$PUCSORG
 10
0.0
 20
0.0
 30
0.0
  9
$PUCSXDIR
 10
1.0
 20
0.0
 30
0.0
  9
$PUCSYDIR
 10
0.0
 20
1.0
 30
0.0
  9
$USERI1
 70
     0
  9
$USERI2
 70
     0
  9
$USERI3
 70
     0
  9
$USERI4
 70
     0
  9
$USERI5
 70
     0
  9
$USERR1
 40
0.0
  9
$USERR2
 40
0.0
  9
$USERR3
 40
0.0
  9
$USERR4
 40
0.0
  9
$USERR5
 40
0.0
  9
$WORLDVIEW
 70
     1
  9
$SHADEDGE
 70
     3
  9
$SHADEDIF
 70
    70
  9
$TILEMODE
 70
     1
  9
$MAXACTVP
 70
    64
  9
$PINSBASE
 10
0.0
 20
0.0
 30
0.0
  9
$PLIMCHECK
 70
     0
  9
$PEXTMIN
 10
1.000000000000000E+20
 20
1.000000000000000E+20
 30
1.000000000000000E+20
  9
$PEXTMAX
 10
-1.000000000000000E+20
 20
-1.000000000000000E+20
 30
-1.000000000000000E+20
  9
$PLIMMIN
 10
0.0
 20
0.0
  9
$PLIMMAX
 10
12.0
 20
9.0
  9
$UNITMODE
 70
     0
  9
$VISRETAIN
 70
     1
  9
$PLINEGEN
 70
     0
  9
$PSLTSCALE
 70
     1
  9
$TREEDEPTH
 70
  3020
  9
$PICKSTYLE
 70
     1
  9
$CMLSTYLE
  2
STANDARD
  9
$CMLJUST
 70
     0
  9
$CMLSCALE
 40
1.0
  9
$PROXYGRAPHICS
 70
     1
  9
$MEASUREMENT
 70
     1
  0
ENDSEC
  0
SECTION
  2
CLASSES
  0
CLASS
  1
ACDBDICTIONARYWDFLT
  2
AcDbDictionaryWithDefault
  3
ObjectDBX Classes
 90
        0
280
     0
281
     0
  0
CLASS
  1
VISUALSTYLE
  2
AcDbVisualStyle
  3
ObjectDBX Classes
 90
     4095
280
     0
281
     0
  0
CLASS
  1
MATERIAL
  2
AcDbMaterial
  3
ObjectDBX Classes
 90
     1153
280
     0
281
     0
  0
CLASS
  1
SCALE
  2
AcDbScale
  3
ObjectDBX Classes
 90
     1153
280
     0
281
     0
  0
CLASS
  1
TABLESTYLE
  2
AcDbTableStyle
  3
ObjectDBX Classes
 90
     4095
280
     0
281
     0
  0
CLASS
  1
MLEADERSTYLE
  2
AcDbMLeaderStyle
  3
ACDB_MLEADERSTYLE_CLASS
 90
     4095
280
     0
281
     0
  0
CLASS
  1
SUN
  2
AcDbSun
  3
SCENEOE
 90
     1153
280
     0
281
     0
  0
CLASS
  1
DICTIONARYVAR
  2
AcDbDictionaryVar
  3
ObjectDBX Classes
 90
        0
280
     0
281
     0
  0
CLASS
  1
XRECORD
  2
AcDbXrecord
  3
ObjectDBX Classes
 90
        0
280
     0
281
     0
  0
CLASS
  1
LWPOLYLINE
  2
AcDbPolyline
  3
ObjectDBX Classes
 90
        0
280
     0
281
     1
  0
CLASS
  1
HATCH
  2
AcDbHatch
  3
ObjectDBX Classes
 90
        0
280
     0
281
     1
  0
CLASS
  1
ACDBPLACEHOLDER
  2
AcDbPlaceHolder
  3
ObjectDBX Classes
 90
        0
280
     0
281
     0
  0
CLASS
  1
LAYOUT
  2
AcDbLayout
  3
ObjectDBX Classes
 90
        0
280
     0
281
     0
  0
ENDSEC
  0
SECTION
  2
TABLES
  0
TABLE
  2
VPORT
  5
8
102
{ACAD_XDICTIONARY
360
589
102
}
330
0
100
AcDbSymbolTable
 70
     1
  0
VPORT
  5
29
330
8
100
AcDbSymbolTableRecord
100
AcDbViewportTableRecord
  2
*ACTIVE
 70
     0
 10
0.0
 20
0.0
 11
1.0
 21
1.0
 12
-1221.967173030383
 22
-59.74379100505701
 13
0.0
 23
0.0
 14
0.5
 24
0.5
 15
0.5
 25
0.5
 16
0.0
 26
0.0
 36
1.0
 17
0.0
 27
0.0
 37
0.0
 40
2293.872944352068
 41
1.6
 42
50.0
 43
0.0
 44
0.0
 50
0.0
 51
0.0
 71
     0
 72
   100
 73
     1
 74
     3
 75
     0
 76
     0
 77
     0
 78
     0
  0
ENDTAB
  0
TABLE
  2
LTYPE
  5
5
330
0
100
AcDbSymbolTable
 70
     1
  0
LTYPE
  5
14
330
5
100
AcDbSymbolTableRecord
100
AcDbLinetypeTableRecord
  2
BYBLOCK
 70
     0
  3

 72
    65
 73
     0
 40
0.0
  0
LTYPE
  5
15
330
5
100
AcDbSymbolTableRecord
100
AcDbLinetypeTableRecord
  2
BYLAYER
 70
     0
  3

 72
    65
 73
     0
 40
0.0
  0
LTYPE
  5
16
330
5
100
AcDbSymbolTableRecord
100
AcDbLinetypeTableRecord
  2
CONTINUOUS
 70
     0
  3
Solid line
 72
    65
 73
     0
 40
0.0
  0
ENDTAB
  0
TABLE
  2
LAYER
  5
2
330
0
100
AcDbSymbolTable
 70
     1
  0
LAYER
  5
10
330
2
100
AcDbSymbolTableRecord
100
AcDbLayerTableRecord
  2
0
 70
     0
 62
     7
  6
CONTINUOUS
  0
ENDTAB
  0
TABLE
  2
STYLE
  5
3
330
0
100
AcDbSymbolTable
 70
     2
  0
STYLE
  5
11
330
3
100
AcDbSymbolTableRecord
100
AcDbTextStyleTableRecord
  2
STANDARD
 70
     0
 40
0.0
 41
1.0
 50
0.0
 71
     0
 42
0.2
  3
txt
  4

  0
STYLE
  5
6E
330
3
100
AcDbSymbolTableRecord
100
AcDbTextStyleTableRecord
  2
ＭＳ_ゴシック
 70
     0
 40
0.0
 41
1.0
 50
0.0
 71
     0
 42
0.2
  3
ＭＳ ゴシック.shx
  4

  0
ENDTAB
  0
TABLE
  2
VIEW
  5
6
330
0
100
AcDbSymbolTable
 70
     0
  0
ENDTAB
  0
TABLE
  2
UCS
  5
7
330
0
100
AcDbSymbolTable
 70
     0
  0
ENDTAB
  0
TABLE
  2
APPID
  5
9
330
0
100
AcDbSymbolTable
 70
     2
  0
APPID
  5
12
330
9
100
AcDbSymbolTableRecord
100
AcDbRegAppTableRecord
  2
ACAD
 70
     0
  0
APPID
  5
593
330
9
100
AcDbSymbolTableRecord
100
AcDbRegAppTableRecord
  2
ACAD_MLEADERVER
 70
     0
  0
ENDTAB
  0
TABLE
  2
DIMSTYLE
  5
A
330
0
100
AcDbSymbolTable
 70
     1
  0
DIMSTYLE
105
27
330
A
100
AcDbSymbolTableRecord
100
AcDbDimStyleTableRecord
  2
STANDARD
 70
     0
  3

  4

  5

  6

  7

 40
1.0
 41
0.18
 42
0.0625
 43
0.38
 44
0.18
 45
0.0
 46
0.0
 47
0.0
 48
0.0
140
0.18
141
0.09
142
0.0
143
25.4
144
1.0
145
0.0
146
1.0
147
0.09
 71
     0
 72
     0
 73
     1
 74
     1
 75
     0
 76
     0
 77
     0
 78
     0
170
     0
171
     2
172
     0
173
     0
174
     0
175
     0
176
     0
177
     0
178
     0
270
     2
271
     4
272
     4
273
     2
274
     2
340
11
275
     0
280
     0
281
     0
282
     0
283
     1
284
     0
285
     0
286
     0
287
     3
288
     0
  0
ENDTAB
  0
TABLE
  2
BLOCK_RECORD
  5
1
330
0
100
AcDbSymbolTable
 70
     0
  0
BLOCK_RECORD
  5
1F
330
1
100
AcDbSymbolTableRecord
100
AcDbBlockTableRecord
  2
*MODEL_SPACE
  0
BLOCK_RECORD
  5
1B
330
1
100
AcDbSymbolTableRecord
100
AcDbBlockTableRecord
  2
*PAPER_SPACE
  0
ENDTAB
  0
ENDSEC
  0
SECTION
  2
BLOCKS
  0
BLOCK
  5
20
330
1F
100
AcDbEntity
  8
0
100
AcDbBlockBegin
  2
*MODEL_SPACE
 70
     0
 10
0.0
 20
0.0
 30
0.0
  3
*MODEL_SPACE
  1

  0
ENDBLK
  5
21
330
1F
100
AcDbEntity
  8
0
100
AcDbBlockEnd
  0
BLOCK
  5
1C
330
1B
100
AcDbEntity
 67
     1
  8
0
100
AcDbBlockBegin
  2
*PAPER_SPACE
 70
     0
 10
0.0
 20
0.0
 30
0.0
  3
*PAPER_SPACE
  1

  0
ENDBLK
  5
1D
330
1B
100
AcDbEntity
 67
     1
  8
0
100
AcDbBlockEnd
  0
ENDSEC
  0
SECTION
  2
ENTITIES
  0
LINE
  5
6F
330
1F
100
AcDbEntity
  8
0
  6
CONTINUOUS
 62
     7
100
AcDbLine
 10
-1499.853250073757
 20
-651.8710915099763
 30
0.0
 11
-1499.853250073757
 21
-652.4927177392761
 31
0.0
  0
ARC
  5
70
330
1F
100
AcDbEntity
  8
0
  6
CONTINUOUS
 62
     7
100
AcDbCircle
 10
-1487.753250073757
 20
-518.390904624576
 30
0.0
 40
15.00000000000017
100
AcDbArc
 50
177.0151102022622
 51
182.9848654964161
  0
ARC
  5
71
330
1F
100
AcDbEntity
  8
0
  6
CONTINUOUS
 62
     7
100
AcDbCircle
 10
-1502.233577955858
 20
-503.6339572240762
 30
0.0
 40
0.5000000000001101
100
AcDbArc
 50
182.9841607580325
 51
268.0000000017159
  0
LINE
  5
72
330
1F
100
AcDbEntity
  8
0
  6
CONTINUOUS
 62
     7
100
AcDbLine
 10
-1499.853250073757
 20
-624.7250915099762
 30
0.0
 11
-1499.853250073757
 21
-625.3467177392762
 31
0.0
  0
LINE
  5
73
330
1F
100
AcDbEntity
  8
0
  6
CONTINUOUS
 62
     7
100
AcDbLine
 10
-1499.853250073757
 20
-640.2370915099762
 30
0.0
 11
-1499.853250073757
 21
-640.8587177392761
 31
0.0
  0
ARC
  5
74
330
1F
100
AcDbEntity
  8
0
  6
CONTINUOUS
 62
     7
100
AcDbCircle
 10
-1487.753250073757
 20
-526.1469046245759
 30
0.0
 40
14.99999999999994
100
AcDbArc
 50
177.0151102022622
 51
182.9848654964161
  0
ARC
  5
75
330
1F
100
AcDbEntity
  8
0
  6
CONTINUOUS
 62
     7
100
AcDbCircle
 10
-1487.753250073757
 20
-522.268904624576
 30
0.0
 40
14.99999999999994
100
AcDbArc
 50
177.0151102022622
 51
182.9848654964161
  0
ARC
  5
76
330
1F
100
AcDbEntity
  8
0
  6
CONTINUOUS
 62
     7
100
AcDbCircle
 10
-1487.753250073757
 20
-533.902904624576
 30
0.0
 40
15.00000000000017
100
AcDbArc
 50
177.0151102022622
 51
182.9848654964159
  0
LINE
  5
77
330
1F
100
AcDbEntity
  8
0
  6
CONTINUOUS
 62
     7
100
AcDbLine
 10
-1499.853250073757
 20
-647.9930915099762
 30
0.0
 11
-1499.853250073757
 21
-648.6147177392762
 31
0.0
  0
ARC
  5
78
330
1F
100
AcDbEntity
  8
0
  6
CONTINUOUS
 62
     7
100
AcDbCircle
 10
-1487.753250073757
 20
-502.878904624576
 30
0.0
 40
15.00000000000012
100
AcDbArc
 50
180.0000000000009
 51
182.9848654964162
  0
LINE
  5
79
330
1F
100
AcDbEntity
  8
0
  6
CONTINUOUS
 62
     7
100
AcDbLine
 10
-1499.853250073757
 20
-620.8470915099762
 30
0.0
 11
-1499.853250073757
 21
-621.4687177392763
 31
0.0
  0
ARC
  5
7A
330
1F
100
AcDbEntity
  8
0
  6
CONTINUOUS
 62
     7
100
AcDbCircle
 10
-1487.753250073757
 20
-514.512904624576
 30
0.0
 40
14.99999999999994
100
AcDbArc
 50
177.0151102022622
 51
182.9848654964161
  0
ARC
  5
7B
330
1F
100
AcDbEntity
  8
0
  6
CONTINUOUS
 62
     7
100
AcDbCircle
 10
-1487.753250073757
 20
-545.5369046245759
 30
0.0
 40
14.99999999999994
100
AcDbArc
 50
177.0151102022622
 51
182.9848654964161
  0
ARC
  5
7C
330
1F
100
AcDbEntity
  8
0
  6
CONTINUOUS
 62
     7
100
AcDbCircle
 10
-1487.753250073757
 20
-510.6349046245759
 30
0.0
 40
14.99999999999994
100
AcDbArc
 50
177.0151102022622
 51
182.9848654964161
  0
ARC
  5
7D
330
1F
100
AcDbEntity
  8
0
  6
CONTINUOUS
 62
     7
100
AcDbCircle
 10
-1487.753250073757
 20
-564.926904624576
 30
0.0
 40
15.00000000000016
100
AcDbArc
 50
177.0151102022622
 51
182.9848654964159
  0
ARC
  5
7E
330
1F
100
AcDbEntity
  8
0
  6
CONTINUOUS
 62
     7
100
AcDbCircle
 10
-1502.233577955857
 20
-526.9019572240761
 30
0.0
 40
0.4999999999998884
100
AcDbArc
 50
182.9841607580325
 51
268.0000000017159
  0
LINE
  5
7F
330
1F
100
AcDbEntity
  8
0
  6
CONTINUOUS
 62
     7
100
AcDbLine
 10
-1499.853250073757
 20
-655.7490915099762
 30
0.0
 11
-1499.853250073757
 21
-656.3707177392762
 31
0.0
  0
ARC
  5
80
330
1F
100
AcDbEntity
  8
0
  6
CONTINUOUS
 62
     7
100
AcDbCircle
 10
-1502.233577955857
 20
-538.5359572240762
 30
0.0
 40
0.5000000000001101
100
AcDbArc
 50
182.9841607580292
 51
268.0000000017158
  0
ARC
  5
81
330
1F
100
AcDbEntity
  8
0
  6
CONTINUOUS
 62
     7
100
AcDbCircle
 10
-1502.233577955857
 20
-542.4139572240762
 30
0.0
 40
0.5000000000001101
100
AcDbArc
 50
182.9841607580325
 51
268.0000000017159
  0
ARC
  5
82
330
1F
100
AcDbEntity
  8
0
  6
CONTINUOUS
 62
     7
100
AcDbCircle
 10
-1502.233577955857
 20
-550.1699572240761
 30
0.0
 40
0.4999999999998884
100
AcDbArc
 50
182.9841607580358
 51
268.000000001716
  0
ARC
  5
83
330
1F
100
AcDbEntity
  8
0
  6
CONTINUOUS
 62
     7
100
AcDbCircle
 10
-1502.233577955857
 20
-573.4379572240762
 30
0.0
 40
0.5000000000001101
100
AcDbArc
 50
182.9841607580325
 51
268.0000000017159
  0
ARC
  5
84
330
1F
100
AcDbEntity
  8
0
  6
CONTINUOUS
 62
     7
100
AcDbCircle
 10
-1502.233577955857
 20
-577.3159572240761
 30
0.0
 40
0.4999999999998942
100
AcDbArc
 50
182.9841607580358
 51
268.000000001716
  0
ARC
  5
85
330
1F
100
AcDbEntity
  8
0
  6
CONTINUOUS
 62
     7
100
AcDbCircle
 10
-1502.233577955858
 20
-506.0018520250762
 30
0.0
 40
0.5000000000000667
100
AcDbArc
 50
91.99999999828593
 51
177.0151102022641
  0
ARC
  5
86
330
1F
100
AcDbEntity
  8
0
  6
CONTINUOUS
 62
     7
100
AcDbCircle
 10
-1502.233577955858
 20
-511.3899572240762
 30
0.0
 40
0.4999999999998884
100
AcDbArc
 50
182.9841607580325
 51
268.0000000017159
  0
ARC
  5
87
330
1F
100
AcDbEntity
  8
0
  6
CONTINUOUS
 62
     7
100
AcDbCircle
 10
-1502.233577955858
 20
-513.7578520250762
 30
0.0
 40
0.4999999999999558
100
AcDbArc
 50
91.99999999828593
 51
177.0151102022641
  0
ARC
  5
88
330
1F
100
AcDbEntity
  8
0
  6
CONTINUOUS
 62
     7
100
AcDbCircle
 10
-1502.233577955858
 20
-517.6358520250762
 30
0.0
 40
0.5000000000000667
100
AcDbArc
 50
91.99999999828593
 51
177.0151102022641
  0
ARC
  5
89
330
1F
100
AcDbEntity
  8
0
  6
CONTINUOUS
 62
     7
100
AcDbCircle
 10
-1502.233577955857
 20
-521.5138520250762
 30
0.0
 40
0.4999999999999558
100
AcDbArc
 50
91.99999999828593
 51
177.0151102022641
  0
ARC
  5
8A
330
1F
100
AcDbEntity
  8
0
  6
CONTINUOUS
 62
     7
100
AcDbCircle
 10
-1502.233577955857
 20
-525.3918520250762
 30
0.0
 40
0.5000000000000667
100
AcDbArc
 50
91.99999999828593
 51
177.0151102022641
  0
ARC
  5
8B
330
1F
100
AcDbEntity
  8
0
  6
CONTINUOUS
 62
     7
100
AcDbCircle
 10
-1502.233577955857
 20
-529.2698520250763
 30
0.0
 40
0.5000000000000667
100
AcDbArc
 50
91.99999999828593
 51
177.0151102022641
  0
LINE
  5
8C
330
1F
100
AcDbEntity
  8
0
  6
CONTINUOUS
 62
     7
100
AcDbLine
 10
-1499.853250073757
 20
-644.1150915099762
 30
0.0
 11
-1499.853250073757
 21
-644.7367177392762
 31
0.0
  0
ARC
  5
8D
330
1F
100
AcDbEntity
  8
0
  6
CONTINUOUS
 62
     7
100
AcDbCircle
 10
-1502.233577955857
 20
-569.5599572240761
 30
0.0
 40
0.5000000000001101
100
AcDbArc
 50
182.9841607580325
 51
268.0000000017159
  0
LINE
  5
8E
330
1F
100
AcDbEntity
  8
0
  6
CONTINUOUS
 62
     7
100
AcDbLine
 10
-1499.853250073757
 20
-632.4810915099762
 30
0.0
 11
-1499.853250073757
 21
-633.1027177392763
 31
0.0
  0
ARC
  5
8F
330
1F
100
AcDbEntity
  8
0
  6
CONTINUOUS
 62
     7
100
AcDbCircle
 10
-1487.753250073757
 20
-557.170904624576
 30
0.0
 40
14.99999999999994
100
AcDbArc
 50
177.0151102022622
 51
182.9848654964161
  0
ARC
  5
90
330
1F
100
AcDbEntity
  8
0
  6
CONTINUOUS
 62
     7
100
AcDbCircle
 10
-1502.233577955857
 20
-537.0258520250761
 30
0.0
 40
0.4999999999999558
100
AcDbArc
 50
91.99999999828593
 51
177.0151102022641
  0
ARC
  5
91
330
1F
100
AcDbEntity
  8
0
  6
CONTINUOUS
 62
     7
100
AcDbCircle
 10
-1502.233577955858
 20
-515.2679572240761
 30
0.0
 40
0.4999999999998884
100
AcDbArc
 50
182.9841607580325
 51
268.0000000017159
  0
ARC
  5
92
330
1F
100
AcDbEntity
  8
0
  6
CONTINUOUS
 62
     7
100
AcDbCircle
 10
-1502.233577955857
 20
-540.9038520250762
 30
0.0
 40
0.4999999999999558
100
AcDbArc
 50
91.99999999828593
 51
177.015110202261
  0
ARC
  5
93
330
1F
100
AcDbEntity
  8
0
  6
CONTINUOUS
 62
     7
100
AcDbCircle
 10
-1502.233577955857
 20
-557.9259572240762
 30
0.0
 40
0.5000000000001101
100
AcDbArc
 50
182.9841607580325
 51
268.0000000017159
  0
ARC
  5
94
330
1F
100
AcDbEntity
  8
0
  6
CONTINUOUS
 62
     7
100
AcDbCircle
 10
-1502.233577955857
 20
-552.5378520250762
 30
0.0
 40
0.5000000000000667
100
AcDbArc
 50
91.99999999828593
 51
177.0151102022673
  0
ARC
  5
95
330
1F
100
AcDbEntity
  8
0
  6
CONTINUOUS
 62
     7
100
AcDbCircle
 10
-1502.233577955857
 20
-519.1459572240761
 30
0.0
 40
0.5000000000001101
100
AcDbArc
 50
182.9841607580325
 51
268.0000000017155
  0
ARC
  5
96
330
1F
100
AcDbEntity
  8
0
  6
CONTINUOUS
 62
     7
100
AcDbCircle
 10
-1502.233577955857
 20
-554.0479572240762
 30
0.0
 40
0.5000000000001101
100
AcDbArc
 50
182.9841607580325
 51
268.0000000017159
  0
ARC
  5
97
330
1F
100
AcDbEntity
  8
0
  6
CONTINUOUS
 62
     7
100
AcDbCircle
 10
-1487.753250073757
 20
-506.756904624576
 30
0.0
 40
14.99999999999994
100
AcDbArc
 50
177.0151102022622
 51
182.9848654964159
  0
ARC
  5
98
330
1F
100
AcDbEntity
  8
0
  6
CONTINUOUS
 62
     7
100
AcDbCircle
 10
-1487.753250073757
 20
-541.6589046245759
 30
0.0
 40
14.99999999999994
100
AcDbArc
 50
177.015110202262
 51
182.9848654964161
  0
ARC
  5
99
330
1F
100
AcDbEntity
  8
0
  6
CONTINUOUS
 62
     7
100
AcDbCircle
 10
-1487.753250073757
 20
-568.804904624576
 30
0.0
 40
14.99999999999994
100
AcDbArc
 50
177.015110202262
 51
182.9848654964161
  0
ARC
  5
9A
330
1F
100
AcDbEntity
  8
0
  6
CONTINUOUS
 62
     7
100
AcDbCircle
 10
-1487.753250073757
 20
-576.560904624576
 30
0.0
 40
14.99999999999994
100
AcDbArc
 50
177.0151102022622
 51
182.9848654964161
  0
ARC
  5
9B
330
1F
100
AcDbEntity
  8
0
  6
CONTINUOUS
 62
     7
100
AcDbCircle
 10
-1487.753250073757
 20
-561.048904624576
 30
0.0
 40
14.99999999999994
100
AcDbArc
 50
177.0151102022622
 51
182.9848654964159
  0
ARC
  5
9C
330
1F
100
AcDbEntity
  8
0
  6
CONTINUOUS
 62
     7
100
AcDbCircle
 10
-1487.753250073757
 20
-553.2929046245761
 30
0.0
 40
14.99999999999994
100
AcDbArc
 50
177.0151102022622
 51
182.9848654964161
  0
ARC
  5
9D
330
1F
100
AcDbEntity
  8
0
  6
CONTINUOUS
 62
     7
100
AcDbCircle
 10
-1487.753250073756
 20
-580.4389046245759
 30
0.0
 40
15.00000000000015
100
AcDbArc
 50
177.0151102022622
 51
180.0000000000009
  0
ARC
  5
9E
330
1F
100
AcDbEntity
  8
0
  6
CONTINUOUS
 62
     7
100
AcDbCircle
 10
-1502.233577955857
 20
-546.2919572240762
 30
0.0
 40
0.4999999999998884
100
AcDbArc
 50
182.9841607580325
 51
268.0000000017159
  0
LINE
  5
9F
330
1F
100
AcDbEntity
  8
0
  6
CONTINUOUS
 62
     7
100
AcDbLine
 10
-1499.853250073757
 20
-636.3590915099762
 30
0.0
 11
-1499.853250073757
 21
-636.9807177392762
 31
0.0
  0
ARC
  5
A0
330
1F
100
AcDbEntity
  8
0
  6
CONTINUOUS
 62
     7
100
AcDbCircle
 10
-1487.753250073757
 20
-572.682904624576
 30
0.0
 40
14.99999999999994
100
AcDbArc
 50
177.0151102022622
 51
182.9848654964161
  0
ARC
  5
A1
330
1F
100
AcDbEntity
  8
0
  6
CONTINUOUS
 62
     7
100
AcDbCircle
 10
-1502.233577955858
 20
-507.5119572240761
 30
0.0
 40
0.5000000000001101
100
AcDbArc
 50
182.9841607580325
 51
268.0000000017159
  0
ARC
  5
A2
330
1F
100
AcDbEntity
  8
0
  6
CONTINUOUS
 62
     7
100
AcDbCircle
 10
-1502.233577955858
 20
-509.8798520250762
 30
0.0
 40
0.5000000000000667
100
AcDbArc
 50
91.99999999828593
 51
177.0151102022641
  0
ARC
  5
A3
330
1F
100
AcDbEntity
  8
0
  6
CONTINUOUS
 62
     7
100
AcDbCircle
 10
-1487.753250073757
 20
-530.0249046245759
 30
0.0
 40
14.99999999999994
100
AcDbArc
 50
177.0151102022622
 51
182.9848654964159
  0
ARC
  5
A4
330
1F
100
AcDbEntity
  8
0
  6
CONTINUOUS
 62
     7
100
AcDbCircle
 10
-1502.233577955857
 20
-533.1478520250762
 30
0.0
 40
0.4999999999999558
100
AcDbArc
 50
91.99999999828593
 51
177.0151102022641
  0
ARC
  5
A5
330
1F
100
AcDbEntity
  8
0
  6
CONTINUOUS
 62
     7
100
AcDbCircle
 10
-1502.233577955857
 20
-544.7818520250762
 30
0.0
 40
0.5000000000000667
100
AcDbArc
 50
91.99999999828593
 51
177.0151102022641
  0
ARC
  5
A6
330
1F
100
AcDbEntity
  8
0
  6
CONTINUOUS
 62
     7
100
AcDbCircle
 10
-1502.233577955857
 20
-548.6598520250761
 30
0.0
 40
0.4999999999999558
100
AcDbArc
 50
91.99999999828593
 51
177.0151102022641
  0
ARC
  5
A7
330
1F
100
AcDbEntity
  8
0
  6
CONTINUOUS
 62
     7
100
AcDbCircle
 10
-1502.233577955857
 20
-523.0239572240761
 30
0.0
 40
0.5000000000001101
100
AcDbArc
 50
182.9841607580325
 51
268.0000000017159
  0
ARC
  5
A8
330
1F
100
AcDbEntity
  8
0
  6
CONTINUOUS
 62
     7
100
AcDbCircle
 10
-1502.233577955857
 20
-530.7799572240762
 30
0.0
 40
0.4999999999998884
100
AcDbArc
 50
182.9841607580325
 51
268.0000000017159
  0
LINE
  5
A9
330
1F
100
AcDbEntity
  8
0
  6
CONTINUOUS
 62
     7
100
AcDbLine
 10
-1499.853250073757
 20
-628.6030915099763
 30
0.0
 11
-1499.853250073757
 21
-629.2247177392762
 31
0.0
  0
ARC
  5
AA
330
1F
100
AcDbEntity
  8
0
  6
CONTINUOUS
 62
     7
100
AcDbCircle
 10
-1487.753250073757
 20
-549.414904624576
 30
0.0
 40
15.00000000000016
100
AcDbArc
 50
177.0151102022622
 51
182.9848654964161
  0
ARC
  5
AB
330
1F
100
AcDbEntity
  8
0
  6
CONTINUOUS
 62
     7
100
AcDbCircle
 10
-1502.233577955857
 20
-534.6579572240762
 30
0.0
 40
0.5000000000001101
100
AcDbArc
 50
182.9841607580325
 51
268.0000000017159
  0
ARC
  5
AC
330
1F
100
AcDbEntity
  8
0
  6
CONTINUOUS
 62
     7
100
AcDbCircle
 10
-1487.753250073757
 20
-537.7809046245759
 30
0.0
 40
14.99999999999994
100
AcDbArc
 50
177.0151102022622
 51
182.9848654964159
  0
ARC
  5
AD
330
1F
100
AcDbEntity
  8
0
  6
CONTINUOUS
 62
     7
100
AcDbCircle
 10
-1502.233577955857
 20
-561.8039572240762
 30
0.0
 40
0.4999999999998884
100
AcDbArc
 50
182.9841607580325
 51
268.0000000017159
  0
ARC
  5
AE
330
1F
100
AcDbEntity
  8
0
  6
CONTINUOUS
 62
     7
100
AcDbCircle
 10
-1502.233577955857
 20
-565.6819572240762
 30
0.0
 40
0.4999999999998826
100
AcDbArc
 50
182.9841607580292
 51
268.0000000017158
  0
ARC
  5
AF
330
1F
100
AcDbEntity
  8
0
  6
CONTINUOUS
 62
     7
100
AcDbCircle
 10
-1507.503250073838
 20
971.0110953753252
 30
0.0
 40
2.249999999999877
100
AcDbArc
 50
148.0714931488832
 51
173.7506699626921
  0
LINE
  5
B0
330
1F
100
AcDbEntity
  8
0
  6
CONTINUOUS
 62
     7
100
AcDbLine
 10
-1506.438251803105
 20
970.1134436147096
 30
0.0
 11
-1505.593655579407
 21
969.821158878347
 31
0.0
  0
LINE
  5
B1
330
1F
100
AcDbEntity
  8
0
  6
CONTINUOUS
 62
     7
100
AcDbLine
 10
-1509.739879698904
 20
971.256019690726
 30
0.0
 11
-1508.895283475206
 21
970.9637349543636
 31
0.0
  0
LINE
  5
B2
330
1F
100
AcDbEntity
  8
0
  6
CONTINUOUS
 62
     7
100
AcDbLine
 10
-1507.930090592298
 20
1051.748794310669
 30
0.0
 11
-1507.455889652876
 21
1053.119061973956
 31
0.0
  0
ARC
  5
B3
330
1F
100
AcDbEntity
  8
0
  6
CONTINUOUS
 62
     7
100
AcDbCircle
 10
1506.699879907614
 20
1052.857433869447
 30
0.0
 40
0.799999999999941
210
0.0
220
0.0
230
-1.0
100
AcDbArc
 50
19.0889184442131
 51
109.0889184442088
  0
LINE
  5
B4
330
1F
100
AcDbEntity
  8
0
  6
CONTINUOUS
 62
     7
100
AcDbLine
 10
-1506.438251803105
 20
1053.613443614709
 30
0.0
 11
-1505.593655579407
 21
1053.321158878347
 31
0.0
  0
ARC
  5
B5
330
1F
100
AcDbEntity
  8
0
  6
CONTINUOUS
 62
     7
100
AcDbCircle
 10
-1507.503250073838
 20
1054.511095375325
 30
0.0
 40
2.250000000000065
100
AcDbArc
 50
328.0714931488831
 51
353.7506699626921
  0
LINE
  5
B6
330
1F
100
AcDbEntity
  8
0
  6
CONTINUOUS
 62
     7
100
AcDbLine
 10
-1505.266620448771
 20
1054.266171059924
 30
0.0
 11
-1506.111216672469
 21
1054.558455796287
 31
0.0
  0
ARC
  5
B7
330
1F
100
AcDbEntity
  8
0
  6
CONTINUOUS
 62
     7
100
AcDbCircle
 10
1505.84958856796
 20
1055.314465541549
 30
0.0
 40
0.799999999999941
210
0.0
220
0.0
230
-1.0
100
AcDbArc
 50
289.0889184442093
 51
19.08891844421311
  0
LINE
  5
B8
330
1F
100
AcDbEntity
  8
0
  6
CONTINUOUS
 62
     7
100
AcDbLine
 10
-1506.605598313222
 20
1055.576093646058
 30
0.0
 11
-1506.131397373799
 21
1056.946361309345
 31
0.0
  0
LINE
  5
B9
330
1F
100
AcDbEntity
  8
0
  6
CONTINUOUS
 62
     7
100
AcDbLine
 10
-1506.131397373799
 20
1056.946361309345
 30
0.0
 11
-1507.076409555377
 21
1057.273396439981
 31
0.0
  0
ARC
  5
BA
330
1F
100
AcDbEntity
  8
0
  6
CONTINUOUS
 62
     7
100
AcDbCircle
 10
1508.306620240061
 20
1056.164756881203
 30
0.0
 40
0.799999999999941
210
0.0
220
0.0
230
-1.0
100
AcDbArc
 50
199.0889184442132
 51
289.0889184442089
  0
LINE
  5
BB
330
1F
100
AcDbEntity
  8
0
  6
CONTINUOUS
 62
     7
100
AcDbLine
 10
-1508.56824834457
 20
1055.408747135941
 30
0.0
 11
-1509.412844568268
 21
1055.701031872303
 31
0.0
  0
LINE
  5
BC
330
1F
100
AcDbEntity
  8
0
  6
CONTINUOUS
 62
     7
100
AcDbLine
 10
-1507.076409555377
 20
1057.273396439981
 30
0.0
 11
-1507.550610494799
 21
1055.903128776694
 31
0.0
  0
ARC
  5
BD
330
1F
100
AcDbEntity
  8
0
  6
CONTINUOUS
 62
     7
100
AcDbCircle
 10
1505.84958856796
 20
971.814465541549
 30
0.0
 40
0.799999999999941
210
0.0
220
0.0
230
-1.0
100
AcDbArc
 50
289.0889184442093
 51
19.08891844421311
  0
ARC
  5
BE
330
1F
100
AcDbEntity
  8
0
  6
CONTINUOUS
 62
     7
100
AcDbCircle
 10
-1507.503250073838
 20
1054.511095375325
 30
0.0
 40
2.249999999999877
100
AcDbArc
 50
148.0714931488832
 51
173.7506699626921
  0
LINE
  5
BF
330
1F
100
AcDbEntity
  8
0
  6
CONTINUOUS
 62
     7
100
AcDbLine
 10
-1509.739879698904
 20
1054.756019690726
 30
0.0
 11
-1508.895283475206
 21
1054.463734954363
 31
0.0
  0
ARC
  5
C0
330
1F
100
AcDbEntity
  8
0
  6
CONTINUOUS
 62
     7
100
AcDbCircle
 10
1509.156911579715
 20
1053.707725209101
 30
0.0
 40
0.7999999999998683
210
0.0
220
0.0
230
-1.0
100
AcDbArc
 50
109.0889184442089
 51
199.0889184442131
  0
ARC
  5
C1
330
1F
100
AcDbEntity
  8
0
  6
CONTINUOUS
 62
     7
100
AcDbCircle
 10
1506.699879907614
 20
969.3574338694475
 30
0.0
 40
0.799999999999941
210
0.0
220
0.0
230
-1.0
100
AcDbArc
 50
19.0889184442131
 51
109.0889184442088
  0
LINE
  5
C2
330
1F
100
AcDbEntity
  8
0
  6
CONTINUOUS
 62
     7
100
AcDbLine
 10
-1507.930090592298
 20
968.2487943106693
 30
0.0
 11
-1507.455889652876
 21
969.6190619739564
 31
0.0
  0
LINE
  5
C3
330
1F
100
AcDbEntity
  8
0
  6
CONTINUOUS
 62
     7
100
AcDbLine
 10
-1505.266620448771
 20
970.7661710599244
 30
0.0
 11
-1506.111216672469
 21
971.0584557962869
 31
0.0
  0
LINE
  5
C4
330
1F
100
AcDbEntity
  8
0
  6
CONTINUOUS
 62
     7
100
AcDbLine
 10
-1506.131397373799
 20
973.4463613093451
 30
0.0
 11
-1507.076409555377
 21
973.7733964399813
 31
0.0
  0
LINE
  5
C5
330
1F
100
AcDbEntity
  8
0
  6
CONTINUOUS
 62
     7
100
AcDbLine
 10
-1507.076409555377
 20
973.7733964399813
 30
0.0
 11
-1507.550610494799
 21
972.4031287766941
 31
0.0
  0
LINE
  5
C6
330
1F
100
AcDbEntity
  8
0
  6
CONTINUOUS
 62
     7
100
AcDbLine
 10
-1508.875102773875
 20
968.5758294413054
 30
0.0
 11
-1507.930090592298
 21
968.2487943106693
 31
0.0
  0
LINE
  5
C7
330
1F
100
AcDbEntity
  8
0
  6
CONTINUOUS
 62
     7
100
AcDbLine
 10
-1506.605598313222
 20
972.076093646058
 30
0.0
 11
-1506.131397373799
 21
973.4463613093451
 31
0.0
  0
LINE
  5
C8
330
1F
100
AcDbEntity
  8
0
  6
CONTINUOUS
 62
     7
100
AcDbLine
 10
-1508.56824834457
 20
971.9087471359409
 30
0.0
 11
-1509.412844568268
 21
972.2010318723036
 31
0.0
  0
ARC
  5
C9
330
1F
100
AcDbEntity
  8
0
  6
CONTINUOUS
 62
     7
100
AcDbCircle
 10
-1507.503250073838
 20
971.0110953753252
 30
0.0
 40
2.250000000000065
100
AcDbArc
 50
328.0714931488831
 51
353.7506699626921
  0
LINE
  5
CA
330
1F
100
AcDbEntity
  8
0
  6
CONTINUOUS
 62
     7
100
AcDbLine
 10
-1508.400901834453
 20
969.9460971045926
 30
0.0
 11
-1508.875102773875
 21
968.5758294413054
 31
0.0
  0
ARC
  5
CB
330
1F
100
AcDbEntity
  8
0
  6
CONTINUOUS
 62
     7
100
AcDbCircle
 10
1508.306620240061
 20
972.664756881203
 30
0.0
 40
0.799999999999941
210
0.0
220
0.0
230
-1.0
100
AcDbArc
 50
199.0889184442132
 51
289.088918444209
  0
ARC
  5
CC
330
1F
100
AcDbEntity
  8
0
  6
CONTINUOUS
 62
     7
100
AcDbCircle
 10
1509.156911579715
 20
970.2077252091015
 30
0.0
 40
0.7999999999998683
210
0.0
220
0.0
230
-1.0
100
AcDbArc
 50
109.0889184442089
 51
199.0889184442131
  0
CIRCLE
  5
CD
330
1F
100
AcDbEntity
  8
0
  6
CONTINUOUS
 62
     7
100
AcDbCircle
 10
1507.503250073838
 20
971.0110953753252
 30
0.0
 40
4.000000000000004
210
0.0
220
0.0
230
-1.0
  0
LINE
  5
CE
330
1F
100
AcDbEntity
  8
0
  6
CONTINUOUS
 62
     7
100
AcDbLine
 10
-1489.556889534966
 20
987.4276441182581
 30
0.0
 11
-1489.248893681979
 21
987.4276441182612
 31
0.0
  0
LWPOLYLINE
  5
CF
330
1F
100
AcDbEntity
  8
0
  6
CONTINUOUS
 62
     7
100
AcDbPolyline
 90
        3
 70
     0
 43
0.0
 10
-1520.503250073837
 20
978.2628902733923
 42
0.0004519270601815
 10
-1528.458279316033
 20
978.2557000859655
 42
0.0011486691706936
 10
-1532.503291446459
 20
978.2390950340567
  0
LINE
  5
D0
330
1F
100
AcDbEntity
  8
0
  6
CONTINUOUS
 62
     7
100
AcDbLine
 10
-1502.00325007384
 20
988.4276441183306
 30
0.0
 11
-1482.503250073837
 21
988.4276441184128
 31
0.0
  0
LINE
  5
D1
330
1F
100
AcDbEntity
  8
0
  6
CONTINUOUS
 62
     7
100
AcDbLine
 10
-1520.503250073837
 20
978.2628902733923
 30
0.0
 11
-1500.703250073797
 21
978.2628902733923
 31
0.0
  0
LINE
  5
D2
330
1F
100
AcDbEntity
  8
0
  6
CONTINUOUS
 62
     7
100
AcDbLine
 10
-1493.467200843238
 20
986.4276441182523
 30
0.0
 11
-1493.467200843214
 21
980.6779018570593
 31
0.0
  0
LINE
  5
D3
330
1F
100
AcDbEntity
  8
0
  6
CONTINUOUS
 62
     7
100
AcDbLine
 10
-1503.275137735468
 20
987.427644118346
 30
0.0
 11
-1503.108730483564
 21
987.4276441183467
 31
0.0
  0
LINE
  5
D4
330
1F
100
AcDbEntity
  8
0
  6
CONTINUOUS
 62
     7
100
AcDbLine
 10
-1491.308377928301
 20
980.2759780684036
 30
0.0
 11
-1492.527901323965
 21
980.4079483092249
 31
0.0
  0
LINE
  5
D5
330
1F
100
AcDbEntity
  8
0
  6
CONTINUOUS
 62
     7
100
AcDbLine
 10
-1492.131274938918
 20
980.0269435373887
 30
0.0
 11
-1492.115040204108
 21
979.5439806242412
 31
0.0
  0
LINE
  5
D6
330
1F
100
AcDbEntity
  8
0
  6
CONTINUOUS
 62
     7
100
AcDbLine
 10
-1500.18898126725
 20
980.407948309234
 30
0.0
 11
-1501.429690451634
 21
980.2759780684156
 31
0.0
  0
CIRCLE
  5
D7
330
1F
100
AcDbEntity
  8
0
  6
CONTINUOUS
 62
     7
100
AcDbCircle
 10
1507.503250073838
 20
1054.511095375325
 30
0.0
 40
4.000000000000004
210
0.0
220
0.0
230
-1.0
  0
ARC
  5
D8
330
1F
100
AcDbEntity
  8
0
  6
CONTINUOUS
 62
     7
100
AcDbCircle
 10
1507.503250073838
 20
1054.511095375325
 30
0.0
 40
1.801276552751906
210
0.0
220
0.0
230
-1.0
100
AcDbArc
 50
92.97303916242062
 51
125.2047977260048
  0
LINE
  5
D9
330
1F
100
AcDbEntity
  8
0
  6
CONTINUOUS
 62
     7
100
AcDbLine
 10
-1487.587018521964
 20
986.4276441182673
 30
0.0
 11
-1487.58701852194
 21
980.6779018570746
 31
0.0
  0
LINE
  5
DA
330
1F
100
AcDbEntity
  8
0
  6
CONTINUOUS
 62
     7
100
AcDbLine
 10
-1501.429690451634
 20
980.2759780684935
 30
0.0
 11
-1501.909704460281
 21
980.2759780684916
 31
0.0
  0
LINE
  5
DB
330
1F
100
AcDbEntity
  8
0
  6
CONTINUOUS
 62
     7
100
AcDbLine
 10
-1508.875102773875
 20
1052.075829441305
 30
0.0
 11
-1507.930090592298
 21
1051.748794310669
 31
0.0
  0
LINE
  5
DC
330
1F
100
AcDbEntity
  8
0
  6
CONTINUOUS
 62
     7
100
AcDbLine
 10
-1487.58701852194
 20
980.6779018570746
 30
0.0
 11
-1489.00451001837
 21
980.407948309234
 31
0.0
  0
LWPOLYLINE
  5
DD
330
1F
100
AcDbEntity
  8
0
  6
CONTINUOUS
 62
     7
100
AcDbPolyline
 90
        3
 70
     0
 43
0.0
 10
1489.248893681979
 20
987.4276441182612
 42
0.2041987488404324
 10
1487.741302626526
 20
986.834614422085
 42
0.1728556201865492
 10
1487.587018521964
 20
986.4276441182673
210
0.0
220
0.0
230
-1.0
  0
LINE
  5
DE
330
1F
100
AcDbEntity
  8
0
  6
CONTINUOUS
 62
     7
100
AcDbLine
 10
-1491.694308575898
 20
987.4276441182573
 30
0.0
 11
-1491.084546878067
 21
987.4276441182596
 31
0.0
  0
LINE
  5
DF
330
1F
100
AcDbEntity
  8
0
  6
CONTINUOUS
 62
     7
100
AcDbLine
 10
-1501.062265966989
 20
987.4276441183345
 30
0.0
 11
-1500.610488076498
 21
987.4276441183365
 31
0.0
  0
LINE
  5
E0
330
1F
100
AcDbEntity
  8
0
  6
CONTINUOUS
 62
     7
100
AcDbLine
 10
-1490.456738248528
 20
980.2759780685398
 30
0.0
 11
-1491.308377928301
 21
980.2759780685361
 31
0.0
  0
LINE
  5
E1
330
1F
100
AcDbEntity
  8
0
  6
CONTINUOUS
 62
     7
100
AcDbLine
 10
-1501.214827473667
 20
987.4276441182703
 30
0.0
 11
-1501.062265966989
 21
987.427644118271
 31
0.0
  0
LINE
  5
E2
330
1F
100
AcDbEntity
  8
0
  6
CONTINUOUS
 62
     7
100
AcDbLine
 10
-1507.503250073838
 20
978.2109441174349
 30
0.0
 11
-1504.55103503586
 21
978.2367096700198
 31
0.0
  0
LINE
  5
E3
330
1F
100
AcDbEntity
  8
0
  6
CONTINUOUS
 62
     7
100
AcDbLine
 10
-1492.114633607158
 20
979.5304518187797
 30
0.0
 11
-1492.114633607154
 21
978.4276441182307
 31
0.0
  0
LINE
  5
E4
330
1F
100
AcDbEntity
  8
0
  6
CONTINUOUS
 62
     7
100
AcDbLine
 10
-1489.00451001837
 20
980.407948309234
 30
0.0
 11
-1490.456738248528
 21
980.2759780684058
 31
0.0
  0
LINE
  5
E5
330
1F
100
AcDbEntity
  8
0
  6
CONTINUOUS
 62
     7
100
AcDbLine
 10
-1503.108730483564
 20
987.4276441183425
 30
0.0
 11
-1503.003250073836
 21
987.4276441183416
 31
0.0
  0
LINE
  5
E6
330
1F
100
AcDbEntity
  8
0
  6
CONTINUOUS
 62
     7
100
AcDbLine
 10
-1498.522478358225
 20
980.6779018570652
 30
0.0
 11
-1500.18898126725
 21
980.407948309234
 31
0.0
  0
LINE
  5
E7
330
1F
100
AcDbEntity
  8
0
  6
CONTINUOUS
 62
     7
100
AcDbLine
 10
-1508.400901834453
 20
1053.446097104592
 30
0.0
 11
-1508.875102773875
 21
1052.075829441305
 31
0.0
  0
LWPOLYLINE
  5
E8
330
1F
100
AcDbEntity
  8
0
  6
CONTINUOUS
 62
     7
100
AcDbPolyline
 90
        3
 70
     0
 43
0.0
 10
1493.467200843238
 20
986.4276441182523
 42
0.3052255695539667
 10
1492.656859634772
 20
987.2948330063672
 42
0.097146479072613
 10
1491.898401762608
 20
987.4276441182543
210
0.0
220
0.0
230
-1.0
  0
LINE
  5
E9
330
1F
100
AcDbEntity
  8
0
  6
CONTINUOUS
 62
     7
100
AcDbLine
 10
-1501.909704460281
 20
980.2759780684194
 30
0.0
 11
-1502.214827473595
 21
980.348699134294
 31
0.0
  0
LINE
  5
EA
330
1F
100
AcDbEntity
  8
0
  6
CONTINUOUS
 62
     7
100
AcDbLine
 10
-1492.527901323965
 20
980.4079483092249
 30
0.0
 11
-1493.467200843214
 21
980.6779018570593
 31
0.0
  0
LINE
  5
EB
330
1F
100
AcDbEntity
  8
0
  6
CONTINUOUS
 62
     7
100
AcDbLine
 10
-1505.803250073798
 20
978.4276441183146
 30
0.0
 11
-1492.114633607154
 21
978.4276441183723
 31
0.0
  0
LINE
  5
EC
330
1F
100
AcDbEntity
  8
0
  6
CONTINUOUS
 62
     7
100
AcDbLine
 10
-1493.467200843214
 20
980.6779018571737
 30
0.0
 11
-1498.522478358225
 21
980.6779018571523
 31
0.0
  0
LINE
  5
ED
330
1F
100
AcDbEntity
  8
0
  6
CONTINUOUS
 62
     7
100
AcDbLine
 10
-1482.503250073837
 20
980.6779018572198
 30
0.0
 11
-1487.58701852194
 21
980.6779018571982
 31
0.0
  0
LINE
  5
EE
330
1F
100
AcDbEntity
  8
0
  6
CONTINUOUS
 62
     7
100
AcDbLine
 10
-1492.114633607158
 20
979.5304518187797
 30
0.0
 11
-1492.115040204108
 21
979.5439806242412
 31
0.0
  0
LINE
  5
EF
330
1F
100
AcDbEntity
  8
0
  6
CONTINUOUS
 62
     7
100
AcDbLine
 10
-1502.214827473639
 20
980.6779018571367
 30
0.0
 11
-1503.003250073808
 21
980.6779018571334
 31
0.0
  0
LWPOLYLINE
  5
F0
330
1F
100
AcDbEntity
  8
0
  6
CONTINUOUS
 62
     7
100
AcDbPolyline
 90
        3
 70
     0
 43
0.0
 10
-1487.503250073837
 20
977.9687170095448
 42
0.0004519270614844
 10
-1482.83350249814
 20
977.9729377810064
 42
0.0001597636776659
 10
-1482.50324113083
 20
977.973640325763
  0
LINE
  5
F1
330
1F
100
AcDbEntity
  8
0
  6
CONTINUOUS
 62
     7
100
AcDbLine
 10
-1491.084546878067
 20
987.4276441183764
 30
0.0
 11
-1490.283003650045
 21
987.4276441183798
 31
0.0
  0
LINE
  5
F2
330
1F
100
AcDbEntity
  8
0
  6
CONTINUOUS
 62
     7
100
AcDbLine
 10
-1500.610488076498
 20
987.4276441182676
 30
0.0
 11
-1499.990133484306
 21
987.4276441182703
 31
0.0
  0
ARC
  5
F3
330
1F
100
AcDbEntity
  8
0
  6
CONTINUOUS
 62
     7
100
AcDbCircle
 10
1507.503250073838
 20
1054.511095375325
 30
0.0
 40
1.801276552751895
210
0.0
220
0.0
230
-1.0
100
AcDbArc
 50
272.9730391624206
 51
305.2047977260048
  0
LINE
  5
F4
330
1F
100
AcDbEntity
  8
0
  6
CONTINUOUS
 62
     7
100
AcDbLine
 10
-1498.522478358249
 20
986.427644118258
 30
0.0
 11
-1498.522478358225
 21
980.6779018570652
 31
0.0
  0
LINE
  5
F5
330
1F
100
AcDbEntity
  8
0
  6
CONTINUOUS
 62
     7
100
AcDbLine
 10
-1492.114633607154
 20
978.4276441182307
 30
0.0
 11
-1482.503250073837
 21
978.4276441182859
 31
0.0
  0
LINE
  5
F6
330
1F
100
AcDbEntity
  8
0
  6
CONTINUOUS
 62
     7
100
AcDbLine
 10
-1490.283003650045
 20
987.4276441182619
 30
0.0
 11
-1489.556889534966
 21
987.4276441182648
 31
0.0
  0
LINE
  5
F7
330
1F
100
AcDbEntity
  8
0
  6
CONTINUOUS
 62
     7
100
AcDbLine
 10
-1491.898401762608
 20
987.4276441182543
 30
0.0
 11
-1491.694308575898
 21
987.4276441182527
 31
0.0
  0
LINE
  5
F8
330
1F
100
AcDbEntity
  8
0
  6
CONTINUOUS
 62
     7
100
AcDbLine
 10
-1499.990133484306
 20
987.4276441182625
 30
0.0
 11
-1499.628031851765
 21
987.4276441182634
 31
0.0
  0
LINE
  5
F9
330
1F
100
AcDbEntity
  8
0
  6
CONTINUOUS
 62
     7
100
AcDbLine
 10
-1532.503250073837
 20
977.7872759787957
 30
0.0
 11
-1523.503250073838
 21
977.7872759787957
 31
0.0
  0
LINE
  5
FA
330
1F
100
AcDbEntity
  8
0
  6
CONTINUOUS
 62
     7
100
AcDbLine
 10
-1454.409979747962
 20
1086.006508387484
 30
0.0
 11
-1454.409576851605
 21
1086.046088556406
 31
0.0
  0
LINE
  5
FB
330
1F
100
AcDbEntity
  8
0
  6
CONTINUOUS
 62
     7
100
AcDbLine
 10
-1454.409979747962
 20
1086.006508387484
 30
0.0
 11
-1454.446378277049
 21
1083.900837407245
 31
0.0
  0
LINE
  5
FC
330
1F
100
AcDbEntity
  8
0
  6
CONTINUOUS
 62
     7
100
AcDbLine
 10
-1523.503250073838
 20
1047.761095375424
 30
0.0
 11
-1491.503250073837
 21
1047.761095375424
 31
0.0
  0
LINE
  5
FD
330
1F
100
AcDbEntity
  8
0
  6
CONTINUOUS
 62
     7
100
AcDbLine
 10
-1491.503250073837
 20
975.2610953754235
 30
0.0
 11
-1491.503250073837
 21
977.7610953754237
 31
0.0
  0
LINE
  5
FE
330
1F
100
AcDbEntity
  8
0
  6
CONTINUOUS
 62
     7
100
AcDbLine
 10
-1558.776861645182
 20
1087.185450456923
 30
0.0
 11
-1558.776861645182
 21
1087.192681170977
 31
0.0
  0
LINE
  5
FF
330
1F
100
AcDbEntity
  8
0
  6
CONTINUOUS
 62
     7
100
AcDbLine
 10
-1454.735484107679
 20
-717.2389046245764
 30
0.0
 11
-1456.235484107679
 21
-717.2389046245764
 31
0.0
  0
LINE
  5
100
330
1F
100
AcDbEntity
  8
0
  6
CONTINUOUS
 62
     7
100
AcDbLine
 10
-1456.159115298523
 20
1082.760752361887
 30
0.0
 11
-1456.030234429363
 21
1082.758607608056
 31
0.0
  0
LINE
  5
101
330
1F
100
AcDbEntity
  8
0
  6
CONTINUOUS
 62
     7
100
AcDbLine
 10
-1491.503250073837
 20
977.7872759787957
 30
0.0
 11
-1491.503250073837
 21
977.7610953754237
 31
0.0
  0
LINE
  5
102
330
1F
100
AcDbEntity
  8
0
  6
CONTINUOUS
 62
     7
100
AcDbLine
 10
-1485.003250073837
 20
1047.761095375424
 30
0.0
 11
-1485.503250073837
 21
1047.761095375424
 31
0.0
  0
LINE
  5
103
330
1F
100
AcDbEntity
  8
0
  6
CONTINUOUS
 62
     7
100
AcDbLine
 10
-1523.503250073838
 20
975.2610953754235
 30
0.0
 11
-1523.503250073838
 21
977.7610953754237
 31
0.0
  0
LINE
  5
104
330
1F
100
AcDbEntity
  8
0
  6
CONTINUOUS
 62
     7
100
AcDbLine
 10
-1499.437740349734
 20
974.0110953754235
 30
0.0
 11
-1499.503250073837
 21
975.2610953754235
 31
0.0
  0
LINE
  5
105
330
1F
100
AcDbEntity
  8
0
  6
CONTINUOUS
 62
     7
100
AcDbLine
 10
-1560.560119624987
 20
1083.900705872905
 30
0.0
 11
-1560.596520427771
 21
1086.006508387493
 31
0.0
  0
LINE
  5
106
330
1F
100
AcDbEntity
  8
0
  6
CONTINUOUS
 62
     7
100
AcDbLine
 10
-1529.503250073837
 20
1047.761095375424
 30
0.0
 11
-1530.003250073837
 21
1047.761095375424
 31
0.0
  0
LINE
  5
107
330
1F
100
AcDbEntity
  8
0
  6
CONTINUOUS
 62
     7
100
AcDbLine
 10
-1560.559494352707
 20
1083.901714901544
 30
0.0
 11
-1560.558652673443
 21
1083.815842078328
 31
0.0
  0
LINE
  5
108
330
1F
100
AcDbEntity
  8
0
  6
CONTINUOUS
 62
     7
100
AcDbLine
 10
-1499.437740349734
 20
974.0110953754235
 30
0.0
 11
-1499.395814126307
 21
973.2110953754236
 31
0.0
  0
LINE
  5
109
330
1F
100
AcDbEntity
  8
0
  6
CONTINUOUS
 62
     7
100
AcDbLine
 10
-1558.96629926284
 20
1082.758844355081
 30
0.0
 11
-1558.771016039996
 21
1082.761095375424
 31
0.0
  0
LINE
  5
10A
330
1F
100
AcDbEntity
  8
0
  6
CONTINUOUS
 62
     7
100
AcDbLine
 10
-1558.771016039996
 20
-717.2389046245764
 30
0.0
 11
-1560.271016039996
 21
-717.2389046245764
 31
0.0
  0
LINE
  5
10B
330
1F
100
AcDbEntity
  8
0
  6
CONTINUOUS
 62
     7
100
AcDbLine
 10
-1560.596924160831
 20
1086.046088056211
 30
0.0
 11
-1560.60521741464
 21
1086.040332889665
 31
0.0
  0
ARC
  5
10C
330
1F
100
AcDbEntity
  8
0
  6
CONTINUOUS
 62
     7
100
AcDbCircle
 10
1507.503250073838
 20
-652.2389046245764
 30
0.0
 40
20.99999999999991
210
0.0
220
0.0
230
-1.0
100
AcDbArc
 50
180.0
 51
0.0
  0
LINE
  5
10D
330
1F
100
AcDbEntity
  8
0
  6
CONTINUOUS
 62
     7
100
AcDbLine
 10
-1486.503250073838
 20
-512.2389046245763
 30
0.0
 11
-1486.503250073838
 21
-652.2389046245764
 31
0.0
  0
LINE
  5
10E
330
1F
100
AcDbEntity
  8
0
  6
CONTINUOUS
 62
     7
100
AcDbLine
 10
-1558.771016039996
 20
-717.2389046245764
 30
0.0
 11
-1456.235484107679
 21
-717.2389046245764
 31
0.0
  0
CIRCLE
  5
10F
330
1F
100
AcDbEntity
  8
0
  6
CONTINUOUS
 62
     7
100
AcDbCircle
 10
-1492.503250073838
 20
-697.2389046245763
 30
0.0
 40
4.250000000000087
  0
CIRCLE
  5
110
330
1F
100
AcDbEntity
  8
0
  6
CONTINUOUS
 62
     7
100
AcDbCircle
 10
1522.503250073837
 20
-697.2389046245763
 30
0.0
 40
4.249999999999865
210
0.0
220
0.0
230
-1.0
  0
LWPOLYLINE
  5
111
330
1F
100
AcDbEntity
  8
0
  6
CONTINUOUS
 62
     7
100
AcDbPolyline
 90
        3
 70
     0
 43
0.0
 10
1560.271016039996
 20
1082.496604904361
 10
1560.197186522176
 20
1082.578561441399
 42
0.0826827347555207
 10
1558.96629926284
 20
1082.758844355081
210
0.0
220
0.0
230
-1.0
  0
LINE
  5
112
330
1F
100
AcDbEntity
  8
0
  6
CONTINUOUS
 62
     7
100
AcDbLine
 10
-1528.503250073837
 20
-652.2389046245764
 30
0.0
 11
-1528.503250073837
 21
-512.2389046245763
 31
0.0
  0
ARC
  5
113
330
1F
100
AcDbEntity
  8
0
  6
CONTINUOUS
 62
     7
100
AcDbCircle
 10
1531.503250073837
 20
974.1610953754235
 30
0.0
 40
0.9999999999998899
210
0.0
220
0.0
230
-1.0
100
AcDbArc
 50
270.0
 51
0.0
  0
LINE
  5
114
330
1F
100
AcDbEntity
  8
0
  6
CONTINUOUS
 62
     7
100
AcDbLine
 10
-1531.503250073837
 20
973.1610953754237
 30
0.0
 11
-1515.753250073837
 21
973.1610953754237
 31
0.0
  0
LINE
  5
115
330
1F
100
AcDbEntity
  8
0
  6
CONTINUOUS
 62
     7
100
AcDbLine
 10
-1515.568759797941
 20
974.0110953754235
 30
0.0
 11
-1515.610686021368
 21
973.2110953754236
 31
0.0
  0
ARC
  5
116
330
1F
100
AcDbEntity
  8
0
  6
CONTINUOUS
 62
     7
100
AcDbCircle
 10
1507.503250073838
 20
-512.2389046245763
 30
0.0
 40
20.99999999999991
210
0.0
220
0.0
230
-1.0
100
AcDbArc
 50
0.0000000000001515
 51
180.0
  0
ARC
  5
117
330
1F
100
AcDbEntity
  8
0
  6
CONTINUOUS
 62
     7
100
AcDbCircle
 10
1515.753250073837
 20
974.1610953754235
 30
0.0
 40
0.9999999999998899
210
0.0
220
0.0
230
-1.0
100
AcDbArc
 50
180.0
 51
270.0000000000001
  0
LINE
  5
118
330
1F
100
AcDbEntity
  8
0
  6
CONTINUOUS
 62
     7
100
AcDbLine
 10
-1523.503250073838
 20
1049.511095375424
 30
0.0
 11
-1491.503250073837
 21
1049.511095375424
 31
0.0
  0
LINE
  5
119
330
1F
100
AcDbEntity
  8
0
  6
CONTINUOUS
 62
     7
100
AcDbLine
 10
-1514.753250073837
 20
974.1610953754235
 30
0.0
 11
-1514.753250073837
 21
975.7610953754256
 31
0.0
  0
LINE
  5
11A
330
1F
100
AcDbEntity
  8
0
  6
CONTINUOUS
 62
     7
100
AcDbLine
 10
-1514.753250073837
 20
975.7610953754256
 30
0.0
 11
-1500.253250073837
 21
975.7610953754254
 31
0.0
  0
LINE
  5
11B
330
1F
100
AcDbEntity
  8
0
  6
CONTINUOUS
 62
     7
100
AcDbLine
 10
-1500.253250073837
 20
975.7610953754254
 30
0.0
 11
-1500.253250073838
 21
974.1610953754235
 31
0.0
  0
LINE
  5
11C
330
1F
100
AcDbEntity
  8
0
  6
CONTINUOUS
 62
     7
100
AcDbLine
 10
-1499.503250073837
 20
976.0110953754235
 30
0.0
 11
-1499.503250073837
 21
975.2610953754235
 31
0.0
  0
LINE
  5
11D
330
1F
100
AcDbEntity
  8
0
  6
CONTINUOUS
 62
     7
100
AcDbLine
 10
-1515.503250073837
 20
976.0110953754235
 30
0.0
 11
-1515.503250073837
 21
975.2610953754235
 31
0.0
  0
LINE
  5
11E
330
1F
100
AcDbEntity
  8
0
  6
CONTINUOUS
 62
     7
100
AcDbLine
 10
-1515.568759797941
 20
974.0110953754235
 30
0.0
 11
-1515.503250073837
 21
975.2610953754235
 31
0.0
  0
LINE
  5
11F
330
1F
100
AcDbEntity
  8
0
  6
CONTINUOUS
 62
     7
100
AcDbLine
 10
-1491.503250073837
 20
975.2610953754235
 30
0.0
 11
-1499.503250073837
 21
975.2610953754235
 31
0.0
  0
LINE
  5
120
330
1F
100
AcDbEntity
  8
0
  6
CONTINUOUS
 62
     7
100
AcDbLine
 10
-1515.610686021368
 20
973.2110953754236
 30
0.0
 11
-1523.503250073838
 21
973.2110953754236
 31
0.0
  0
LINE
  5
121
330
1F
100
AcDbEntity
  8
0
  6
CONTINUOUS
 62
     7
100
AcDbLine
 10
-1485.503250073837
 20
1047.761095375424
 30
0.0
 11
-1491.503250073837
 21
1047.761095375424
 31
0.0
  0
LINE
  5
122
330
1F
100
AcDbEntity
  8
0
  6
CONTINUOUS
 62
     7
100
AcDbLine
 10
-1510.455465111815
 20
978.2367096700198
 30
0.0
 11
-1507.503250073838
 21
978.2109441174349
 31
0.0
  0
LWPOLYLINE
  5
123
330
1F
100
AcDbEntity
  8
0
  6
CONTINUOUS
 62
     7
100
AcDbPolyline
 90
       11
 70
     0
 43
0.0
 10
-1500.711161352889
 20
978.0839807054035
 42
0.5717922371153601
 10
-1500.681462975228
 20
978.0665018032624
 42
-0.1647362907893709
 10
-1500.647561649991
 20
978.0726828875517
 42
0.0320394675338493
 10
-1500.552599135141
 20
978.0648652696691
 42
-0.0086547770095279
 10
-1500.457375041203
 20
978.0614938738618
 42
0.0085689701973601
 10
-1500.081645535365
 20
978.0481266662099
 42
-0.001767777753024
 10
-1499.705768971778
 20
978.0398711986453
 42
0.0043862410422116
 10
-1498.274279824118
 20
978.0159304079592
 42
-0.0007233146637955
 10
-1496.842653704565
 20
978.0024769644373
 42
0.0022589940125352
 10
-1492.172997649535
 20
977.9729377810064
 42
0.0004519270614844
 10
-1487.503250073837
 20
977.9687170095452
  0
ARC
  5
124
330
1F
100
AcDbEntity
  8
0
  6
CONTINUOUS
 62
     7
100
AcDbCircle
 10
-1500.691168583093
 20
978.0839807054035
 30
0.0
 40
0.0199927697956959
100
AcDbArc
 50
161.7286942782069
 51
179.9748429445648
  0
LINE
  5
125
330
1F
100
AcDbEntity
  8
0
  6
CONTINUOUS
 62
     7
100
AcDbLine
 10
-1456.22963853059
 20
1087.192681170977
 30
0.0
 11
-1456.22963853059
 21
1087.185450408217
 31
0.0
  0
LINE
  5
126
330
1F
100
AcDbEntity
  8
0
  6
CONTINUOUS
 62
     7
100
AcDbLine
 10
-1454.438725880476
 20
1083.829205745508
 30
0.0
 11
-1454.446969257963
 21
1083.901795772175
 31
0.0
  0
LINE
  5
127
330
1F
100
AcDbEntity
  8
0
  6
CONTINUOUS
 62
     7
100
AcDbLine
 10
-1456.235484107679
 20
1082.761095375424
 30
0.0
 11
-1456.159115298523
 21
1082.760752361887
 31
0.0
  0
LINE
  5
128
330
1F
100
AcDbEntity
  8
0
  6
CONTINUOUS
 62
     7
100
AcDbLine
 10
-1560.558652673443
 20
1083.815842078328
 30
0.0
 11
-1560.560119624987
 21
1083.900705872905
 31
0.0
  0
LINE
  5
129
330
1F
100
AcDbEntity
  8
0
  6
CONTINUOUS
 62
     7
100
AcDbLine
 10
-1491.503250073837
 20
977.7610953754237
 30
0.0
 11
-1523.503250073838
 21
977.7610953754237
 31
0.0
  0
LINE
  5
12A
330
1F
100
AcDbEntity
  8
0
  6
CONTINUOUS
 62
     7
100
AcDbLine
 10
-1499.395814126307
 20
973.2110953754236
 30
0.0
 11
-1491.503250073837
 21
973.2110953754236
 31
0.0
  0
LINE
  5
12B
330
1F
100
AcDbEntity
  8
0
  6
CONTINUOUS
 62
     7
100
AcDbLine
 10
-1491.503250073837
 20
975.2610953754235
 30
0.0
 11
-1491.503250073837
 21
973.2110953754236
 31
0.0
  0
LINE
  5
12C
330
1F
100
AcDbEntity
  8
0
  6
CONTINUOUS
 62
     7
100
AcDbLine
 10
-1523.503250073838
 20
973.2110953754236
 30
0.0
 11
-1523.503250073838
 21
975.2610953754235
 31
0.0
  0
LINE
  5
12D
330
1F
100
AcDbEntity
  8
0
  6
CONTINUOUS
 62
     7
100
AcDbLine
 10
-1523.503250073837
 20
1047.761095375424
 30
0.0
 11
-1523.503250073837
 21
1049.511095375424
 31
0.0
  0
LINE
  5
12E
330
1F
100
AcDbEntity
  8
0
  6
CONTINUOUS
 62
     7
100
AcDbLine
 10
-1504.55103503586
 20
978.2367096700198
 30
0.0
 11
-1510.455465111815
 21
978.2367096700198
 31
0.0
  0
LINE
  5
12F
330
1F
100
AcDbEntity
  8
0
  6
CONTINUOUS
 62
     7
100
AcDbLine
 10
-1491.503250073837
 20
977.7872759787957
 30
0.0
 11
-1482.503250073837
 21
977.7872759787957
 31
0.0
  0
LINE
  5
130
330
1F
100
AcDbEntity
  8
0
  6
CONTINUOUS
 62
     7
100
AcDbLine
 10
-1491.503250073837
 20
1047.761095375424
 30
0.0
 11
-1491.503250073837
 21
1049.511095375424
 31
0.0
  0
LINE
  5
131
330
1F
100
AcDbEntity
  8
0
  6
CONTINUOUS
 62
     7
100
AcDbLine
 10
-1523.503250073838
 20
975.2610953754235
 30
0.0
 11
-1515.503250073837
 21
975.2610953754235
 31
0.0
  0
LINE
  5
132
330
1F
100
AcDbEntity
  8
0
  6
CONTINUOUS
 62
     7
100
AcDbLine
 10
-1529.503250073837
 20
1047.761095375424
 30
0.0
 11
-1523.503250073837
 21
1047.761095375424
 31
0.0
  0
LINE
  5
133
330
1F
100
AcDbEntity
  8
0
  6
CONTINUOUS
 62
     7
100
AcDbLine
 10
-1454.44784750229
 20
1083.815842078328
 30
0.0
 11
-1454.438725880476
 21
1083.829205745508
 31
0.0
  0
LINE
  5
134
330
1F
100
AcDbEntity
  8
0
  6
CONTINUOUS
 62
     7
100
AcDbLine
 10
-1515.503250073837
 20
976.0110953754235
 30
0.0
 11
-1499.503250073837
 21
976.0110953754235
 31
0.0
  0
ARC
  5
135
330
1F
100
AcDbEntity
  8
0
  6
CONTINUOUS
 62
     7
100
AcDbCircle
 10
1483.503250073837
 20
974.1610953754235
 30
0.0
 40
1.000000000000112
210
0.0
220
0.0
230
-1.0
100
AcDbArc
 50
180.0
 51
270.0
  0
ARC
  5
136
330
1F
100
AcDbEntity
  8
0
  6
CONTINUOUS
 62
     7
100
AcDbCircle
 10
-1507.503250073838
 20
-542.2389046245763
 30
0.0
 40
20.99999999999994
100
AcDbArc
 50
115.439536981113
 51
180.0
  0
ARC
  5
137
330
1F
100
AcDbEntity
  8
0
  6
CONTINUOUS
 62
     7
100
AcDbCircle
 10
-1502.233577955858
 20
-661.1218520250761
 30
0.0
 40
0.4999999999999558
100
AcDbArc
 50
91.99999999828594
 51
177.0151102022601
  0
ARC
  5
138
330
1F
100
AcDbEntity
  8
0
  6
CONTINUOUS
 62
     7
100
AcDbCircle
 10
-1507.503250073838
 20
-542.2389046245763
 30
0.0
 40
20.99999999999999
100
AcDbArc
 50
76.9052359198965
 51
106.9833641149669
  0
LINE
  5
139
330
1F
100
AcDbEntity
  8
0
  6
CONTINUOUS
 62
     7
100
AcDbLine
 10
-1502.251027704197
 20
-667.0096526376782
 30
0.0
 11
-1500.142780224756
 21
-667.0832742618701
 31
0.0
  0
LINE
  5
13A
330
1F
100
AcDbEntity
  8
0
  6
CONTINUOUS
 62
     7
100
AcDbLine
 10
-1501.020322870253
 20
-672.2131794517891
 30
0.0
 11
-1502.251027704194
 21
-672.256156611566
 31
0.0
  0
ARC
  5
13B
330
1F
100
AcDbEntity
  8
0
  6
CONTINUOUS
 62
     7
100
AcDbCircle
 10
1500.153250073758
 20
-660.248717739276
 30
0.0
 40
0.299999999999967
210
0.0
220
0.0
230
-1.0
100
AcDbArc
 50
179.9999999999987
 51
268.0000000017143
  0
ARC
  5
13C
330
1F
100
AcDbEntity
  8
0
  6
CONTINUOUS
 62
     7
100
AcDbCircle
 10
-1502.233577955858
 20
-662.631957224076
 30
0.0
 40
0.5000000000001101
100
AcDbArc
 50
182.9841607580301
 51
268.0000000017158
  0
LINE
  5
13D
330
1F
100
AcDbEntity
  8
0
  6
CONTINUOUS
 62
     7
100
AcDbLine
 10
-1499.853250073758
 20
-659.6270915099761
 30
0.0
 11
-1499.853250073758
 21
-660.248717739276
 31
0.0
  0
LINE
  5
13E
330
1F
100
AcDbEntity
  8
0
  6
CONTINUOUS
 62
     7
100
AcDbLine
 10
-1499.853250073758
 20
-663.5050915099761
 30
0.0
 11
-1499.853250073758
 21
-664.126717739276
 31
0.0
  0
LINE
  5
13F
330
1F
100
AcDbEntity
  8
0
  6
CONTINUOUS
 62
     7
100
AcDbLine
 10
-1530.003250073837
 20
1047.761095375424
 30
0.0
 11
-1531.503250073837
 21
1047.761095375424
 31
0.0
  0
LINE
  5
140
330
1F
100
AcDbEntity
  8
0
  6
CONTINUOUS
 62
     7
100
AcDbLine
 10
-1514.753250073837
 20
975.7610953754237
 30
0.0
 11
-1515.503250073837
 21
975.7610953754237
 31
0.0
  0
ARC
  5
141
330
1F
100
AcDbEntity
  8
0
  6
CONTINUOUS
 62
     7
100
AcDbCircle
 10
1499.253250073837
 20
974.1610953754235
 30
0.0
 40
0.9999999999998899
210
0.0
220
0.0
230
-1.0
100
AcDbArc
 50
270.0
 51
0.0
  0
LINE
  5
142
330
1F
100
AcDbEntity
  8
0
  6
CONTINUOUS
 62
     7
100
AcDbLine
 10
-1530.003250073837
 20
1048.761095375424
 30
0.0
 11
-1530.003250073837
 21
1047.761095375424
 31
0.0
  0
LINE
  5
143
330
1F
100
AcDbEntity
  8
0
  6
CONTINUOUS
 62
     7
100
AcDbLine
 10
-1485.003250073838
 20
1048.761095375424
 30
0.0
 11
-1485.003250073838
 21
1047.761095375424
 31
0.0
  0
ARC
  5
144
330
1F
100
AcDbEntity
  8
0
  6
CONTINUOUS
 62
     7
100
AcDbCircle
 10
1531.503250073837
 20
1046.761095375424
 30
0.0
 40
1.000000000000112
210
0.0
220
0.0
230
-1.0
100
AcDbArc
 50
0.0
 51
90.0
  0
ARC
  5
145
330
1F
100
AcDbEntity
  8
0
  6
CONTINUOUS
 62
     7
100
AcDbCircle
 10
-1487.753250073757
 20
-657.9989046245759
 30
0.0
 40
15.00000000000012
100
AcDbArc
 50
180.0000000000008
 51
182.9848654964161
  0
ARC
  5
146
330
1F
100
AcDbEntity
  8
0
  6
CONTINUOUS
 62
     7
100
AcDbCircle
 10
1500.153250073758
 20
-664.1267177392762
 30
0.0
 40
0.299999999999967
210
0.0
220
0.0
230
-1.0
100
AcDbArc
 50
179.9999999999987
 51
268.0000000017143
  0
LINE
  5
147
330
1F
100
AcDbEntity
  8
0
  6
CONTINUOUS
 62
     7
100
AcDbLine
 10
-1485.003250073838
 20
1047.761095375424
 30
0.0
 11
-1483.503250073837
 21
1047.761095375424
 31
0.0
  0
ARC
  5
148
330
1F
100
AcDbEntity
  8
0
  6
CONTINUOUS
 62
     7
100
AcDbCircle
 10
1500.153250073758
 20
-671.2610915099762
 30
0.0
 40
0.3000000000000844
210
0.0
220
0.0
230
-1.0
100
AcDbArc
 50
91.99999999828398
 51
179.9999999999987
  0
ARC
  5
149
330
1F
100
AcDbEntity
  8
0
  6
CONTINUOUS
 62
     7
100
AcDbCircle
 10
-1487.753250073757
 20
-580.438904624576
 30
0.0
 40
15.00000000000012
100
AcDbArc
 50
180.0000000000009
 51
182.9848654964162
  0
ARC
  5
14A
330
1F
100
AcDbEntity
  8
0
  6
CONTINUOUS
 62
     7
100
AcDbCircle
 10
-1487.753250073757
 20
-584.3169046245761
 30
0.0
 40
14.99999999999994
100
AcDbArc
 50
177.0151102022622
 51
182.9848654964159
  0
LINE
  5
14B
330
1F
100
AcDbEntity
  8
0
  6
CONTINUOUS
 62
     7
100
AcDbLine
 10
-1502.251027704197
 20
-670.8876526376782
 30
0.0
 11
-1500.142780224756
 21
-670.96127426187
 31
0.0
  0
ARC
  5
14C
330
1F
100
AcDbEntity
  8
0
  6
CONTINUOUS
 62
     7
100
AcDbCircle
 10
1500.153250073758
 20
-659.6270915099761
 30
0.0
 40
0.2999999999999735
210
0.0
220
0.0
230
-1.0
100
AcDbArc
 50
91.99999999828462
 51
179.9999999999987
  0
ARC
  5
14D
330
1F
100
AcDbEntity
  8
0
  6
CONTINUOUS
 62
     7
100
AcDbCircle
 10
-1487.753250073757
 20
-595.9509046245761
 30
0.0
 40
15.00000000000017
100
AcDbArc
 50
177.0151102022622
 51
182.9848654964159
  0
LINE
  5
14E
330
1F
100
AcDbEntity
  8
0
  6
CONTINUOUS
 62
     7
100
AcDbLine
 10
-1486.003250073838
 20
1049.761095375424
 30
0.0
 11
-1529.003250073837
 21
1049.761095375424
 31
0.0
  0
ARC
  5
14F
330
1F
100
AcDbEntity
  8
0
  6
CONTINUOUS
 62
     7
100
AcDbCircle
 10
-1502.233577955858
 20
-664.9998520250762
 30
0.0
 40
0.5000000000000667
100
AcDbArc
 50
91.99999999828594
 51
177.0151102022601
  0
LINE
  5
150
330
1F
100
AcDbEntity
  8
0
  6
CONTINUOUS
 62
     7
100
AcDbLine
 10
-1502.251027704197
 20
-663.1316526376783
 30
0.0
 11
-1500.142780224756
 21
-663.20527426187
 31
0.0
  0
ARC
  5
151
330
1F
100
AcDbEntity
  8
0
  6
CONTINUOUS
 62
     7
100
AcDbCircle
 10
1500.153250073758
 20
-663.5050915099761
 30
0.0
 40
0.2999999999999735
210
0.0
220
0.0
230
-1.0
100
AcDbArc
 50
91.99999999828462
 51
179.9999999999987
  0
ARC
  5
152
330
1F
100
AcDbEntity
  8
0
  6
CONTINUOUS
 62
     7
100
AcDbCircle
 10
-1487.753250073757
 20
-592.072904624576
 30
0.0
 40
14.99999999999994
100
AcDbArc
 50
177.0151102022622
 51
182.9848654964158
  0
ARC
  5
153
330
1F
100
AcDbEntity
  8
0
  6
CONTINUOUS
 62
     7
100
AcDbCircle
 10
1531.503250073837
 20
976.7610953754236
 30
0.0
 40
0.9999999999998899
210
0.0
220
0.0
230
-1.0
100
AcDbArc
 50
270.0
 51
0.0
  0
LINE
  5
154
330
1F
100
AcDbEntity
  8
0
  6
CONTINUOUS
 62
     7
100
AcDbLine
 10
-1482.503250073837
 20
974.1610953754235
 30
0.0
 11
-1482.503250073837
 21
1046.761095375424
 31
0.0
  0
ARC
  5
155
330
1F
100
AcDbEntity
  8
0
  6
CONTINUOUS
 62
     7
100
AcDbCircle
 10
-1502.233577955858
 20
-672.7558520250761
 30
0.0
 40
0.5000000000000667
100
AcDbArc
 50
91.99999999828594
 51
172.3191767775717
  0
LINE
  5
156
330
1F
100
AcDbEntity
  8
0
  6
CONTINUOUS
 62
     7
100
AcDbLine
 10
-1502.251027704197
 20
-659.2536526376782
 30
0.0
 11
-1500.142780224756
 21
-659.3272742618701
 31
0.0
  0
LINE
  5
157
330
1F
100
AcDbEntity
  8
0
  6
CONTINUOUS
 62
     7
100
AcDbLine
 10
-1500.142780224756
 20
-664.426534987376
 30
0.0
 11
-1502.251027704194
 21
-664.500156611566
 31
0.0
  0
ARC
  5
158
330
1F
100
AcDbEntity
  8
0
  6
CONTINUOUS
 62
     7
100
AcDbCircle
 10
-1487.753250073757
 20
-665.7549046245758
 30
0.0
 40
14.99999999999994
100
AcDbArc
 50
177.0151102022622
 51
182.9848654964159
  0
LINE
  5
159
330
1F
100
AcDbEntity
  8
0
  6
CONTINUOUS
 62
     7
100
AcDbLine
 10
-1499.853250073757
 20
-671.2610915099762
 30
0.0
 11
-1499.853250073757
 21
-671.795936607952
 31
0.0
  0
ARC
  5
15A
330
1F
100
AcDbEntity
  8
0
  6
CONTINUOUS
 62
     7
100
AcDbCircle
 10
-1487.753250073757
 20
-599.828904624576
 30
0.0
 40
14.99999999999994
100
AcDbArc
 50
177.0151102022622
 51
182.9848654964159
  0
LINE
  5
15B
330
1F
100
AcDbEntity
  8
0
  6
CONTINUOUS
 62
     7
100
AcDbLine
 10
-1513.637224670053
 20
-522.1547228973319
 30
0.0
 11
-1514.93626277573
 21
-522.5983770814194
 31
0.0
  0
ARC
  5
15C
330
1F
100
AcDbEntity
  8
0
  6
CONTINUOUS
 62
     7
100
AcDbCircle
 10
1486.003250073838
 20
1048.761095375424
 30
0.0
 40
0.9999999999998899
210
0.0
220
0.0
230
-1.0
100
AcDbArc
 50
90.0
 51
180.0
  0
CIRCLE
  5
15D
330
1F
100
AcDbEntity
  8
0
  6
CONTINUOUS
 62
     7
100
AcDbCircle
 10
-1507.503250073838
 20
-502.2389046245763
 30
0.0
 40
2.000000000000002
  0
ARC
  5
15E
330
1F
100
AcDbEntity
  8
0
  6
CONTINUOUS
 62
     7
100
AcDbCircle
 10
1483.503250073837
 20
976.7610953754236
 30
0.0
 40
1.000000000000112
210
0.0
220
0.0
230
-1.0
100
AcDbArc
 50
180.0
 51
270.0
  0
LINE
  5
15F
330
1F
100
AcDbEntity
  8
0
  6
CONTINUOUS
 62
     7
100
AcDbLine
 10
-1515.224937910324
 20
-522.7100660273671
 30
0.0
 11
-1516.523976016001
 21
-523.2750837153721
 31
0.0
  0
ARC
  5
160
330
1F
100
AcDbEntity
  8
0
  6
CONTINUOUS
 62
     7
100
AcDbCircle
 10
-1487.753250073757
 20
-661.8769046245759
 30
0.0
 40
14.99999999999994
100
AcDbArc
 50
177.0151102022622
 51
182.9848654964159
  0
ARC
  5
161
330
1F
100
AcDbEntity
  8
0
  6
CONTINUOUS
 62
     7
100
AcDbCircle
 10
-1502.233577955858
 20
-658.7539572240761
 30
0.0
 40
0.5000000000001042
100
AcDbArc
 50
182.9841607580301
 51
268.0000000017158
  0
LINE
  5
162
330
1F
100
AcDbEntity
  8
0
  6
CONTINUOUS
 62
     7
100
AcDbLine
 10
-1483.503250073837
 20
975.7610953754237
 30
0.0
 11
-1491.503250073837
 21
975.7610953754237
 31
0.0
  0
ARC
  5
163
330
1F
100
AcDbEntity
  8
0
  6
CONTINUOUS
 62
     7
100
AcDbCircle
 10
-1502.233577955858
 20
-666.5099572240762
 30
0.0
 40
0.4999999999998826
100
AcDbArc
 50
182.9841607580301
 51
268.0000000017158
  0
LINE
  5
164
330
1F
100
AcDbEntity
  8
0
  6
CONTINUOUS
 62
     7
100
AcDbLine
 10
-1499.253250073837
 20
973.1610953754237
 30
0.0
 11
-1483.503250073837
 21
973.1610953754237
 31
0.0
  0
ARC
  5
165
330
1F
100
AcDbEntity
  8
0
  6
CONTINUOUS
 62
     7
100
AcDbCircle
 10
1529.003250073837
 20
1048.761095375424
 30
0.0
 40
1.000000000000112
210
0.0
220
0.0
230
-1.0
100
AcDbArc
 50
0.0
 51
90.0
  0
LINE
  5
166
330
1F
100
AcDbEntity
  8
0
  6
CONTINUOUS
 62
     7
100
AcDbLine
 10
-1523.503250073838
 20
975.7610953754237
 30
0.0
 11
-1531.503250073837
 21
975.7610953754237
 31
0.0
  0
ARC
  5
167
330
1F
100
AcDbEntity
  8
0
  6
CONTINUOUS
 62
     7
100
AcDbCircle
 10
1483.503250073837
 20
1046.761095375424
 30
0.0
 40
0.9999999999998899
210
0.0
220
0.0
230
-1.0
100
AcDbArc
 50
90.0
 51
180.0
  0
ARC
  5
168
330
1F
100
AcDbEntity
  8
0
  6
CONTINUOUS
 62
     7
100
AcDbCircle
 10
-1507.503250073838
 20
-542.2389046245763
 30
0.0
 40
21.0
100
AcDbArc
 50
110.729288943519
 51
111.5738043923926
  0
ARC
  5
169
330
1F
100
AcDbEntity
  8
0
  6
CONTINUOUS
 62
     7
100
AcDbCircle
 10
-1487.753250073757
 20
-669.6329046245759
 30
0.0
 40
14.99999999999994
100
AcDbArc
 50
177.0151102022622
 51
182.9848654964159
  0
ARC
  5
16A
330
1F
100
AcDbEntity
  8
0
  6
CONTINUOUS
 62
     7
100
AcDbCircle
 10
-1502.233577955858
 20
-668.8778520250761
 30
0.0
 40
0.4999999999999558
100
AcDbArc
 50
91.99999999828594
 51
177.0151102022601
  0
LINE
  5
16B
330
1F
100
AcDbEntity
  8
0
  6
CONTINUOUS
 62
     7
100
AcDbLine
 10
-1500.142780224756
 20
-660.5485349873761
 30
0.0
 11
-1502.251027704194
 21
-660.6221566115661
 31
0.0
  0
LINE
  5
16C
330
1F
100
AcDbEntity
  8
0
  6
CONTINUOUS
 62
     7
100
AcDbLine
 10
-1500.142780224756
 20
-668.3045349873761
 30
0.0
 11
-1502.251027704194
 21
-668.378156611566
 31
0.0
  0
ARC
  5
16D
330
1F
100
AcDbEntity
  8
0
  6
CONTINUOUS
 62
     7
100
AcDbCircle
 10
1500.153250073758
 20
-667.3830915099761
 30
0.0
 40
0.2999999999999735
210
0.0
220
0.0
230
-1.0
100
AcDbArc
 50
91.99999999828462
 51
179.9999999999987
  0
ARC
  5
16E
330
1F
100
AcDbEntity
  8
0
  6
CONTINUOUS
 62
     7
100
AcDbCircle
 10
1500.153250073758
 20
-668.0047177392761
 30
0.0
 40
0.299999999999967
210
0.0
220
0.0
230
-1.0
100
AcDbArc
 50
179.9999999999987
 51
268.0000000017143
  0
LINE
  5
16F
330
1F
100
AcDbEntity
  8
0
  6
CONTINUOUS
 62
     7
100
AcDbLine
 10
-1499.853250073758
 20
-667.3830915099761
 30
0.0
 11
-1499.853250073758
 21
-668.0047177392761
 31
0.0
  0
ARC
  5
170
330
1F
100
AcDbEntity
  8
0
  6
CONTINUOUS
 62
     7
100
AcDbCircle
 10
-1487.753250073757
 20
-588.194904624576
 30
0.0
 40
14.99999999999994
100
AcDbArc
 50
177.0151102022622
 51
182.9848654964161
  0
LINE
  5
171
330
1F
100
AcDbEntity
  8
0
  6
CONTINUOUS
 62
     7
100
AcDbLine
 10
-1499.503250073837
 20
975.7610953754237
 30
0.0
 11
-1500.253250073838
 21
975.7610953754237
 31
0.0
  0
LINE
  5
172
330
1F
100
AcDbEntity
  8
0
  6
CONTINUOUS
 62
     7
100
AcDbLine
 10
-1532.503250073837
 20
1046.761095375424
 30
0.0
 11
-1532.503250073837
 21
974.1610953754235
 31
0.0
  0
ARC
  5
173
330
1F
100
AcDbEntity
  8
0
  6
CONTINUOUS
 62
     7
100
AcDbCircle
 10
-1502.233577955858
 20
-670.3879572240761
 30
0.0
 40
0.4999999999998884
100
AcDbArc
 50
182.9841607580301
 51
268.0000000017158
  0
ARC
  5
174
330
1F
100
AcDbEntity
  8
0
  6
CONTINUOUS
 62
     7
100
AcDbCircle
 10
-1487.753250073757
 20
-603.706904624576
 30
0.0
 40
14.99999999999994
100
AcDbArc
 50
177.0151102022622
 51
182.9848654964159
  0
ARC
  5
175
330
1F
100
AcDbEntity
  8
0
  6
CONTINUOUS
 62
     7
100
AcDbCircle
 10
-1487.753250073756
 20
-657.9989046245761
 30
0.0
 40
15.00000000000017
100
AcDbArc
 50
177.0151102022622
 51
180.0000000000009
  0
ARC
  5
176
330
1F
100
AcDbEntity
  8
0
  6
CONTINUOUS
 62
     7
100
AcDbCircle
 10
-1502.233577955857
 20
-602.9518520250763
 30
0.0
 40
0.4999999999999558
100
AcDbArc
 50
91.99999999828599
 51
177.0151102022594
  0
ARC
  5
177
330
1F
100
AcDbEntity
  8
0
  6
CONTINUOUS
 62
     7
100
AcDbCircle
 10
-1502.233577955857
 20
-619.9739572240762
 30
0.0
 40
0.5000000000001101
100
AcDbArc
 50
182.9841607580292
 51
268.0000000017158
  0
ARC
  5
178
330
1F
100
AcDbEntity
  8
0
  6
CONTINUOUS
 62
     7
100
AcDbCircle
 10
-1502.233577955857
 20
-612.2179572240763
 30
0.0
 40
0.5000000000001101
100
AcDbArc
 50
182.9841607580292
 51
268.0000000017158
  0
ARC
  5
179
330
1F
100
AcDbEntity
  8
0
  6
CONTINUOUS
 62
     7
100
AcDbCircle
 10
-1502.233577955857
 20
-639.3639572240762
 30
0.0
 40
0.4999999999998884
100
AcDbArc
 50
182.9841607580292
 51
268.0000000017158
  0
ARC
  5
17A
330
1F
100
AcDbEntity
  8
0
  6
CONTINUOUS
 62
     7
100
AcDbCircle
 10
-1502.233577955857
 20
-599.0738520250762
 30
0.0
 40
0.4999999999999558
100
AcDbArc
 50
91.99999999828599
 51
177.0151102022594
  0
ARC
  5
17B
330
1F
100
AcDbEntity
  8
0
  6
CONTINUOUS
 62
     7
100
AcDbCircle
 10
-1487.753250073757
 20
-619.2189046245761
 30
0.0
 40
14.99999999999994
100
AcDbArc
 50
177.0151102022622
 51
182.9848654964159
  0
ARC
  5
17C
330
1F
100
AcDbEntity
  8
0
  6
CONTINUOUS
 62
     7
100
AcDbCircle
 10
-1487.753250073757
 20
-638.6089046245761
 30
0.0
 40
14.99999999999994
100
AcDbArc
 50
177.0151102022622
 51
182.9848654964159
  0
ARC
  5
17D
330
1F
100
AcDbEntity
  8
0
  6
CONTINUOUS
 62
     7
100
AcDbCircle
 10
-1487.753250073757
 20
-646.3649046245761
 30
0.0
 40
14.99999999999994
100
AcDbArc
 50
177.0151102022622
 51
182.9848654964159
  0
ARC
  5
17E
330
1F
100
AcDbEntity
  8
0
  6
CONTINUOUS
 62
     7
100
AcDbCircle
 10
-1502.233577955857
 20
-643.2419572240763
 30
0.0
 40
0.4999999999998826
100
AcDbArc
 50
182.9841607580292
 51
268.0000000017158
  0
ARC
  5
17F
330
1F
100
AcDbEntity
  8
0
  6
CONTINUOUS
 62
     7
100
AcDbCircle
 10
-1502.233577955858
 20
-583.5618520250763
 30
0.0
 40
0.5000000000000667
100
AcDbArc
 50
91.99999999828593
 51
177.0151102022641
  0
ARC
  5
180
330
1F
100
AcDbEntity
  8
0
  6
CONTINUOUS
 62
     7
100
AcDbCircle
 10
-1502.233577955857
 20
-618.4638520250762
 30
0.0
 40
0.4999999999999558
100
AcDbArc
 50
91.99999999828599
 51
177.0151102022594
  0
ARC
  5
181
330
1F
100
AcDbEntity
  8
0
  6
CONTINUOUS
 62
     7
100
AcDbCircle
 10
-1502.233577955857
 20
-596.7059572240762
 30
0.0
 40
0.5000000000001101
100
AcDbArc
 50
182.9841607580292
 51
268.0000000017154
  0
ARC
  5
182
330
1F
100
AcDbEntity
  8
0
  6
CONTINUOUS
 62
     7
100
AcDbCircle
 10
-1502.233577955857
 20
-604.4619572240763
 30
0.0
 40
0.4999999999998884
100
AcDbArc
 50
182.9841607580292
 51
268.0000000017158
  0
ARC
  5
183
330
1F
100
AcDbEntity
  8
0
  6
CONTINUOUS
 62
     7
100
AcDbCircle
 10
-1502.233577955857
 20
-600.5839572240764
 30
0.0
 40
0.5000000000001042
100
AcDbArc
 50
182.9841607580292
 51
268.0000000017158
  0
ARC
  5
184
330
1F
100
AcDbEntity
  8
0
  6
CONTINUOUS
 62
     7
100
AcDbCircle
 10
-1502.233577955857
 20
-627.7299572240762
 30
0.0
 40
0.4999999999998884
100
AcDbArc
 50
182.9841607580292
 51
268.0000000017158
  0
ARC
  5
185
330
1F
100
AcDbEntity
  8
0
  6
CONTINUOUS
 62
     7
100
AcDbCircle
 10
-1502.233577955857
 20
-616.0959572240763
 30
0.0
 40
0.5000000000001101
100
AcDbArc
 50
182.9841607580292
 51
268.0000000017158
  0
ARC
  5
186
330
1F
100
AcDbEntity
  8
0
  6
CONTINUOUS
 62
     7
100
AcDbCircle
 10
-1502.233577955858
 20
-588.9499572240762
 30
0.0
 40
0.4999999999998884
100
AcDbArc
 50
182.9841607580325
 51
268.0000000017159
  0
ARC
  5
187
330
1F
100
AcDbEntity
  8
0
  6
CONTINUOUS
 62
     7
100
AcDbCircle
 10
-1487.753250073757
 20
-654.120904624576
 30
0.0
 40
14.99999999999994
100
AcDbArc
 50
177.0151102022622
 51
182.9848654964159
  0
ARC
  5
188
330
1F
100
AcDbEntity
  8
0
  6
CONTINUOUS
 62
     7
100
AcDbCircle
 10
-1487.753250073757
 20
-642.486904624576
 30
0.0
 40
15.00000000000016
100
AcDbArc
 50
177.0151102022622
 51
182.9848654964159
  0
ARC
  5
189
330
1F
100
AcDbEntity
  8
0
  6
CONTINUOUS
 62
     7
100
AcDbCircle
 10
-1502.233577955857
 20
-608.3399572240763
 30
0.0
 40
0.4999999999998826
100
AcDbArc
 50
182.9841607580292
 51
268.0000000017158
  0
ARC
  5
18A
330
1F
100
AcDbEntity
  8
0
  6
CONTINUOUS
 62
     7
100
AcDbCircle
 10
-1502.233577955857
 20
-635.4859572240763
 30
0.0
 40
0.5000000000001042
100
AcDbArc
 50
182.9841607580292
 51
268.0000000017158
  0
ARC
  5
18B
330
1F
100
AcDbEntity
  8
0
  6
CONTINUOUS
 62
     7
100
AcDbCircle
 10
-1502.233577955857
 20
-647.1199572240762
 30
0.0
 40
0.5000000000001101
100
AcDbArc
 50
182.9841607580292
 51
268.0000000017158
  0
ARC
  5
18C
330
1F
100
AcDbEntity
  8
0
  6
CONTINUOUS
 62
     7
100
AcDbCircle
 10
-1487.753250073757
 20
-611.462904624576
 30
0.0
 40
15.00000000000017
100
AcDbArc
 50
177.0151102022622
 51
182.9848654964159
  0
ARC
  5
18D
330
1F
100
AcDbEntity
  8
0
  6
CONTINUOUS
 62
     7
100
AcDbCircle
 10
-1502.233577955858
 20
-585.0719572240762
 30
0.0
 40
0.5000000000001101
100
AcDbArc
 50
182.9841607580325
 51
268.0000000017159
  0
ARC
  5
18E
330
1F
100
AcDbEntity
  8
0
  6
CONTINUOUS
 62
     7
100
AcDbCircle
 10
-1502.233577955857
 20
-650.9979572240762
 30
0.0
 40
0.5000000000001101
100
AcDbArc
 50
182.9841607580292
 51
268.0000000017158
  0
ARC
  5
18F
330
1F
100
AcDbEntity
  8
0
  6
CONTINUOUS
 62
     7
100
AcDbCircle
 10
-1502.233577955857
 20
-654.8759572240762
 30
0.0
 40
0.4999999999998884
100
AcDbArc
 50
182.9841607580301
 51
268.0000000017158
  0
ARC
  5
190
330
1F
100
AcDbEntity
  8
0
  6
CONTINUOUS
 62
     7
100
AcDbCircle
 10
-1502.233577955857
 20
-626.2198520250762
 30
0.0
 40
0.4999999999999558
100
AcDbArc
 50
91.99999999828599
 51
177.0151102022594
  0
ARC
  5
191
330
1F
100
AcDbEntity
  8
0
  6
CONTINUOUS
 62
     7
100
AcDbCircle
 10
-1487.753250073757
 20
-615.340904624576
 30
0.0
 40
14.99999999999994
100
AcDbArc
 50
177.0151102022622
 51
182.9848654964159
  0
ARC
  5
192
330
1F
100
AcDbEntity
  8
0
  6
CONTINUOUS
 62
     7
100
AcDbCircle
 10
-1487.753250073757
 20
-634.730904624576
 30
0.0
 40
14.99999999999994
100
AcDbArc
 50
177.0151102022622
 51
182.9848654964159
  0
ARC
  5
193
330
1F
100
AcDbEntity
  8
0
  6
CONTINUOUS
 62
     7
100
AcDbCircle
 10
-1487.753250073757
 20
-626.9749046245761
 30
0.0
 40
15.00000000000016
100
AcDbArc
 50
177.0151102022622
 51
182.9848654964159
  0
ARC
  5
194
330
1F
100
AcDbEntity
  8
0
  6
CONTINUOUS
 62
     7
100
AcDbCircle
 10
-1487.753250073757
 20
-650.2429046245761
 30
0.0
 40
14.99999999999994
100
AcDbArc
 50
177.0151102022622
 51
182.9848654964159
  0
ARC
  5
195
330
1F
100
AcDbEntity
  8
0
  6
CONTINUOUS
 62
     7
100
AcDbCircle
 10
-1502.233577955858
 20
-581.1939572240763
 30
0.0
 40
0.5000000000001101
100
AcDbArc
 50
182.9841607580325
 51
268.0000000017159
  0
ARC
  5
196
330
1F
100
AcDbEntity
  8
0
  6
CONTINUOUS
 62
     7
100
AcDbCircle
 10
-1502.233577955857
 20
-614.5858520250763
 30
0.0
 40
0.5000000000000667
100
AcDbArc
 50
91.99999999828599
 51
177.0151102022594
  0
ARC
  5
197
330
1F
100
AcDbEntity
  8
0
  6
CONTINUOUS
 62
     7
100
AcDbCircle
 10
-1502.233577955857
 20
-622.3418520250763
 30
0.0
 40
0.5000000000000667
100
AcDbArc
 50
91.99999999828599
 51
177.0151102022594
  0
ARC
  5
198
330
1F
100
AcDbEntity
  8
0
  6
CONTINUOUS
 62
     7
100
AcDbCircle
 10
-1502.233577955857
 20
-641.7318520250764
 30
0.0
 40
0.5000000000000667
100
AcDbArc
 50
91.99999999828599
 51
177.0151102022594
  0
ARC
  5
199
330
1F
100
AcDbEntity
  8
0
  6
CONTINUOUS
 62
     7
100
AcDbCircle
 10
-1502.233577955857
 20
-657.2438520250763
 30
0.0
 40
0.5000000000000667
100
AcDbArc
 50
91.99999999828594
 51
177.0151102022601
  0
ARC
  5
19A
330
1F
100
AcDbEntity
  8
0
  6
CONTINUOUS
 62
     7
100
AcDbCircle
 10
-1487.753250073757
 20
-607.584904624576
 30
0.0
 40
14.99999999999994
100
AcDbArc
 50
177.0151102022622
 51
182.9848654964159
  0
ARC
  5
19B
330
1F
100
AcDbEntity
  8
0
  6
CONTINUOUS
 62
     7
100
AcDbCircle
 10
-1502.233577955858
 20
-595.1958520250763
 30
0.0
 40
0.4999999999999558
100
AcDbArc
 50
91.99999999828599
 51
177.0151102022594
  0
ARC
  5
19C
330
1F
100
AcDbEntity
  8
0
  6
CONTINUOUS
 62
     7
100
AcDbCircle
 10
-1502.233577955857
 20
-606.8298520250763
 30
0.0
 40
0.5000000000000667
100
AcDbArc
 50
91.99999999828599
 51
177.0151102022594
  0
ARC
  5
19D
330
1F
100
AcDbEntity
  8
0
  6
CONTINUOUS
 62
     7
100
AcDbCircle
 10
-1502.233577955857
 20
-633.9758520250763
 30
0.0
 40
0.5000000000000667
100
AcDbArc
 50
91.99999999828599
 51
177.0151102022594
  0
ARC
  5
19E
330
1F
100
AcDbEntity
  8
0
  6
CONTINUOUS
 62
     7
100
AcDbCircle
 10
-1487.753250073757
 20
-623.096904624576
 30
0.0
 40
14.99999999999994
100
AcDbArc
 50
177.0151102022622
 51
182.9848654964159
  0
ARC
  5
19F
330
1F
100
AcDbEntity
  8
0
  6
CONTINUOUS
 62
     7
100
AcDbCircle
 10
-1502.233577955857
 20
-610.7078520250762
 30
0.0
 40
0.4999999999999558
100
AcDbArc
 50
91.99999999828599
 51
177.0151102022594
  0
ARC
  5
1A0
330
1F
100
AcDbEntity
  8
0
  6
CONTINUOUS
 62
     7
100
AcDbCircle
 10
-1502.233577955857
 20
-653.3658520250763
 30
0.0
 40
0.4999999999999558
100
AcDbArc
 50
91.99999999828599
 51
177.0151102022594
  0
LINE
  5
1A1
330
1F
100
AcDbEntity
  8
0
  6
CONTINUOUS
 62
     7
100
AcDbLine
 10
-1502.251027704197
 20
-581.6936526376784
 30
0.0
 11
-1500.142780224756
 21
-581.7672742618703
 31
0.0
  0
ARC
  5
1A2
330
1F
100
AcDbEntity
  8
0
  6
CONTINUOUS
 62
     7
100
AcDbCircle
 10
-1502.233577955857
 20
-649.4878520250763
 30
0.0
 40
0.4999999999999558
100
AcDbArc
 50
91.99999999828599
 51
177.0151102022594
  0
LINE
  5
1A3
330
1F
100
AcDbEntity
  8
0
  6
CONTINUOUS
 62
     7
100
AcDbLine
 10
-1500.142780224756
 20
-582.9885349873763
 30
0.0
 11
-1502.251027704194
 21
-583.0621566115661
 31
0.0
  0
LINE
  5
1A4
330
1F
100
AcDbEntity
  8
0
  6
CONTINUOUS
 62
     7
100
AcDbLine
 10
-1502.251027704197
 20
-585.5716526376784
 30
0.0
 11
-1500.142780224756
 21
-585.6452742618702
 31
0.0
  0
LINE
  5
1A5
330
1F
100
AcDbEntity
  8
0
  6
CONTINUOUS
 62
     7
100
AcDbLine
 10
-1500.142780224756
 20
-586.8665349873762
 30
0.0
 11
-1502.251027704194
 21
-586.9401566115662
 31
0.0
  0
ARC
  5
1A6
330
1F
100
AcDbEntity
  8
0
  6
CONTINUOUS
 62
     7
100
AcDbCircle
 10
-1502.233577955858
 20
-587.4398520250763
 30
0.0
 40
0.5000000000000667
100
AcDbArc
 50
91.99999999828593
 51
177.0151102022641
  0
ARC
  5
1A7
330
1F
100
AcDbEntity
  8
0
  6
CONTINUOUS
 62
     7
100
AcDbCircle
 10
-1502.233577955858
 20
-591.3178520250763
 30
0.0
 40
0.4999999999999558
100
AcDbArc
 50
91.99999999828593
 51
177.0151102022641
  0
ARC
  5
1A8
330
1F
100
AcDbEntity
  8
0
  6
CONTINUOUS
 62
     7
100
AcDbCircle
 10
-1502.233577955858
 20
-592.8279572240762
 30
0.0
 40
0.4999999999998884
100
AcDbArc
 50
182.9841607580292
 51
268.0000000017158
  0
LINE
  5
1A9
330
1F
100
AcDbEntity
  8
0
  6
CONTINUOUS
 62
     7
100
AcDbLine
 10
-1502.251027704197
 20
-589.4496526376784
 30
0.0
 11
-1500.142780224756
 21
-589.5232742618703
 31
0.0
  0
LINE
  5
1AA
330
1F
100
AcDbEntity
  8
0
  6
CONTINUOUS
 62
     7
100
AcDbLine
 10
-1500.142780224756
 20
-590.7445349873763
 30
0.0
 11
-1502.251027704194
 21
-590.8181566115662
 31
0.0
  0
LINE
  5
1AB
330
1F
100
AcDbEntity
  8
0
  6
CONTINUOUS
 62
     7
100
AcDbLine
 10
-1502.251027704197
 20
-593.3276526376784
 30
0.0
 11
-1500.142780224756
 21
-593.4012742618702
 31
0.0
  0
LINE
  5
1AC
330
1F
100
AcDbEntity
  8
0
  6
CONTINUOUS
 62
     7
100
AcDbLine
 10
-1500.142780224756
 20
-594.6225349873762
 30
0.0
 11
-1502.251027704194
 21
-594.6961566115662
 31
0.0
  0
ARC
  5
1AD
330
1F
100
AcDbEntity
  8
0
  6
CONTINUOUS
 62
     7
100
AcDbCircle
 10
-1502.233577955857
 20
-645.6098520250763
 30
0.0
 40
0.4999999999999635
100
AcDbArc
 50
91.99999999828599
 51
177.0151102022594
  0
LINE
  5
1AE
330
1F
100
AcDbEntity
  8
0
  6
CONTINUOUS
 62
     7
100
AcDbLine
 10
-1502.251027704197
 20
-597.2056526376783
 30
0.0
 11
-1500.142780224755
 21
-597.2792742618702
 31
0.0
  0
ARC
  5
1AF
330
1F
100
AcDbEntity
  8
0
  6
CONTINUOUS
 62
     7
100
AcDbCircle
 10
-1502.233577955857
 20
-623.8519572240763
 30
0.0
 40
0.4999999999998884
100
AcDbArc
 50
182.9841607580292
 51
268.0000000017158
  0
ARC
  5
1B0
330
1F
100
AcDbEntity
  8
0
  6
CONTINUOUS
 62
     7
100
AcDbCircle
 10
-1502.233577955857
 20
-630.0978520250762
 30
0.0
 40
0.4999999999999558
100
AcDbArc
 50
91.99999999828599
 51
177.0151102022594
  0
LINE
  5
1B1
330
1F
100
AcDbEntity
  8
0
  6
CONTINUOUS
 62
     7
100
AcDbLine
 10
-1500.142780224756
 20
-598.5005349873762
 30
0.0
 11
-1502.251027704194
 21
-598.5741566115662
 31
0.0
  0
ARC
  5
1B2
330
1F
100
AcDbEntity
  8
0
  6
CONTINUOUS
 62
     7
100
AcDbCircle
 10
-1487.753250073757
 20
-630.8529046245761
 30
0.0
 40
14.99999999999994
100
AcDbArc
 50
177.0151102022622
 51
182.9848654964159
  0
ARC
  5
1B3
330
1F
100
AcDbEntity
  8
0
  6
CONTINUOUS
 62
     7
100
AcDbCircle
 10
-1502.233577955857
 20
-631.6079572240762
 30
0.0
 40
0.5000000000001101
100
AcDbArc
 50
182.9841607580292
 51
268.0000000017158
  0
ARC
  5
1B4
330
1F
100
AcDbEntity
  8
0
  6
CONTINUOUS
 62
     7
100
AcDbCircle
 10
-1502.233577955857
 20
-637.8538520250762
 30
0.0
 40
0.4999999999999558
100
AcDbArc
 50
91.99999999828599
 51
177.0151102022594
  0
ARC
  5
1B5
330
1F
100
AcDbEntity
  8
0
  6
CONTINUOUS
 62
     7
100
AcDbCircle
 10
1500.153250073757
 20
-602.0787177392763
 30
0.0
 40
0.299999999999967
210
0.0
220
0.0
230
-1.0
100
AcDbArc
 50
180.0
 51
268.0000000017143
  0
ARC
  5
1B6
330
1F
100
AcDbEntity
  8
0
  6
CONTINUOUS
 62
     7
100
AcDbCircle
 10
1500.153250073757
 20
-628.6030915099763
 30
0.0
 40
0.3000000000000844
210
0.0
220
0.0
230
-1.0
100
AcDbArc
 50
91.99999999828462
 51
180.0
  0
ARC
  5
1B7
330
1F
100
AcDbEntity
  8
0
  6
CONTINUOUS
 62
     7
100
AcDbCircle
 10
1500.153250073757
 20
-640.2370915099762
 30
0.0
 40
0.2999999999999735
210
0.0
220
0.0
230
-1.0
100
AcDbArc
 50
91.99999999828462
 51
180.0
  0
ARC
  5
1B8
330
1F
100
AcDbEntity
  8
0
  6
CONTINUOUS
 62
     7
100
AcDbCircle
 10
1500.153250073757
 20
-640.8587177392761
 30
0.0
 40
0.299999999999967
210
0.0
220
0.0
230
-1.0
100
AcDbArc
 50
180.0
 51
268.0000000017143
  0
LINE
  5
1B9
330
1F
100
AcDbEntity
  8
0
  6
CONTINUOUS
 62
     7
100
AcDbLine
 10
-1500.142780224755
 20
-625.6465349873762
 30
0.0
 11
-1502.251027704193
 21
-625.7201566115662
 31
0.0
  0
LINE
  5
1BA
330
1F
100
AcDbEntity
  8
0
  6
CONTINUOUS
 62
     7
100
AcDbLine
 10
-1502.251027704196
 20
-628.2296526376783
 30
0.0
 11
-1500.142780224755
 21
-628.3032742618701
 31
0.0
  0
LINE
  5
1BB
330
1F
100
AcDbEntity
  8
0
  6
CONTINUOUS
 62
     7
100
AcDbLine
 10
-1500.142780224756
 20
-606.2565349873762
 30
0.0
 11
-1502.251027704193
 21
-606.3301566115662
 31
0.0
  0
LINE
  5
1BC
330
1F
100
AcDbEntity
  8
0
  6
CONTINUOUS
 62
     7
100
AcDbLine
 10
-1502.251027704197
 20
-608.8396526376783
 30
0.0
 11
-1500.142780224755
 21
-608.9132742618701
 31
0.0
  0
LINE
  5
1BD
330
1F
100
AcDbEntity
  8
0
  6
CONTINUOUS
 62
     7
100
AcDbLine
 10
-1502.251027704197
 20
-620.4736526376784
 30
0.0
 11
-1500.142780224755
 21
-620.5472742618701
 31
0.0
  0
ARC
  5
1BE
330
1F
100
AcDbEntity
  8
0
  6
CONTINUOUS
 62
     7
100
AcDbCircle
 10
1500.153250073758
 20
-594.3227177392762
 30
0.0
 40
0.300000000000189
210
0.0
220
0.0
230
-1.0
100
AcDbArc
 50
180.0
 51
268.0000000017143
  0
ARC
  5
1BF
330
1F
100
AcDbEntity
  8
0
  6
CONTINUOUS
 62
     7
100
AcDbCircle
 10
1500.153250073758
 20
-586.5667177392761
 30
0.0
 40
0.299999999999967
210
0.0
220
0.0
230
-1.0
100
AcDbArc
 50
180.0
 51
268.0000000017143
  0
ARC
  5
1C0
330
1F
100
AcDbEntity
  8
0
  6
CONTINUOUS
 62
     7
100
AcDbCircle
 10
1500.153250073757
 20
-601.4570915099763
 30
0.0
 40
0.3000000000000844
210
0.0
220
0.0
230
-1.0
100
AcDbArc
 50
91.99999999828462
 51
180.0
  0
LINE
  5
1C1
330
1F
100
AcDbEntity
  8
0
  6
CONTINUOUS
 62
     7
100
AcDbLine
 10
-1502.251027704196
 20
-632.1076526376784
 30
0.0
 11
-1500.142780224755
 21
-632.1812742618702
 31
0.0
  0
ARC
  5
1C2
330
1F
100
AcDbEntity
  8
0
  6
CONTINUOUS
 62
     7
100
AcDbCircle
 10
1500.153250073757
 20
-609.2130915099763
 30
0.0
 40
0.3000000000000844
210
0.0
220
0.0
230
-1.0
100
AcDbArc
 50
91.99999999828462
 51
180.0
  0
ARC
  5
1C3
330
1F
100
AcDbEntity
  8
0
  6
CONTINUOUS
 62
     7
100
AcDbCircle
 10
1500.153250073757
 20
-613.0910915099762
 30
0.0
 40
0.2999999999999735
210
0.0
220
0.0
230
-1.0
100
AcDbArc
 50
91.99999999828462
 51
180.0
  0
ARC
  5
1C4
330
1F
100
AcDbEntity
  8
0
  6
CONTINUOUS
 62
     7
100
AcDbCircle
 10
1500.153250073757
 20
-620.8470915099762
 30
0.0
 40
0.2999999999999735
210
0.0
220
0.0
230
-1.0
100
AcDbArc
 50
91.99999999828462
 51
180.0
  0
LINE
  5
1C5
330
1F
100
AcDbEntity
  8
0
  6
CONTINUOUS
 62
     7
100
AcDbLine
 10
-1500.142780224756
 20
-610.1345349873761
 30
0.0
 11
-1502.251027704193
 21
-610.2081566115662
 31
0.0
  0
LINE
  5
1C6
330
1F
100
AcDbEntity
  8
0
  6
CONTINUOUS
 62
     7
100
AcDbLine
 10
-1500.142780224755
 20
-617.8905349873762
 30
0.0
 11
-1502.251027704193
 21
-617.9641566115662
 31
0.0
  0
LINE
  5
1C7
330
1F
100
AcDbEntity
  8
0
  6
CONTINUOUS
 62
     7
100
AcDbLine
 10
-1500.142780224755
 20
-637.2805349873762
 30
0.0
 11
-1502.251027704193
 21
-637.3541566115663
 31
0.0
  0
ARC
  5
1C8
330
1F
100
AcDbEntity
  8
0
  6
CONTINUOUS
 62
     7
100
AcDbCircle
 10
1500.153250073758
 20
-593.7010915099763
 30
0.0
 40
0.3000000000000844
210
0.0
220
0.0
230
-1.0
100
AcDbArc
 50
91.99999999828398
 51
180.0
  0
ARC
  5
1C9
330
1F
100
AcDbEntity
  8
0
  6
CONTINUOUS
 62
     7
100
AcDbCircle
 10
1500.153250073758
 20
-585.9450915099762
 30
0.0
 40
0.2999999999999735
210
0.0
220
0.0
230
-1.0
100
AcDbArc
 50
91.99999999828462
 51
180.0
  0
ARC
  5
1CA
330
1F
100
AcDbEntity
  8
0
  6
CONTINUOUS
 62
     7
100
AcDbCircle
 10
1500.153250073757
 20
-605.9567177392762
 30
0.0
 40
0.299999999999967
210
0.0
220
0.0
230
-1.0
100
AcDbArc
 50
180.0
 51
268.0000000017143
  0
LINE
  5
1CB
330
1F
100
AcDbEntity
  8
0
  6
CONTINUOUS
 62
     7
100
AcDbLine
 10
-1502.251027704196
 20
-647.6196526376784
 30
0.0
 11
-1500.142780224755
 21
-647.6932742618702
 31
0.0
  0
LINE
  5
1CC
330
1F
100
AcDbEntity
  8
0
  6
CONTINUOUS
 62
     7
100
AcDbLine
 10
-1500.142780224755
 20
-656.6705349873762
 30
0.0
 11
-1502.251027704193
 21
-656.7441566115662
 31
0.0
  0
LINE
  5
1CD
330
1F
100
AcDbEntity
  8
0
  6
CONTINUOUS
 62
     7
100
AcDbLine
 10
-1502.251027704196
 20
-651.4976526376784
 30
0.0
 11
-1500.142780224755
 21
-651.5712742618703
 31
0.0
  0
ARC
  5
1CE
330
1F
100
AcDbEntity
  8
0
  6
CONTINUOUS
 62
     7
100
AcDbCircle
 10
1500.153250073758
 20
-590.4447177392761
 30
0.0
 40
0.299999999999967
210
0.0
220
0.0
230
-1.0
100
AcDbArc
 50
180.0
 51
268.0000000017143
  0
ARC
  5
1CF
330
1F
100
AcDbEntity
  8
0
  6
CONTINUOUS
 62
     7
100
AcDbCircle
 10
1500.153250073757
 20
-598.2007177392762
 30
0.0
 40
0.299999999999967
210
0.0
220
0.0
230
-1.0
100
AcDbArc
 50
180.0
 51
268.0000000017137
  0
ARC
  5
1D0
330
1F
100
AcDbEntity
  8
0
  6
CONTINUOUS
 62
     7
100
AcDbCircle
 10
1500.153250073757
 20
-621.4687177392763
 30
0.0
 40
0.299999999999967
210
0.0
220
0.0
230
-1.0
100
AcDbArc
 50
180.0
 51
268.0000000017143
  0
ARC
  5
1D1
330
1F
100
AcDbEntity
  8
0
  6
CONTINUOUS
 62
     7
100
AcDbCircle
 10
1500.153250073757
 20
-609.8347177392762
 30
0.0
 40
0.300000000000189
210
0.0
220
0.0
230
-1.0
100
AcDbArc
 50
180.0
 51
268.0000000017143
  0
ARC
  5
1D2
330
1F
100
AcDbEntity
  8
0
  6
CONTINUOUS
 62
     7
100
AcDbCircle
 10
1500.153250073757
 20
-624.7250915099762
 30
0.0
 40
0.2999999999999735
210
0.0
220
0.0
230
-1.0
100
AcDbArc
 50
91.99999999828462
 51
180.0
  0
ARC
  5
1D3
330
1F
100
AcDbEntity
  8
0
  6
CONTINUOUS
 62
     7
100
AcDbCircle
 10
1500.153250073757
 20
-625.3467177392762
 30
0.0
 40
0.299999999999967
210
0.0
220
0.0
230
-1.0
100
AcDbArc
 50
180.0
 51
268.0000000017137
  0
ARC
  5
1D4
330
1F
100
AcDbEntity
  8
0
  6
CONTINUOUS
 62
     7
100
AcDbCircle
 10
1500.153250073757
 20
-644.1150915099762
 30
0.0
 40
0.2999999999999735
210
0.0
220
0.0
230
-1.0
100
AcDbArc
 50
91.99999999828462
 51
180.0
  0
ARC
  5
1D5
330
1F
100
AcDbEntity
  8
0
  6
CONTINUOUS
 62
     7
100
AcDbCircle
 10
1500.153250073757
 20
-644.7367177392762
 30
0.0
 40
0.299999999999967
210
0.0
220
0.0
230
-1.0
100
AcDbArc
 50
180.0
 51
268.0000000017143
  0
LINE
  5
1D6
330
1F
100
AcDbEntity
  8
0
  6
CONTINUOUS
 62
     7
100
AcDbLine
 10
-1502.251027704197
 20
-612.7176526376784
 30
0.0
 11
-1500.142780224755
 21
-612.7912742618702
 31
0.0
  0
LINE
  5
1D7
330
1F
100
AcDbEntity
  8
0
  6
CONTINUOUS
 62
     7
100
AcDbLine
 10
-1502.251027704196
 20
-635.9856526376783
 30
0.0
 11
-1500.142780224755
 21
-636.0592742618702
 31
0.0
  0
LINE
  5
1D8
330
1F
100
AcDbEntity
  8
0
  6
CONTINUOUS
 62
     7
100
AcDbLine
 10
-1500.142780224756
 20
-602.3785349873762
 30
0.0
 11
-1502.251027704193
 21
-602.4521566115661
 31
0.0
  0
LINE
  5
1D9
330
1F
100
AcDbEntity
  8
0
  6
CONTINUOUS
 62
     7
100
AcDbLine
 10
-1502.251027704196
 20
-639.8636526376785
 30
0.0
 11
-1500.142780224755
 21
-639.9372742618701
 31
0.0
  0
LINE
  5
1DA
330
1F
100
AcDbEntity
  8
0
  6
CONTINUOUS
 62
     7
100
AcDbLine
 10
-1500.142780224755
 20
-633.4025349873762
 30
0.0
 11
-1502.251027704193
 21
-633.4761566115662
 31
0.0
  0
ARC
  5
1DB
330
1F
100
AcDbEntity
  8
0
  6
CONTINUOUS
 62
     7
100
AcDbCircle
 10
1500.153250073758
 20
-582.6887177392762
 30
0.0
 40
0.299999999999967
210
0.0
220
0.0
230
-1.0
100
AcDbArc
 50
180.0
 51
268.0000000017143
  0
ARC
  5
1DC
330
1F
100
AcDbEntity
  8
0
  6
CONTINUOUS
 62
     7
100
AcDbCircle
 10
1500.153250073757
 20
-617.5907177392762
 30
0.0
 40
0.299999999999967
210
0.0
220
0.0
230
-1.0
100
AcDbArc
 50
180.0
 51
268.0000000017143
  0
ARC
  5
1DD
330
1F
100
AcDbEntity
  8
0
  6
CONTINUOUS
 62
     7
100
AcDbCircle
 10
1500.153250073757
 20
-597.5790915099763
 30
0.0
 40
0.2999999999999735
210
0.0
220
0.0
230
-1.0
100
AcDbArc
 50
91.99999999828462
 51
180.0
  0
ARC
  5
1DE
330
1F
100
AcDbEntity
  8
0
  6
CONTINUOUS
 62
     7
100
AcDbCircle
 10
1500.153250073757
 20
-633.1027177392763
 30
0.0
 40
0.299999999999967
210
0.0
220
0.0
230
-1.0
100
AcDbArc
 50
180.0
 51
268.0000000017143
  0
LINE
  5
1DF
330
1F
100
AcDbEntity
  8
0
  6
CONTINUOUS
 62
     7
100
AcDbLine
 10
-1500.142780224755
 20
-645.0365349873762
 30
0.0
 11
-1502.251027704193
 21
-645.1101566115663
 31
0.0
  0
LINE
  5
1E0
330
1F
100
AcDbEntity
  8
0
  6
CONTINUOUS
 62
     7
100
AcDbLine
 10
-1500.142780224755
 20
-614.0125349873762
 30
0.0
 11
-1502.251027704193
 21
-614.0861566115661
 31
0.0
  0
LINE
  5
1E1
330
1F
100
AcDbEntity
  8
0
  6
CONTINUOUS
 62
     7
100
AcDbLine
 10
-1500.142780224755
 20
-648.9145349873761
 30
0.0
 11
-1502.251027704193
 21
-648.9881566115662
 31
0.0
  0
LINE
  5
1E2
330
1F
100
AcDbEntity
  8
0
  6
CONTINUOUS
 62
     7
100
AcDbLine
 10
-1500.142780224755
 20
-652.7925349873763
 30
0.0
 11
-1502.251027704193
 21
-652.8661566115662
 31
0.0
  0
ARC
  5
1E3
330
1F
100
AcDbEntity
  8
0
  6
CONTINUOUS
 62
     7
100
AcDbCircle
 10
1500.153250073757
 20
-605.3350915099762
 30
0.0
 40
0.2999999999999735
210
0.0
220
0.0
230
-1.0
100
AcDbArc
 50
91.99999999828398
 51
180.0
  0
ARC
  5
1E4
330
1F
100
AcDbEntity
  8
0
  6
CONTINUOUS
 62
     7
100
AcDbCircle
 10
1500.153250073757
 20
-636.3590915099762
 30
0.0
 40
0.2999999999999735
210
0.0
220
0.0
230
-1.0
100
AcDbArc
 50
91.99999999828462
 51
180.0
  0
LINE
  5
1E5
330
1F
100
AcDbEntity
  8
0
  6
CONTINUOUS
 62
     7
100
AcDbLine
 10
-1502.251027704197
 20
-616.5956526376783
 30
0.0
 11
-1500.142780224755
 21
-616.6692742618702
 31
0.0
  0
LINE
  5
1E6
330
1F
100
AcDbEntity
  8
0
  6
CONTINUOUS
 62
     7
100
AcDbLine
 10
-1500.142780224755
 20
-629.5245349873761
 30
0.0
 11
-1502.251027704193
 21
-629.5981566115662
 31
0.0
  0
LINE
  5
1E7
330
1F
100
AcDbEntity
  8
0
  6
CONTINUOUS
 62
     7
100
AcDbLine
 10
-1500.142780224755
 20
-621.7685349873761
 30
0.0
 11
-1502.251027704193
 21
-621.8421566115661
 31
0.0
  0
LINE
  5
1E8
330
1F
100
AcDbEntity
  8
0
  6
CONTINUOUS
 62
     7
100
AcDbLine
 10
-1500.142780224755
 20
-641.1585349873761
 30
0.0
 11
-1502.251027704193
 21
-641.2321566115662
 31
0.0
  0
ARC
  5
1E9
330
1F
100
AcDbEntity
  8
0
  6
CONTINUOUS
 62
     7
100
AcDbCircle
 10
1500.153250073758
 20
-589.8230915099763
 30
0.0
 40
0.2999999999999735
210
0.0
220
0.0
230
-1.0
100
AcDbArc
 50
91.99999999828462
 51
180.0
  0
ARC
  5
1EA
330
1F
100
AcDbEntity
  8
0
  6
CONTINUOUS
 62
     7
100
AcDbCircle
 10
1500.153250073757
 20
-613.7127177392763
 30
0.0
 40
0.299999999999967
210
0.0
220
0.0
230
-1.0
100
AcDbArc
 50
180.0
 51
268.0000000017143
  0
ARC
  5
1EB
330
1F
100
AcDbEntity
  8
0
  6
CONTINUOUS
 62
     7
100
AcDbCircle
 10
1500.153250073757
 20
-629.2247177392762
 30
0.0
 40
0.299999999999967
210
0.0
220
0.0
230
-1.0
100
AcDbArc
 50
180.0
 51
268.0000000017143
  0
ARC
  5
1EC
330
1F
100
AcDbEntity
  8
0
  6
CONTINUOUS
 62
     7
100
AcDbCircle
 10
1500.153250073757
 20
-616.9690915099762
 30
0.0
 40
0.2999999999999735
210
0.0
220
0.0
230
-1.0
100
AcDbArc
 50
91.99999999828462
 51
180.0
  0
LINE
  5
1ED
330
1F
100
AcDbEntity
  8
0
  6
CONTINUOUS
 62
     7
100
AcDbLine
 10
-1502.251027704196
 20
-643.7416526376784
 30
0.0
 11
-1500.142780224755
 21
-643.8152742618702
 31
0.0
  0
LINE
  5
1EE
330
1F
100
AcDbEntity
  8
0
  6
CONTINUOUS
 62
     7
100
AcDbLine
 10
-1502.251027704196
 20
-624.3516526376783
 30
0.0
 11
-1500.142780224755
 21
-624.4252742618702
 31
0.0
  0
ARC
  5
1EF
330
1F
100
AcDbEntity
  8
0
  6
CONTINUOUS
 62
     7
100
AcDbCircle
 10
1500.153250073757
 20
-632.4810915099762
 30
0.0
 40
0.2999999999999735
210
0.0
220
0.0
230
-1.0
100
AcDbArc
 50
91.99999999828398
 51
180.0
  0
ARC
  5
1F0
330
1F
100
AcDbEntity
  8
0
  6
CONTINUOUS
 62
     7
100
AcDbCircle
 10
1500.153250073757
 20
-636.9807177392762
 30
0.0
 40
0.299999999999967
210
0.0
220
0.0
230
-1.0
100
AcDbArc
 50
180.0
 51
268.0000000017137
  0
LINE
  5
1F1
330
1F
100
AcDbEntity
  8
0
  6
CONTINUOUS
 62
     7
100
AcDbLine
 10
-1502.251027704197
 20
-604.9616526376784
 30
0.0
 11
-1500.142780224755
 21
-605.0352742618702
 31
0.0
  0
LINE
  5
1F2
330
1F
100
AcDbEntity
  8
0
  6
CONTINUOUS
 62
     7
100
AcDbLine
 10
-1502.251027704196
 20
-655.3756526376784
 30
0.0
 11
-1500.142780224755
 21
-655.4492742618702
 31
0.0
  0
ARC
  5
1F3
330
1F
100
AcDbEntity
  8
0
  6
CONTINUOUS
 62
     7
100
AcDbCircle
 10
1500.153250073758
 20
-582.0670915099763
 30
0.0
 40
0.2999999999999735
210
0.0
220
0.0
230
-1.0
100
AcDbArc
 50
91.99999999828462
 51
180.0
  0
LINE
  5
1F4
330
1F
100
AcDbEntity
  8
0
  6
CONTINUOUS
 62
     7
100
AcDbLine
 10
-1502.251027704197
 20
-601.0836526376784
 30
0.0
 11
-1500.142780224755
 21
-601.1572742618702
 31
0.0
  0
LINE
  5
1F5
330
1F
100
AcDbEntity
  8
0
  6
CONTINUOUS
 62
     7
100
AcDbLine
 10
-1499.853250073757
 20
-609.2130915099763
 30
0.0
 11
-1499.853250073757
 21
-609.8347177392762
 31
0.0
  0
ARC
  5
1F6
330
1F
100
AcDbEntity
  8
0
  6
CONTINUOUS
 62
     7
100
AcDbCircle
 10
1500.153250073757
 20
-656.3707177392762
 30
0.0
 40
0.299999999999967
210
0.0
220
0.0
230
-1.0
100
AcDbArc
 50
179.9999999999987
 51
268.0000000017143
  0
LINE
  5
1F7
330
1F
100
AcDbEntity
  8
0
  6
CONTINUOUS
 62
     7
100
AcDbLine
 10
-1499.853250073757
 20
-601.4570915099762
 30
0.0
 11
-1499.853250073757
 21
-602.0787177392763
 31
0.0
  0
ARC
  5
1F8
330
1F
100
AcDbEntity
  8
0
  6
CONTINUOUS
 62
     7
100
AcDbCircle
 10
1500.153250073757
 20
-651.8710915099763
 30
0.0
 40
0.2999999999999735
210
0.0
220
0.0
230
-1.0
100
AcDbArc
 50
91.99999999828462
 51
180.0
  0
LINE
  5
1F9
330
1F
100
AcDbEntity
  8
0
  6
CONTINUOUS
 62
     7
100
AcDbLine
 10
-1499.853250073757
 20
-613.0910915099762
 30
0.0
 11
-1499.853250073757
 21
-613.7127177392763
 31
0.0
  0
ARC
  5
1FA
330
1F
100
AcDbEntity
  8
0
  6
CONTINUOUS
 62
     7
100
AcDbCircle
 10
1500.153250073757
 20
-647.9930915099762
 30
0.0
 40
0.3000000000000844
210
0.0
220
0.0
230
-1.0
100
AcDbArc
 50
91.99999999828462
 51
180.0
  0
LINE
  5
1FB
330
1F
100
AcDbEntity
  8
0
  6
CONTINUOUS
 62
     7
100
AcDbLine
 10
-1499.853250073757
 20
-593.7010915099763
 30
0.0
 11
-1499.853250073757
 21
-594.3227177392762
 31
0.0
  0
LINE
  5
1FC
330
1F
100
AcDbEntity
  8
0
  6
CONTINUOUS
 62
     7
100
AcDbLine
 10
-1499.853250073758
 20
-589.8230915099763
 30
0.0
 11
-1499.853250073758
 21
-590.4447177392761
 31
0.0
  0
LINE
  5
1FD
330
1F
100
AcDbEntity
  8
0
  6
CONTINUOUS
 62
     7
100
AcDbLine
 10
-1499.853250073757
 20
-597.5790915099763
 30
0.0
 11
-1499.853250073757
 21
-598.2007177392762
 31
0.0
  0
ARC
  5
1FE
330
1F
100
AcDbEntity
  8
0
  6
CONTINUOUS
 62
     7
100
AcDbCircle
 10
1500.153250073757
 20
-648.6147177392762
 30
0.0
 40
0.299999999999967
210
0.0
220
0.0
230
-1.0
100
AcDbArc
 50
180.0
 51
268.0000000017143
  0
LINE
  5
1FF
330
1F
100
AcDbEntity
  8
0
  6
CONTINUOUS
 62
     7
100
AcDbLine
 10
-1499.853250073757
 20
-616.9690915099762
 30
0.0
 11
-1499.853250073757
 21
-617.5907177392762
 31
0.0
  0
LINE
  5
200
330
1F
100
AcDbEntity
  8
0
  6
CONTINUOUS
 62
     7
100
AcDbLine
 10
-1499.853250073757
 20
-605.3350915099762
 30
0.0
 11
-1499.853250073757
 21
-605.9567177392762
 31
0.0
  0
ARC
  5
201
330
1F
100
AcDbEntity
  8
0
  6
CONTINUOUS
 62
     7
100
AcDbCircle
 10
1500.153250073757
 20
-655.7490915099763
 30
0.0
 40
0.3000000000000844
210
0.0
220
0.0
230
-1.0
100
AcDbArc
 50
91.99999999828462
 51
179.9999999999987
  0
ARC
  5
202
330
1F
100
AcDbEntity
  8
0
  6
CONTINUOUS
 62
     7
100
AcDbCircle
 10
1500.153250073757
 20
-652.4927177392761
 30
0.0
 40
0.299999999999967
210
0.0
220
0.0
230
-1.0
100
AcDbArc
 50
180.0
 51
268.0000000017143
  0
LINE
  5
203
330
1F
100
AcDbEntity
  8
0
  6
CONTINUOUS
 62
     7
100
AcDbLine
 10
-1499.853250073758
 20
-582.0670915099763
 30
0.0
 11
-1499.853250073758
 21
-582.6887177392762
 31
0.0
  0
LINE
  5
204
330
1F
100
AcDbEntity
  8
0
  6
CONTINUOUS
 62
     7
100
AcDbLine
 10
-1499.853250073758
 20
-585.9450915099762
 30
0.0
 11
-1499.853250073758
 21
-586.5667177392761
 31
0.0
  0
ARC
  5
205
330
1F
100
AcDbEntity
  8
0
  6
CONTINUOUS
 62
     7
100
AcDbCircle
 10
-1502.233577955857
 20
-568.0498520250761
 30
0.0
 40
0.4999999999999635
100
AcDbArc
 50
91.99999999828593
 51
177.015110202261
  0
ARC
  5
206
330
1F
100
AcDbEntity
  8
0
  6
CONTINUOUS
 62
     7
100
AcDbCircle
 10
1500.153250073757
 20
-532.2747177392762
 30
0.0
 40
0.300000000000189
210
0.0
220
0.0
230
-1.0
100
AcDbArc
 50
180.0
 51
268.0000000017143
  0
ARC
  5
207
330
1F
100
AcDbEntity
  8
0
  6
CONTINUOUS
 62
     7
100
AcDbCircle
 10
1500.153250073757
 20
-535.5310915099761
 30
0.0
 40
0.2999999999999735
210
0.0
220
0.0
230
-1.0
100
AcDbArc
 50
91.99999999828462
 51
180.0
  0
LINE
  5
208
330
1F
100
AcDbEntity
  8
0
  6
CONTINUOUS
 62
     7
100
AcDbLine
 10
-1500.142780224756
 20
-509.3065349873761
 30
0.0
 11
-1502.251027704194
 21
-509.3801566115661
 31
0.0
  0
LINE
  5
209
330
1F
100
AcDbEntity
  8
0
  6
CONTINUOUS
 62
     7
100
AcDbLine
 10
-1502.251027704197
 20
-550.6696526376783
 30
0.0
 11
-1500.142780224755
 21
-550.74327426187
 31
0.0
  0
ARC
  5
20A
330
1F
100
AcDbEntity
  8
0
  6
CONTINUOUS
 62
     7
100
AcDbCircle
 10
1500.153250073758
 20
-508.3850915099761
 30
0.0
 40
0.2999999999999735
210
0.0
220
0.0
230
-1.0
100
AcDbArc
 50
91.99999999828462
 51
180.0
  0
ARC
  5
20B
330
1F
100
AcDbEntity
  8
0
  6
CONTINUOUS
 62
     7
100
AcDbCircle
 10
1500.153250073758
 20
-516.7627177392761
 30
0.0
 40
0.300000000000189
210
0.0
220
0.0
230
-1.0
100
AcDbArc
 50
180.0
 51
268.0000000017143
  0
ARC
  5
20C
330
1F
100
AcDbEntity
  8
0
  6
CONTINUOUS
 62
     7
100
AcDbCircle
 10
-1502.233577955857
 20
-556.4158520250761
 30
0.0
 40
0.4999999999999558
100
AcDbArc
 50
91.99999999828593
 51
177.0151102022641
  0
ARC
  5
20D
330
1F
100
AcDbEntity
  8
0
  6
CONTINUOUS
 62
     7
100
AcDbCircle
 10
1500.153250073758
 20
-509.0067177392761
 30
0.0
 40
0.299999999999967
210
0.0
220
0.0
230
-1.0
100
AcDbArc
 50
180.0
 51
268.0000000017143
  0
LINE
  5
20E
330
1F
100
AcDbEntity
  8
0
  6
CONTINUOUS
 62
     7
100
AcDbLine
 10
-1502.251027704197
 20
-542.9136526376783
 30
0.0
 11
-1500.142780224755
 21
-542.9872742618701
 31
0.0
  0
LINE
  5
20F
330
1F
100
AcDbEntity
  8
0
  6
CONTINUOUS
 62
     7
100
AcDbLine
 10
-1502.251027704196
 20
-573.9376526376783
 30
0.0
 11
-1500.142780224755
 21
-574.0112742618701
 31
0.0
  0
ARC
  5
210
330
1F
100
AcDbEntity
  8
0
  6
CONTINUOUS
 62
     7
100
AcDbCircle
 10
1500.153250073758
 20
-512.8847177392761
 30
0.0
 40
0.299999999999967
210
0.0
220
0.0
230
-1.0
100
AcDbArc
 50
180.0
 51
268.0000000017143
  0
ARC
  5
211
330
1F
100
AcDbEntity
  8
0
  6
CONTINUOUS
 62
     7
100
AcDbCircle
 10
1500.153250073758
 20
-516.1410915099763
 30
0.0
 40
0.3000000000000844
210
0.0
220
0.0
230
-1.0
100
AcDbArc
 50
91.99999999828398
 51
180.0
  0
ARC
  5
212
330
1F
100
AcDbEntity
  8
0
  6
CONTINUOUS
 62
     7
100
AcDbCircle
 10
1500.153250073757
 20
-520.0190915099762
 30
0.0
 40
0.2999999999999735
210
0.0
220
0.0
230
-1.0
100
AcDbArc
 50
91.99999999828462
 51
180.0
  0
LINE
  5
213
330
1F
100
AcDbEntity
  8
0
  6
CONTINUOUS
 62
     7
100
AcDbLine
 10
-1502.251027704196
 20
-539.0356526376783
 30
0.0
 11
-1500.142780224755
 21
-539.1092742618702
 31
0.0
  0
ARC
  5
214
330
1F
100
AcDbEntity
  8
0
  6
CONTINUOUS
 62
     7
100
AcDbCircle
 10
1500.153250073757
 20
-523.8970915099761
 30
0.0
 40
0.2999999999999735
210
0.0
220
0.0
230
-1.0
100
AcDbArc
 50
91.99999999828462
 51
180.0
  0
ARC
  5
215
330
1F
100
AcDbEntity
  8
0
  6
CONTINUOUS
 62
     7
100
AcDbCircle
 10
1500.153250073757
 20
-527.7750915099762
 30
0.0
 40
0.2999999999999735
210
0.0
220
0.0
230
-1.0
100
AcDbArc
 50
91.99999999828398
 51
180.0
  0
LINE
  5
216
330
1F
100
AcDbEntity
  8
0
  6
CONTINUOUS
 62
     7
100
AcDbLine
 10
-1502.251027704197
 20
-527.4016526376784
 30
0.0
 11
-1500.142780224755
 21
-527.4752742618701
 31
0.0
  0
LINE
  5
217
330
1F
100
AcDbEntity
  8
0
  6
CONTINUOUS
 62
     7
100
AcDbLine
 10
-1500.142780224755
 20
-540.3305349873762
 30
0.0
 11
-1502.251027704194
 21
-540.4041566115661
 31
0.0
  0
LINE
  5
218
330
1F
100
AcDbEntity
  8
0
  6
CONTINUOUS
 62
     7
100
AcDbLine
 10
-1502.251027704197
 20
-504.1336526376783
 30
0.0
 11
-1500.142780224756
 21
-504.2072742618702
 31
0.0
  0
LINE
  5
219
330
1F
100
AcDbEntity
  8
0
  6
CONTINUOUS
 62
     7
100
AcDbLine
 10
-1500.142780224756
 20
-544.2085349873761
 30
0.0
 11
-1502.251027704194
 21
-544.282156611566
 31
0.0
  0
LINE
  5
21A
330
1F
100
AcDbEntity
  8
0
  6
CONTINUOUS
 62
     7
100
AcDbLine
 10
-1502.251027704196
 20
-558.4256526376782
 30
0.0
 11
-1500.142780224755
 21
-558.4992742618701
 31
0.0
  0
LINE
  5
21B
330
1F
100
AcDbEntity
  8
0
  6
CONTINUOUS
 62
     7
100
AcDbLine
 10
-1500.142780224756
 20
-559.7205349873761
 30
0.0
 11
-1502.251027704193
 21
-559.794156611566
 31
0.0
  0
LINE
  5
21C
330
1F
100
AcDbEntity
  8
0
  6
CONTINUOUS
 62
     7
100
AcDbLine
 10
-1500.142780224756
 20
-505.4285349873762
 30
0.0
 11
-1502.251027704194
 21
-505.502156611566
 31
0.0
  0
LINE
  5
21D
330
1F
100
AcDbEntity
  8
0
  6
CONTINUOUS
 62
     7
100
AcDbLine
 10
-1502.251027704196
 20
-546.7916526376782
 30
0.0
 11
-1500.142780224755
 21
-546.8652742618701
 31
0.0
  0
LINE
  5
21E
330
1F
100
AcDbEntity
  8
0
  6
CONTINUOUS
 62
     7
100
AcDbLine
 10
-1500.142780224756
 20
-563.5985349873761
 30
0.0
 11
-1502.251027704193
 21
-563.6721566115662
 31
0.0
  0
LINE
  5
21F
330
1F
100
AcDbEntity
  8
0
  6
CONTINUOUS
 62
     7
100
AcDbLine
 10
-1502.251027704195
 20
-566.1816526376782
 30
0.0
 11
-1500.142780224755
 21
-566.25527426187
 31
0.0
  0
LINE
  5
220
330
1F
100
AcDbEntity
  8
0
  6
CONTINUOUS
 62
     7
100
AcDbLine
 10
-1502.251027704197
 20
-508.0116526376783
 30
0.0
 11
-1500.142780224756
 21
-508.0852742618701
 31
0.0
  0
LINE
  5
221
330
1F
100
AcDbEntity
  8
0
  6
CONTINUOUS
 62
     7
100
AcDbLine
 10
-1502.251027704196
 20
-570.0596526376784
 30
0.0
 11
-1500.142780224755
 21
-570.13327426187
 31
0.0
  0
LINE
  5
222
330
1F
100
AcDbEntity
  8
0
  6
CONTINUOUS
 62
     7
100
AcDbLine
 10
-1500.142780224755
 20
-571.354534987376
 30
0.0
 11
-1502.251027704193
 21
-571.4281566115661
 31
0.0
  0
LINE
  5
223
330
1F
100
AcDbEntity
  8
0
  6
CONTINUOUS
 62
     7
100
AcDbLine
 10
-1500.142780224756
 20
-517.0625349873761
 30
0.0
 11
-1502.251027704194
 21
-517.1361566115661
 31
0.0
  0
LINE
  5
224
330
1F
100
AcDbEntity
  8
0
  6
CONTINUOUS
 62
     7
100
AcDbLine
 10
-1502.251027704197
 20
-519.6456526376783
 30
0.0
 11
-1500.142780224755
 21
-519.7192742618702
 31
0.0
  0
ARC
  5
225
330
1F
100
AcDbEntity
  8
0
  6
CONTINUOUS
 62
     7
100
AcDbCircle
 10
-1502.233577955857
 20
-571.9278520250763
 30
0.0
 40
0.5000000000000667
100
AcDbArc
 50
91.99999999828593
 51
177.0151102022641
  0
LINE
  5
226
330
1F
100
AcDbEntity
  8
0
  6
CONTINUOUS
 62
     7
100
AcDbLine
 10
-1500.142780224756
 20
-579.1105349873761
 30
0.0
 11
-1502.251027704193
 21
-579.1841566115661
 31
0.0
  0
LINE
  5
227
330
1F
100
AcDbEntity
  8
0
  6
CONTINUOUS
 62
     7
100
AcDbLine
 10
-1502.251027704196
 20
-554.5476526376782
 30
0.0
 11
-1500.142780224755
 21
-554.6212742618701
 31
0.0
  0
LINE
  5
228
330
1F
100
AcDbEntity
  8
0
  6
CONTINUOUS
 62
     7
100
AcDbLine
 10
-1502.251027704197
 20
-535.1576526376782
 30
0.0
 11
-1500.142780224755
 21
-535.2312742618701
 31
0.0
  0
LINE
  5
229
330
1F
100
AcDbEntity
  8
0
  6
CONTINUOUS
 62
     7
100
AcDbLine
 10
-1500.142780224755
 20
-567.476534987376
 30
0.0
 11
-1502.251027704193
 21
-567.5501566115662
 31
0.0
  0
ARC
  5
22A
330
1F
100
AcDbEntity
  8
0
  6
CONTINUOUS
 62
     7
100
AcDbCircle
 10
-1502.233577955857
 20
-579.6838520250762
 30
0.0
 40
0.5000000000000667
100
AcDbArc
 50
91.99999999828593
 51
177.0151102022673
  0
ARC
  5
22B
330
1F
100
AcDbEntity
  8
0
  6
CONTINUOUS
 62
     7
100
AcDbCircle
 10
-1502.233577955857
 20
-575.8058520250762
 30
0.0
 40
0.4999999999999558
100
AcDbArc
 50
91.99999999828593
 51
177.0151102022641
  0
LINE
  5
22C
330
1F
100
AcDbEntity
  8
0
  6
CONTINUOUS
 62
     7
100
AcDbLine
 10
-1500.142780224756
 20
-524.8185349873761
 30
0.0
 11
-1502.251027704194
 21
-524.8921566115661
 31
0.0
  0
LINE
  5
22D
330
1F
100
AcDbEntity
  8
0
  6
CONTINUOUS
 62
     7
100
AcDbLine
 10
-1500.142780224756
 20
-528.6965349873761
 30
0.0
 11
-1502.251027704194
 21
-528.7701566115661
 31
0.0
  0
LINE
  5
22E
330
1F
100
AcDbEntity
  8
0
  6
CONTINUOUS
 62
     7
100
AcDbLine
 10
-1502.251027704197
 20
-515.7676526376783
 30
0.0
 11
-1500.142780224756
 21
-515.8412742618701
 31
0.0
  0
LINE
  5
22F
330
1F
100
AcDbEntity
  8
0
  6
CONTINUOUS
 62
     7
100
AcDbLine
 10
-1502.251027704197
 20
-523.5236526376783
 30
0.0
 11
-1500.142780224755
 21
-523.5972742618701
 31
0.0
  0
LINE
  5
230
330
1F
100
AcDbEntity
  8
0
  6
CONTINUOUS
 62
     7
100
AcDbLine
 10
-1500.142780224756
 20
-555.8425349873761
 30
0.0
 11
-1502.251027704193
 21
-555.9161566115661
 31
0.0
  0
LINE
  5
231
330
1F
100
AcDbEntity
  8
0
  6
CONTINUOUS
 62
     7
100
AcDbLine
 10
-1502.251027704197
 20
-577.8156526376783
 30
0.0
 11
-1500.142780224755
 21
-577.8892742618702
 31
0.0
  0
LINE
  5
232
330
1F
100
AcDbEntity
  8
0
  6
CONTINUOUS
 62
     7
100
AcDbLine
 10
-1502.251027704196
 20
-562.3036526376783
 30
0.0
 11
-1500.142780224755
 21
-562.3772742618701
 31
0.0
  0
ARC
  5
233
330
1F
100
AcDbEntity
  8
0
  6
CONTINUOUS
 62
     7
100
AcDbCircle
 10
1500.153250073758
 20
-504.5070915099762
 30
0.0
 40
0.2999999999999735
210
0.0
220
0.0
230
-1.0
100
AcDbArc
 50
91.99999999828462
 51
180.0
  0
LINE
  5
234
330
1F
100
AcDbEntity
  8
0
  6
CONTINUOUS
 62
     7
100
AcDbLine
 10
-1502.251027704197
 20
-531.2796526376783
 30
0.0
 11
-1500.142780224755
 21
-531.3532742618701
 31
0.0
  0
ARC
  5
235
330
1F
100
AcDbEntity
  8
0
  6
CONTINUOUS
 62
     7
100
AcDbCircle
 10
-1502.233577955857
 20
-560.2938520250761
 30
0.0
 40
0.5000000000000667
100
AcDbArc
 50
91.99999999828593
 51
177.0151102022641
  0
LINE
  5
236
330
1F
100
AcDbEntity
  8
0
  6
CONTINUOUS
 62
     7
100
AcDbLine
 10
-1500.142780224756
 20
-513.1845349873762
 30
0.0
 11
-1502.251027704194
 21
-513.2581566115662
 31
0.0
  0
LINE
  5
237
330
1F
100
AcDbEntity
  8
0
  6
CONTINUOUS
 62
     7
100
AcDbLine
 10
-1500.142780224756
 20
-548.0865349873761
 30
0.0
 11
-1502.251027704194
 21
-548.1601566115661
 31
0.0
  0
LINE
  5
238
330
1F
100
AcDbEntity
  8
0
  6
CONTINUOUS
 62
     7
100
AcDbLine
 10
-1500.142780224757
 20
-551.964534987376
 30
0.0
 11
-1502.251027704193
 21
-552.038156611566
 31
0.0
  0
LINE
  5
239
330
1F
100
AcDbEntity
  8
0
  6
CONTINUOUS
 62
     7
100
AcDbLine
 10
-1502.251027704197
 20
-511.8896526376782
 30
0.0
 11
-1500.142780224756
 21
-511.9632742618701
 31
0.0
  0
LINE
  5
23A
330
1F
100
AcDbEntity
  8
0
  6
CONTINUOUS
 62
     7
100
AcDbLine
 10
-1500.142780224756
 20
-520.9405349873762
 30
0.0
 11
-1502.251027704194
 21
-521.0141566115661
 31
0.0
  0
ARC
  5
23B
330
1F
100
AcDbEntity
  8
0
  6
CONTINUOUS
 62
     7
100
AcDbCircle
 10
1500.153250073758
 20
-505.1287177392761
 30
0.0
 40
0.299999999999967
210
0.0
220
0.0
230
-1.0
100
AcDbArc
 50
180.0
 51
268.0000000017143
  0
ARC
  5
23C
330
1F
100
AcDbEntity
  8
0
  6
CONTINUOUS
 62
     7
100
AcDbCircle
 10
1500.153250073758
 20
-512.2630915099762
 30
0.0
 40
0.2999999999999735
210
0.0
220
0.0
230
-1.0
100
AcDbArc
 50
91.99999999828462
 51
180.0
  0
LINE
  5
23D
330
1F
100
AcDbEntity
  8
0
  6
CONTINUOUS
 62
     7
100
AcDbLine
 10
-1500.142780224755
 20
-575.2325349873761
 30
0.0
 11
-1502.251027704193
 21
-575.3061566115662
 31
0.0
  0
ARC
  5
23E
330
1F
100
AcDbEntity
  8
0
  6
CONTINUOUS
 62
     7
100
AcDbCircle
 10
1500.153250073757
 20
-520.640717739276
 30
0.0
 40
0.299999999999967
210
0.0
220
0.0
230
-1.0
100
AcDbArc
 50
180.0
 51
268.0000000017137
  0
LINE
  5
23F
330
1F
100
AcDbEntity
  8
0
  6
CONTINUOUS
 62
     7
100
AcDbLine
 10
-1500.142780224756
 20
-536.4525349873761
 30
0.0
 11
-1502.251027704194
 21
-536.5261566115661
 31
0.0
  0
ARC
  5
240
330
1F
100
AcDbEntity
  8
0
  6
CONTINUOUS
 62
     7
100
AcDbCircle
 10
1500.153250073757
 20
-524.5187177392761
 30
0.0
 40
0.299999999999967
210
0.0
220
0.0
230
-1.0
100
AcDbArc
 50
180.0
 51
268.0000000017143
  0
ARC
  5
241
330
1F
100
AcDbEntity
  8
0
  6
CONTINUOUS
 62
     7
100
AcDbCircle
 10
1500.153250073757
 20
-528.3967177392761
 30
0.0
 40
0.299999999999967
210
0.0
220
0.0
230
-1.0
100
AcDbArc
 50
180.0
 51
268.0000000017143
  0
ARC
  5
242
330
1F
100
AcDbEntity
  8
0
  6
CONTINUOUS
 62
     7
100
AcDbCircle
 10
-1502.233577955857
 20
-564.1718520250762
 30
0.0
 40
0.5000000000000667
100
AcDbArc
 50
91.99999999828593
 51
177.0151102022641
  0
ARC
  5
243
330
1F
100
AcDbEntity
  8
0
  6
CONTINUOUS
 62
     7
100
AcDbCircle
 10
1500.153250073757
 20
-531.6530915099762
 30
0.0
 40
0.3000000000000844
210
0.0
220
0.0
230
-1.0
100
AcDbArc
 50
91.99999999828462
 51
180.0
  0
LINE
  5
244
330
1F
100
AcDbEntity
  8
0
  6
CONTINUOUS
 62
     7
100
AcDbLine
 10
-1500.142780224756
 20
-532.5745349873761
 30
0.0
 11
-1502.251027704194
 21
-532.6481566115662
 31
0.0
  0
ARC
  5
245
330
1F
100
AcDbEntity
  8
0
  6
CONTINUOUS
 62
     7
100
AcDbCircle
 10
-1502.233577955857
 20
-502.1238520250761
 30
0.0
 40
0.5000000000000667
100
AcDbArc
 50
91.99999999828593
 51
177.0151102022673
  0
ARC
  5
246
330
1F
100
AcDbEntity
  8
0
  6
CONTINUOUS
 62
     7
100
AcDbCircle
 10
1500.153250073757
 20
-497.372717739276
 30
0.0
 40
0.299999999999967
210
0.0
220
0.0
230
-1.0
100
AcDbArc
 50
180.0
 51
268.0000000017143
  0
ARC
  5
247
330
1F
100
AcDbEntity
  8
0
  6
CONTINUOUS
 62
     7
100
AcDbCircle
 10
1500.153250073757
 20
-543.9087177392762
 30
0.0
 40
0.299999999999967
210
0.0
220
0.0
230
-1.0
100
AcDbArc
 50
180.0
 51
268.0000000017143
  0
ARC
  5
248
330
1F
100
AcDbEntity
  8
0
  6
CONTINUOUS
 62
     7
100
AcDbCircle
 10
1500.153250073757
 20
-547.1650915099762
 30
0.0
 40
0.2999999999999735
210
0.0
220
0.0
230
-1.0
100
AcDbArc
 50
91.99999999828462
 51
180.0
  0
ARC
  5
249
330
1F
100
AcDbEntity
  8
0
  6
CONTINUOUS
 62
     7
100
AcDbCircle
 10
1500.153250073757
 20
-551.0430915099762
 30
0.0
 40
0.3000000000000844
210
0.0
220
0.0
230
-1.0
100
AcDbArc
 50
91.99999999828462
 51
180.0
  0
ARC
  5
24A
330
1F
100
AcDbEntity
  8
0
  6
CONTINUOUS
 62
     7
100
AcDbCircle
 10
1500.153250073757
 20
-563.2987177392761
 30
0.0
 40
0.299999999999967
210
0.0
220
0.0
230
-1.0
100
AcDbArc
 50
180.0
 51
268.0000000017143
  0
ARC
  5
24B
330
1F
100
AcDbEntity
  8
0
  6
CONTINUOUS
 62
     7
100
AcDbCircle
 10
1500.153250073757
 20
-578.189091509976
 30
0.0
 40
0.2999999999999735
210
0.0
220
0.0
230
-1.0
100
AcDbArc
 50
91.99999999828462
 51
180.0
  0
LINE
  5
24C
330
1F
100
AcDbEntity
  8
0
  6
CONTINUOUS
 62
     7
100
AcDbLine
 10
-1499.853250073757
 20
-527.7750915099762
 30
0.0
 11
-1499.853250073757
 21
-528.3967177392761
 31
0.0
  0
LINE
  5
24D
330
1F
100
AcDbEntity
  8
0
  6
CONTINUOUS
 62
     7
100
AcDbLine
 10
-1499.853250073758
 20
-508.3850915099761
 30
0.0
 11
-1499.853250073758
 21
-509.0067177392761
 31
0.0
  0
LINE
  5
24E
330
1F
100
AcDbEntity
  8
0
  6
CONTINUOUS
 62
     7
100
AcDbLine
 10
-1499.853250073758
 20
-512.2630915099762
 30
0.0
 11
-1499.853250073758
 21
-512.8847177392761
 31
0.0
  0
ARC
  5
24F
330
1F
100
AcDbEntity
  8
0
  6
CONTINUOUS
 62
     7
100
AcDbCircle
 10
1500.153250073757
 20
-555.5427177392762
 30
0.0
 40
0.299999999999967
210
0.0
220
0.0
230
-1.0
100
AcDbArc
 50
180.0
 51
268.0000000017143
  0
ARC
  5
250
330
1F
100
AcDbEntity
  8
0
  6
CONTINUOUS
 62
     7
100
AcDbCircle
 10
1500.153250073757
 20
-567.1767177392761
 30
0.0
 40
0.299999999999967
210
0.0
220
0.0
230
-1.0
100
AcDbArc
 50
180.0
 51
268.0000000017143
  0
LINE
  5
251
330
1F
100
AcDbEntity
  8
0
  6
CONTINUOUS
 62
     7
100
AcDbLine
 10
-1499.853250073757
 20
-523.8970915099761
 30
0.0
 11
-1499.853250073757
 21
-524.5187177392761
 31
0.0
  0
LINE
  5
252
330
1F
100
AcDbEntity
  8
0
  6
CONTINUOUS
 62
     7
100
AcDbLine
 10
-1499.853250073757
 20
-535.5310915099761
 30
0.0
 11
-1499.853250073757
 21
-536.1527177392762
 31
0.0
  0
LINE
  5
253
330
1F
100
AcDbEntity
  8
0
  6
CONTINUOUS
 62
     7
100
AcDbLine
 10
-1499.853250073757
 20
-539.4090915099762
 30
0.0
 11
-1499.853250073757
 21
-540.0307177392762
 31
0.0
  0
LINE
  5
254
330
1F
100
AcDbEntity
  8
0
  6
CONTINUOUS
 62
     7
100
AcDbLine
 10
-1499.853250073757
 20
-551.0430915099762
 30
0.0
 11
-1499.853250073757
 21
-551.6647177392762
 31
0.0
  0
LINE
  5
255
330
1F
100
AcDbEntity
  8
0
  6
CONTINUOUS
 62
     7
100
AcDbLine
 10
-1499.853250073757
 20
-566.5550915099761
 30
0.0
 11
-1499.853250073757
 21
-567.1767177392761
 31
0.0
  0
ARC
  5
256
330
1F
100
AcDbEntity
  8
0
  6
CONTINUOUS
 62
     7
100
AcDbCircle
 10
1500.153250073757
 20
-543.2870915099761
 30
0.0
 40
0.2999999999999735
210
0.0
220
0.0
230
-1.0
100
AcDbArc
 50
91.99999999828462
 51
180.0
  0
LINE
  5
257
330
1F
100
AcDbEntity
  8
0
  6
CONTINUOUS
 62
     7
100
AcDbLine
 10
-1499.853250073757
 20
-574.3110915099761
 30
0.0
 11
-1499.853250073757
 21
-574.9327177392761
 31
0.0
  0
LINE
  5
258
330
1F
100
AcDbEntity
  8
0
  6
CONTINUOUS
 62
     7
100
AcDbLine
 10
-1499.853250073758
 20
-504.5070915099762
 30
0.0
 11
-1499.853250073758
 21
-505.1287177392761
 31
0.0
  0
ARC
  5
259
330
1F
100
AcDbEntity
  8
0
  6
CONTINUOUS
 62
     7
100
AcDbCircle
 10
-1502.233577955857
 20
-495.8779572240761
 30
0.0
 40
0.5000000000001101
100
AcDbArc
 50
182.9841607580325
 51
268.0000000017159
  0
ARC
  5
25A
330
1F
100
AcDbEntity
  8
0
  6
CONTINUOUS
 62
     7
100
AcDbCircle
 10
1500.153250073757
 20
-562.6770915099761
 30
0.0
 40
0.2999999999999735
210
0.0
220
0.0
230
-1.0
100
AcDbArc
 50
91.99999999828462
 51
180.0
  0
ARC
  5
25B
330
1F
100
AcDbEntity
  8
0
  6
CONTINUOUS
 62
     7
100
AcDbCircle
 10
1500.153250073757
 20
-574.3110915099761
 30
0.0
 40
0.2999999999999735
210
0.0
220
0.0
230
-1.0
100
AcDbArc
 50
91.99999999828462
 51
180.0
  0
LINE
  5
25C
330
1F
100
AcDbEntity
  8
0
  6
CONTINUOUS
 62
     7
100
AcDbLine
 10
-1499.853250073757
 20
-558.7990915099762
 30
0.0
 11
-1499.853250073757
 21
-559.4207177392761
 31
0.0
  0
ARC
  5
25D
330
1F
100
AcDbEntity
  8
0
  6
CONTINUOUS
 62
     7
100
AcDbCircle
 10
-1487.753250073756
 20
-502.8789046245759
 30
0.0
 40
15.00000000000015
100
AcDbArc
 50
177.0151102022622
 51
180.0000000000009
  0
ARC
  5
25E
330
1F
100
AcDbEntity
  8
0
  6
CONTINUOUS
 62
     7
100
AcDbCircle
 10
-1502.233577955857
 20
-499.755957224076
 30
0.0
 40
0.4999999999998913
100
AcDbArc
 50
182.9841607580358
 51
268.000000001716
  0
LINE
  5
25F
330
1F
100
AcDbEntity
  8
0
  6
CONTINUOUS
 62
     7
100
AcDbLine
 10
-1502.251027704196
 20
-496.3776526376782
 30
0.0
 11
-1500.142780224755
 21
-496.4512742618701
 31
0.0
  0
LINE
  5
260
330
1F
100
AcDbEntity
  8
0
  6
CONTINUOUS
 62
     7
100
AcDbLine
 10
-1500.142780224755
 20
-497.6725349873761
 30
0.0
 11
-1502.251027704193
 21
-497.7461566115661
 31
0.0
  0
ARC
  5
261
330
1F
100
AcDbEntity
  8
0
  6
CONTINUOUS
 62
     7
100
AcDbCircle
 10
1500.153250073757
 20
-551.6647177392762
 30
0.0
 40
0.299999999999967
210
0.0
220
0.0
230
-1.0
100
AcDbArc
 50
180.0
 51
268.0000000017143
  0
LINE
  5
262
330
1F
100
AcDbEntity
  8
0
  6
CONTINUOUS
 62
     7
100
AcDbLine
 10
-1499.853250073757
 20
-516.1410915099763
 30
0.0
 11
-1499.853250073757
 21
-516.7627177392761
 31
0.0
  0
LINE
  5
263
330
1F
100
AcDbEntity
  8
0
  6
CONTINUOUS
 62
     7
100
AcDbLine
 10
-1499.853250073757
 20
-543.2870915099761
 30
0.0
 11
-1499.853250073757
 21
-543.9087177392762
 31
0.0
  0
ARC
  5
264
330
1F
100
AcDbEntity
  8
0
  6
CONTINUOUS
 62
     7
100
AcDbCircle
 10
1500.153250073757
 20
-559.4207177392761
 30
0.0
 40
0.299999999999967
210
0.0
220
0.0
230
-1.0
100
AcDbArc
 50
180.0
 51
268.0000000017137
  0
ARC
  5
265
330
1F
100
AcDbEntity
  8
0
  6
CONTINUOUS
 62
     7
100
AcDbCircle
 10
1500.153250073757
 20
-539.4090915099762
 30
0.0
 40
0.2999999999999735
210
0.0
220
0.0
230
-1.0
100
AcDbArc
 50
91.99999999828431
 51
180.0
  0
ARC
  5
266
330
1F
100
AcDbEntity
  8
0
  6
CONTINUOUS
 62
     7
100
AcDbCircle
 10
1500.153250073757
 20
-558.7990915099762
 30
0.0
 40
0.2999999999999735
210
0.0
220
0.0
230
-1.0
100
AcDbArc
 50
91.99999999828462
 51
180.0
  0
LINE
  5
267
330
1F
100
AcDbEntity
  8
0
  6
CONTINUOUS
 62
     7
100
AcDbLine
 10
-1499.853250073757
 20
-554.9210915099761
 30
0.0
 11
-1499.853250073757
 21
-555.5427177392762
 31
0.0
  0
LINE
  5
268
330
1F
100
AcDbEntity
  8
0
  6
CONTINUOUS
 62
     7
100
AcDbLine
 10
-1499.853250073757
 20
-570.4330915099762
 30
0.0
 11
-1499.853250073757
 21
-571.0547177392762
 31
0.0
  0
LINE
  5
269
330
1F
100
AcDbEntity
  8
0
  6
CONTINUOUS
 62
     7
100
AcDbLine
 10
-1499.853250073757
 20
-578.189091509976
 30
0.0
 11
-1499.853250073757
 21
-578.8107177392761
 31
0.0
  0
LINE
  5
26A
330
1F
100
AcDbEntity
  8
0
  6
CONTINUOUS
 62
     7
100
AcDbLine
 10
-1499.853250073757
 20
-531.6530915099762
 30
0.0
 11
-1499.853250073757
 21
-532.2747177392762
 31
0.0
  0
LINE
  5
26B
330
1F
100
AcDbEntity
  8
0
  6
CONTINUOUS
 62
     7
100
AcDbLine
 10
-1499.853250073757
 20
-520.0190915099762
 30
0.0
 11
-1499.853250073757
 21
-520.640717739276
 31
0.0
  0
ARC
  5
26C
330
1F
100
AcDbEntity
  8
0
  6
CONTINUOUS
 62
     7
100
AcDbCircle
 10
-1502.233577955857
 20
-491.9999572240761
 30
0.0
 40
0.5000000000001101
100
AcDbArc
 50
182.9841607580325
 51
268.0000000017159
  0
ARC
  5
26D
330
1F
100
AcDbEntity
  8
0
  6
CONTINUOUS
 62
     7
100
AcDbCircle
 10
-1502.233577955857
 20
-498.2458520250761
 30
0.0
 40
0.4999999999999558
100
AcDbArc
 50
91.99999999828593
 51
177.0151102022641
  0
ARC
  5
26E
330
1F
100
AcDbEntity
  8
0
  6
CONTINUOUS
 62
     7
100
AcDbCircle
 10
1500.153250073757
 20
-578.8107177392761
 30
0.0
 40
0.299999999999967
210
0.0
220
0.0
230
-1.0
100
AcDbArc
 50
180.0
 51
268.0000000017143
  0
ARC
  5
26F
330
1F
100
AcDbEntity
  8
0
  6
CONTINUOUS
 62
     7
100
AcDbCircle
 10
1500.153250073757
 20
-540.0307177392762
 30
0.0
 40
0.299999999999967
210
0.0
220
0.0
230
-1.0
100
AcDbArc
 50
180.0
 51
268.0000000017143
  0
ARC
  5
270
330
1F
100
AcDbEntity
  8
0
  6
CONTINUOUS
 62
     7
100
AcDbCircle
 10
-1487.753250073757
 20
-499.0009046245759
 30
0.0
 40
14.99999999999994
100
AcDbArc
 50
177.0151102022622
 51
182.9848654964161
  0
LINE
  5
271
330
1F
100
AcDbEntity
  8
0
  6
CONTINUOUS
 62
     7
100
AcDbLine
 10
-1502.251027704196
 20
-492.4996526376783
 30
0.0
 11
-1500.142780224755
 21
-492.57327426187
 31
0.0
  0
LINE
  5
272
330
1F
100
AcDbEntity
  8
0
  6
CONTINUOUS
 62
     7
100
AcDbLine
 10
-1500.142780224755
 20
-493.794534987376
 30
0.0
 11
-1502.251027704193
 21
-493.868156611566
 31
0.0
  0
ARC
  5
273
330
1F
100
AcDbEntity
  8
0
  6
CONTINUOUS
 62
     7
100
AcDbCircle
 10
-1487.753250073757
 20
-495.1229046245759
 30
0.0
 40
14.99999999999994
100
AcDbArc
 50
177.0151102022622
 51
182.9848654964161
  0
LINE
  5
274
330
1F
100
AcDbEntity
  8
0
  6
CONTINUOUS
 62
     7
100
AcDbLine
 10
-1502.251027704197
 20
-500.2556526376782
 30
0.0
 11
-1500.142780224755
 21
-500.3292742618701
 31
0.0
  0
ARC
  5
275
330
1F
100
AcDbEntity
  8
0
  6
CONTINUOUS
 62
     7
100
AcDbCircle
 10
1500.153250073757
 20
-566.5550915099761
 30
0.0
 40
0.2999999999999735
210
0.0
220
0.0
230
-1.0
100
AcDbArc
 50
91.99999999828431
 51
180.0
  0
ARC
  5
276
330
1F
100
AcDbEntity
  8
0
  6
CONTINUOUS
 62
     7
100
AcDbCircle
 10
1500.153250073757
 20
-571.0547177392762
 30
0.0
 40
0.299999999999967
210
0.0
220
0.0
230
-1.0
100
AcDbArc
 50
180.0
 51
268.0000000017143
  0
ARC
  5
277
330
1F
100
AcDbEntity
  8
0
  6
CONTINUOUS
 62
     7
100
AcDbCircle
 10
1500.153250073757
 20
-554.9210915099761
 30
0.0
 40
0.2999999999999735
210
0.0
220
0.0
230
-1.0
100
AcDbArc
 50
91.99999999828398
 51
180.0
  0
ARC
  5
278
330
1F
100
AcDbEntity
  8
0
  6
CONTINUOUS
 62
     7
100
AcDbCircle
 10
-1487.753250073757
 20
-491.2449046245759
 30
0.0
 40
15.00000000000012
100
AcDbArc
 50
182.0650801722793
 51
182.984865496416
  0
ARC
  5
279
330
1F
100
AcDbEntity
  8
0
  6
CONTINUOUS
 62
     7
100
AcDbCircle
 10
-1502.233577955857
 20
-494.3678520250762
 30
0.0
 40
0.5000000000000667
100
AcDbArc
 50
91.99999999828593
 51
177.0151102022641
  0
LINE
  5
27A
330
1F
100
AcDbEntity
  8
0
  6
CONTINUOUS
 62
     7
100
AcDbLine
 10
-1500.142780224756
 20
-501.5505349873761
 30
0.0
 11
-1502.251027704193
 21
-501.624156611566
 31
0.0
  0
ARC
  5
27B
330
1F
100
AcDbEntity
  8
0
  6
CONTINUOUS
 62
     7
100
AcDbCircle
 10
1500.153250073757
 20
-547.7867177392761
 30
0.0
 40
0.299999999999967
210
0.0
220
0.0
230
-1.0
100
AcDbArc
 50
180.0
 51
268.0000000017137
  0
ARC
  5
27C
330
1F
100
AcDbEntity
  8
0
  6
CONTINUOUS
 62
     7
100
AcDbCircle
 10
1500.153250073757
 20
-492.8730915099761
 30
0.0
 40
0.3000000000000289
210
0.0
220
0.0
230
-1.0
100
AcDbArc
 50
91.99999999828462
 51
93.28013022012158
  0
ARC
  5
27D
330
1F
100
AcDbEntity
  8
0
  6
CONTINUOUS
 62
     7
100
AcDbCircle
 10
1500.153250073757
 20
-492.8730915099761
 30
0.0
 40
0.2999999999999389
210
0.0
220
0.0
230
-1.0
100
AcDbArc
 50
128.2868629650736
 51
180.0
  0
ARC
  5
27E
330
1F
100
AcDbEntity
  8
0
  6
CONTINUOUS
 62
     7
100
AcDbCircle
 10
1500.153250073757
 20
-496.7510915099761
 30
0.0
 40
0.2999999999999735
210
0.0
220
0.0
230
-1.0
100
AcDbArc
 50
91.99999999828462
 51
180.0
  0
ARC
  5
27F
330
1F
100
AcDbEntity
  8
0
  6
CONTINUOUS
 62
     7
100
AcDbCircle
 10
1500.153250073757
 20
-536.1527177392762
 30
0.0
 40
0.299999999999967
210
0.0
220
0.0
230
-1.0
100
AcDbArc
 50
180.0
 51
268.0000000017143
  0
LINE
  5
280
330
1F
100
AcDbEntity
  8
0
  6
CONTINUOUS
 62
     7
100
AcDbLine
 10
-1499.853250073757
 20
-547.1650915099762
 30
0.0
 11
-1499.853250073757
 21
-547.7867177392761
 31
0.0
  0
ARC
  5
281
330
1F
100
AcDbEntity
  8
0
  6
CONTINUOUS
 62
     7
100
AcDbCircle
 10
1500.153250073757
 20
-493.4947177392761
 30
0.0
 40
0.299999999999967
210
0.0
220
0.0
230
-1.0
100
AcDbArc
 50
180.0
 51
268.0000000017143
  0
ARC
  5
282
330
1F
100
AcDbEntity
  8
0
  6
CONTINUOUS
 62
     7
100
AcDbCircle
 10
1500.153250073757
 20
-574.9327177392761
 30
0.0
 40
0.299999999999967
210
0.0
220
0.0
230
-1.0
100
AcDbArc
 50
180.0
 51
268.0000000017143
  0
LINE
  5
283
330
1F
100
AcDbEntity
  8
0
  6
CONTINUOUS
 62
     7
100
AcDbLine
 10
-1499.853250073757
 20
-562.6770915099761
 30
0.0
 11
-1499.853250073757
 21
-563.2987177392761
 31
0.0
  0
ARC
  5
284
330
1F
100
AcDbEntity
  8
0
  6
CONTINUOUS
 62
     7
100
AcDbCircle
 10
1500.153250073757
 20
-570.4330915099762
 30
0.0
 40
0.3000000000000844
210
0.0
220
0.0
230
-1.0
100
AcDbArc
 50
91.99999999828462
 51
180.0
  0
LINE
  5
285
330
1F
100
AcDbEntity
  8
0
  6
CONTINUOUS
 62
     7
100
AcDbLine
 10
-883.3874509479102
 20
1060.261095375424
 30
0.0
 11
-883.6040913550888
 21
1060.261095375424
 31
0.0
  0
LINE
  5
286
330
1F
100
AcDbEntity
  8
0
  6
CONTINUOUS
 62
     7
100
AcDbLine
 10
-883.6040913550888
 20
1061.261095375424
 30
0.0
 11
-883.3874509479102
 21
1061.261095375424
 31
0.0
  0
ARC
  5
287
330
1F
100
AcDbEntity
  8
0
  6
CONTINUOUS
 62
     7
100
AcDbCircle
 10
-889.3263060564307
 20
1060.761095375424
 30
0.0
 40
6.079473661428183
100
AcDbArc
 50
340.2600401879658
 51
347.6528527105329
  0
LINE
  5
288
330
1F
100
AcDbEntity
  8
0
  6
CONTINUOUS
 62
     7
100
AcDbLine
 10
-884.2938314339671
 20
1068.185404494656
 30
0.0
 11
-884.3115412552447
 21
1067.170809513182
 31
0.0
  0
LINE
  5
289
330
1F
100
AcDbEntity
  8
0
  6
CONTINUOUS
 62
     7
100
AcDbLine
 10
-1454.449560131269
 20
1082.780898987824
 30
0.0
 11
-1454.449457653721
 21
1082.784069746459
 31
0.0
  0
LINE
  5
28A
330
1F
100
AcDbEntity
  8
0
  6
CONTINUOUS
 62
     7
100
AcDbLine
 10
-885.1028984103231
 20
1066.958064831789
 30
0.0
 11
-885.2190747361581
 21
1066.978549852553
 31
0.0
  0
ARC
  5
28B
330
1F
100
AcDbEntity
  8
0
  6
CONTINUOUS
 62
     7
100
AcDbCircle
 10
1500.153250073757
 20
-501.2507177392761
 30
0.0
 40
0.299999999999967
210
0.0
220
0.0
230
-1.0
100
AcDbArc
 50
180.0
 51
268.0000000017143
  0
LINE
  5
28C
330
1F
100
AcDbEntity
  8
0
  6
CONTINUOUS
 62
     7
100
AcDbLine
 10
-1454.735484107679
 20
-717.2389046245764
 30
0.0
 11
-1454.735484107679
 21
1082.496604904361
 31
0.0
  0
LWPOLYLINE
  5
28D
330
1F
100
AcDbEntity
  8
0
  6
CONTINUOUS
 62
     7
100
AcDbPolyline
 90
        3
 70
     0
 43
0.0
 10
-883.3874509479102
 20
1061.261095375424
 10
-883.3257690409656
 20
1061.356243038197
 42
0.0808323380517169
 10
-883.3874509479102
 20
1062.061095375424
  0
LINE
  5
28E
330
1F
100
AcDbEntity
  8
0
  6
CONTINUOUS
 62
     7
100
AcDbLine
 10
-976.7288590546543
 20
975.0110953753252
 30
0.0
 11
-976.7288590546543
 21
967.0110953753252
 31
0.0
  0
LINE
  5
28F
330
1F
100
AcDbEntity
  8
0
  6
CONTINUOUS
 62
     7
100
AcDbLine
 10
-922.4076379428459
 20
-717.2389046245764
 30
0.0
 11
-950.7263060564305
 21
-717.2389046245764
 31
0.0
  0
ARC
  5
290
330
1F
100
AcDbEntity
  8
0
  6
CONTINUOUS
 62
     7
100
AcDbCircle
 10
-1501.214827473663
 20
986.4276441182702
 30
0.0
 40
0.9999999999998899
100
AcDbArc
 50
90.00000000024123
 51
180.0000000002418
  0
LINE
  5
291
330
1F
100
AcDbEntity
  8
0
  6
CONTINUOUS
 62
     7
100
AcDbLine
 10
-973.8551927518635
 20
1087.177488923989
 30
0.0
 11
-972.8983319449212
 21
1087.008768546943
 31
0.0
  0
ARC
  5
292
330
1F
100
AcDbEntity
  8
0
  6
CONTINUOUS
 62
     7
100
AcDbCircle
 10
-974.0288409295305
 20
1086.192681170977
 30
0.0
 40
0.9999999999999278
100
AcDbArc
 50
79.99999999999542
 51
180.9999999999916
  0
LINE
  5
293
330
1F
100
AcDbEntity
  8
0
  6
CONTINUOUS
 62
     7
100
AcDbLine
 10
-1504.275137735464
 20
986.427644118342
 30
0.0
 11
-1504.275137735438
 21
980.3371005853307
 31
0.0
  0
LINE
  5
294
330
1F
100
AcDbEntity
  8
0
  6
CONTINUOUS
 62
     7
100
AcDbLine
 10
-1454.446629578497
 20
1083.902238975195
 30
0.0
 11
-1454.409576352385
 21
1086.046083754014
 31
0.0
  0
LINE
  5
295
330
1F
100
AcDbEntity
  8
0
  6
CONTINUOUS
 62
     7
100
AcDbLine
 10
-1560.555509416219
 20
1082.799350134685
 30
0.0
 11
-1560.476115890093
 21
1082.569151202484
 31
0.0
  0
LINE
  5
296
330
1F
100
AcDbEntity
  8
0
  6
CONTINUOUS
 62
     7
100
AcDbLine
 10
-1499.853250073757
 20
-500.629091509976
 30
0.0
 11
-1499.853250073757
 21
-501.2507177392761
 31
0.0
  0
LINE
  5
297
330
1F
100
AcDbEntity
  8
0
  6
CONTINUOUS
 62
     7
100
AcDbLine
 10
-1560.559663457732
 20
1083.901493926884
 30
0.0
 11
-1560.540962867509
 21
1082.823192342441
 31
0.0
  0
LINE
  5
298
330
1F
100
AcDbEntity
  8
0
  6
CONTINUOUS
 62
     7
100
AcDbLine
 10
-1456.22963853059
 20
1087.192681170977
 30
0.0
 11
-1558.776861645182
 21
1087.192681170977
 31
0.0
  0
LINE
  5
299
330
1F
100
AcDbEntity
  8
0
  6
CONTINUOUS
 62
     7
100
AcDbLine
 10
-1560.476025635073
 20
1082.569040112044
 30
0.0
 11
-1560.271016039996
 21
1082.316833252929
 31
0.0
  0
ARC
  5
29A
330
1F
100
AcDbEntity
  8
0
  6
CONTINUOUS
 62
     7
100
AcDbCircle
 10
-889.3263060564307
 20
1060.761095375424
 30
0.0
 40
6.079473661428223
100
AcDbArc
 50
12.34714728946723
 51
19.73995981203429
  0
LINE
  5
29B
330
1F
100
AcDbEntity
  8
0
  6
CONTINUOUS
 62
     7
100
AcDbLine
 10
-1499.853250073757
 20
-496.7510915099761
 30
0.0
 11
-1499.853250073757
 21
-497.372717739276
 31
0.0
  0
LINE
  5
29C
330
1F
100
AcDbEntity
  8
0
  6
CONTINUOUS
 62
     7
100
AcDbLine
 10
-1560.271016039996
 20
1082.496604904361
 30
0.0
 11
-1560.271016039996
 21
-717.2389046245764
 31
0.0
  0
LINE
  5
29D
330
1F
100
AcDbEntity
  8
0
  6
CONTINUOUS
 62
     7
100
AcDbLine
 10
-1503.003250073808
 20
980.6779018571336
 30
0.0
 11
-1505.432659596356
 21
980.0269435374713
 31
0.0
  0
LINE
  5
29E
330
1F
100
AcDbEntity
  8
0
  6
CONTINUOUS
 62
     7
100
AcDbLine
 10
-1454.465534053286
 20
1082.823308771301
 30
0.0
 11
-1454.446835467315
 21
1083.901622260885
 31
0.0
  0
LINE
  5
29F
330
1F
100
AcDbEntity
  8
0
  6
CONTINUOUS
 62
     7
100
AcDbLine
 10
-974.9938314339545
 20
1084.178261644921
 30
0.0
 11
-975.0286886246867
 21
1086.17522876454
 31
0.0
  0
ARC
  5
2A0
330
1F
100
AcDbEntity
  8
0
  6
CONTINUOUS
 62
     7
100
AcDbCircle
 10
-1502.003250073836
 20
987.4276441183307
 30
0.0
 40
0.9999999999998899
100
AcDbArc
 50
90.00000000024113
 51
180.0000000002418
  0
LINE
  5
2A1
330
1F
100
AcDbEntity
  8
0
  6
CONTINUOUS
 62
     7
100
AcDbLine
 10
-972.8983319449212
 20
1087.008768546943
 30
0.0
 11
-898.4556060496245
 21
1073.88250745411
 31
0.0
  0
LINE
  5
2A2
330
1F
100
AcDbEntity
  8
0
  6
CONTINUOUS
 62
     7
100
AcDbLine
 10
-898.5920452211981
 20
1069.336565361285
 30
0.0
 11
-958.9653864193597
 21
1079.982017166337
 31
0.0
  0
ARC
  5
2A3
330
1F
100
AcDbEntity
  8
0
  6
CONTINUOUS
 62
     7
100
AcDbCircle
 10
974.6742058545663
 20
1083.056531015116
 30
0.0
 40
0.2999999999997243
210
0.0
220
0.0
230
-1.0
100
AcDbArc
 50
279.9999999999961
 51
359.0000000000547
  0
LWPOLYLINE
  5
2A4
330
1F
100
AcDbEntity
  8
0
  6
CONTINUOUS
 62
     7
100
AcDbPolyline
 90
        3
 70
     0
 43
0.0
 10
-883.3874509479102
 20
1059.461095375424
 42
0.0776780398876257
 10
-883.3279791658928
 20
1060.176895368826
 10
-883.3874509479102
 20
1060.261095375424
  0
LWPOLYLINE
  5
2A5
330
1F
100
AcDbEntity
  8
0
  6
CONTINUOUS
 62
     7
100
AcDbPolyline
 90
        3
 70
     0
 43
0.0
 10
-1558.776861645149
 20
1087.185450503477
 42
0.1271320364430149
 10
-1560.126468027817
 20
1086.919632557406
 42
0.2546991711287046
 10
-1560.605217278131
 20
1086.040333002621
  0
LINE
  5
2A6
330
1F
100
AcDbEntity
  8
0
  6
CONTINUOUS
 62
     7
100
AcDbLine
 10
-976.4288590546543
 20
1058.511095375325
 30
0.0
 11
-976.4288590546543
 21
1050.511095375325
 31
0.0
  0
ARC
  5
2A7
330
1F
100
AcDbEntity
  8
0
  6
CONTINUOUS
 62
     7
100
AcDbCircle
 10
884.6114955637918
 20
1067.176045235114
 30
0.0
 40
0.3000000000002087
210
0.0
220
0.0
230
-1.0
100
AcDbArc
 50
181.0000000000289
 51
279.9999999999605
  0
LINE
  5
2A8
330
1F
100
AcDbEntity
  8
0
  6
CONTINUOUS
 62
     7
100
AcDbLine
 10
-884.2530523761304
 20
1070.521635153444
 30
0.0
 11
-884.2938314339671
 21
1068.185404494656
 31
0.0
  0
LINE
  5
2A9
330
1F
100
AcDbEntity
  8
0
  6
CONTINUOUS
 62
     7
100
AcDbLine
 10
-884.6635900170917
 20
1066.88060290921
 30
0.0
 11
-884.6990723193435
 21
1066.886859396435
 31
0.0
  0
LINE
  5
2AA
330
1F
100
AcDbEntity
  8
0
  6
CONTINUOUS
 62
     7
100
AcDbLine
 10
-1503.003250073836
 20
987.4276441183265
 30
0.0
 11
-1503.003250073808
 21
980.6779018571336
 31
0.0
  0
LINE
  5
2AB
330
1F
100
AcDbEntity
  8
0
  6
CONTINUOUS
 62
     7
100
AcDbLine
 10
-1454.530384288577
 20
1082.569151198867
 30
0.0
 11
-1454.449560131269
 21
1082.780898987824
 31
0.0
  0
ARC
  5
2AC
330
1F
100
AcDbEntity
  8
0
  6
CONTINUOUS
 62
     7
100
AcDbCircle
 10
-1503.275137735464
 20
986.4276441183462
 30
0.0
 40
0.9999999999998899
100
AcDbArc
 50
90.00000000024113
 51
180.0000000002418
  0
LINE
  5
2AD
330
1F
100
AcDbEntity
  8
0
  6
CONTINUOUS
 62
     7
100
AcDbLine
 10
-883.6040913550888
 20
1058.647742846444
 30
0.0
 11
-883.6040913550888
 21
1058.707742285537
 31
0.0
  0
LINE
  5
2AE
330
1F
100
AcDbEntity
  8
0
  6
CONTINUOUS
 62
     7
100
AcDbLine
 10
-976.4288590546543
 20
975.0110953753252
 30
0.0
 11
-976.4288590546543
 21
967.0110953753252
 31
0.0
  0
LINE
  5
2AF
330
1F
100
AcDbEntity
  8
0
  6
CONTINUOUS
 62
     7
100
AcDbLine
 10
-976.7288590546543
 20
1058.511095375325
 30
0.0
 11
-976.7288590546543
 21
1050.511095375325
 31
0.0
  0
LINE
  5
2B0
330
1F
100
AcDbEntity
  8
0
  6
CONTINUOUS
 62
     7
100
AcDbLine
 10
-974.9938314339545
 20
1084.178261644921
 30
0.0
 11
-974.9741601631131
 21
1083.051295293185
 31
0.0
  0
LINE
  5
2B1
330
1F
100
AcDbEntity
  8
0
  6
CONTINUOUS
 62
     7
100
AcDbLine
 10
-884.6990723193435
 20
1066.886859396435
 30
0.0
 11
-884.8434902439606
 21
1066.912324173042
 31
0.0
  0
LINE
  5
2B2
330
1F
100
AcDbEntity
  8
0
  6
CONTINUOUS
 62
     7
100
AcDbLine
 10
-884.9366372269756
 20
1066.92874849932
 30
0.0
 11
-885.1029838039
 21
1066.95807988898
 31
0.0
  0
LINE
  5
2B3
330
1F
100
AcDbEntity
  8
0
  6
CONTINUOUS
 62
     7
100
AcDbLine
 10
-885.7040829450576
 20
1067.064069885647
 30
0.0
 11
-898.5920452211981
 21
1069.336565361285
 31
0.0
  0
LINE
  5
2B4
330
1F
100
AcDbEntity
  8
0
  6
CONTINUOUS
 62
     7
100
AcDbLine
 10
-885.4733688982055
 20
1067.023388774358
 30
0.0
 11
-885.7041099057484
 21
1067.064074639544
 31
0.0
  0
LINE
  5
2B5
330
1F
100
AcDbEntity
  8
0
  6
CONTINUOUS
 62
     7
100
AcDbLine
 10
-1500.703250073798
 20
978.4276441182346
 30
0.0
 11
-1500.703250073797
 21
978.0799918455593
 31
0.0
  0
ARC
  5
2B6
330
1F
100
AcDbEntity
  8
0
  6
CONTINUOUS
 62
     7
100
AcDbCircle
 10
1500.153250073757
 20
-500.629091509976
 30
0.0
 40
0.2999999999999735
210
0.0
220
0.0
230
-1.0
100
AcDbArc
 50
91.99999999828462
 51
180.0
  0
ARC
  5
2B7
330
1F
100
AcDbEntity
  8
0
  6
CONTINUOUS
 62
     7
100
AcDbCircle
 10
885.2529000712867
 20
1070.539087559881
 30
0.0
 40
0.999999999999947
210
0.0
220
0.0
230
-1.0
100
AcDbArc
 50
100.000000000005
 51
181.0000000000043
  0
LINE
  5
2B8
330
1F
100
AcDbEntity
  8
0
  6
CONTINUOUS
 62
     7
100
AcDbLine
 10
-884.8594155816033
 20
1066.915132239746
 30
0.0
 11
-884.9366372269756
 21
1066.92874849932
 31
0.0
  0
LINE
  5
2B9
330
1F
100
AcDbEntity
  8
0
  6
CONTINUOUS
 62
     7
100
AcDbLine
 10
-885.2190747361581
 20
1066.978549852553
 30
0.0
 11
-885.4733688982055
 21
1067.023388774358
 31
0.0
  0
LWPOLYLINE
  5
2BA
330
1F
100
AcDbEntity
  8
0
  6
CONTINUOUS
 62
     7
100
AcDbPolyline
 90
        3
 70
     0
 43
0.0
 10
-1454.404542090839
 20
1086.042822259563
 42
0.3852819497793479
 10
-1455.397856568748
 20
1087.107559038982
 42
0.0535245372660657
 10
-1456.229638530585
 20
1087.185450503477
  0
LINE
  5
2BB
330
1F
100
AcDbEntity
  8
0
  6
CONTINUOUS
 62
     7
100
AcDbLine
 10
-883.6040913550888
 20
1060.261095375424
 30
0.0
 11
-883.6040913550888
 21
1061.261095375424
 31
0.0
  0
LINE
  5
2BC
330
1F
100
AcDbEntity
  8
0
  6
CONTINUOUS
 62
     7
100
AcDbLine
 10
-1499.853250073757
 20
-492.8730915099761
 30
0.0
 11
-1499.853250073757
 21
-493.4947177392761
 31
0.0
  0
ARC
  5
2BD
330
1F
100
AcDbEntity
  8
0
  6
CONTINUOUS
 62
     7
100
AcDbCircle
 10
-1505.303250073803
 20
979.5439806243273
 30
0.0
 40
0.4999999999999796
100
AcDbArc
 50
105.0000000002402
 51
180.0000000002544
  0
LINE
  5
2BE
330
1F
100
AcDbEntity
  8
0
  6
CONTINUOUS
 62
     7
100
AcDbLine
 10
-1502.214827473663
 20
986.427644118266
 30
0.0
 11
-1502.214827473638
 21
980.3487851473311
 31
0.0
  0
LINE
  5
2BF
330
1F
100
AcDbEntity
  8
0
  6
CONTINUOUS
 62
     7
100
AcDbLine
 10
-883.6040913550888
 20
1062.81444846531
 30
0.0
 11
-883.6040913550888
 21
1062.874447904404
 31
0.0
  0
LINE
  5
2C0
330
1F
100
AcDbEntity
  8
0
  6
CONTINUOUS
 62
     7
100
AcDbLine
 10
-1505.803250073803
 20
979.5439806243251
 30
0.0
 11
-1505.803250073798
 21
978.4276441183146
 31
0.0
  0
LINE
  5
2C1
330
1F
100
AcDbEntity
  8
0
  6
CONTINUOUS
 62
     7
100
AcDbLine
 10
-973.0347711165027
 20
1082.462826454119
 30
0.0
 11
-974.7263003078663
 21
1082.761088689212
 31
0.0
  0
LINE
  5
2C2
330
1F
100
AcDbEntity
  8
0
  6
CONTINUOUS
 62
     7
100
AcDbLine
 10
-898.4556060496245
 20
1073.88250745411
 30
0.0
 11
-885.0792518936198
 21
1071.523895312893
 31
0.0
  0
LINE
  5
2C3
330
1F
100
AcDbEntity
  8
0
  6
CONTINUOUS
 62
     7
100
AcDbLine
 10
-884.8434902439606
 20
1066.912324173042
 30
0.0
 11
-884.8594155816033
 21
1066.915132239746
 31
0.0
  0
LINE
  5
2C4
330
1F
100
AcDbEntity
  8
0
  6
CONTINUOUS
 62
     7
100
AcDbLine
 10
-908.7263060564306
 20
-717.2389046245764
 30
0.0
 11
-898.6103417014157
 21
-717.2389046245764
 31
0.0
  0
ARC
  5
2C5
330
1F
100
AcDbEntity
  8
0
  6
CONTINUOUS
 62
     7
100
AcDbCircle
 10
-937.2763060559224
 20
-704.5349046245739
 30
0.0
 40
15.00000000000003
100
AcDbArc
 50
357.0151345040433
 51
2.984889798197174
  0
LINE
  5
2C6
330
1F
100
AcDbEntity
  8
0
  6
CONTINUOUS
 62
     7
100
AcDbLine
 10
-908.7263060564306
 20
-717.2389046245764
 30
0.0
 11
-908.7263060564306
 21
-696.2389046245763
 31
0.0
  0
ARC
  5
2C7
330
1F
100
AcDbEntity
  8
0
  6
CONTINUOUS
 62
     7
100
AcDbCircle
 10
-937.2763060559535
 20
-700.6569046245738
 30
0.0
 40
15.00000000000003
100
AcDbArc
 50
357.0151345040431
 51
2.984889798197059
  0
ARC
  5
2C8
330
1F
100
AcDbEntity
  8
0
  6
CONTINUOUS
 62
     7
100
AcDbCircle
 10
-937.2763060559844
 20
-696.7789046245739
 30
0.0
 40
15.00000000000003
100
AcDbArc
 50
357.0151345040431
 51
2.984889798197059
  0
LINE
  5
2C9
330
1F
100
AcDbEntity
  8
0
  6
CONTINUOUS
 62
     7
100
AcDbLine
 10
-885.5715364656319
 20
1067.040704037719
 30
0.0
 11
-885.3717296859174
 21
1067.005472711527
 31
0.0
  0
LINE
  5
2CA
330
1F
100
AcDbEntity
  8
0
  6
CONTINUOUS
 62
     7
100
AcDbLine
 10
-885.1235401605053
 20
1066.961710201868
 30
0.0
 11
-884.9391906625069
 21
1066.92920441149
 31
0.0
  0
ARC
  5
2CB
330
1F
100
AcDbEntity
  8
0
  6
CONTINUOUS
 62
     7
100
AcDbCircle
 10
-929.7263060564305
 20
-696.2389046245763
 30
0.0
 40
21.0
100
AcDbArc
 50
0.0
 51
179.9999999999997
  0
ARC
  5
2CC
330
1F
100
AcDbEntity
  8
0
  6
CONTINUOUS
 62
     7
100
AcDbCircle
 10
-937.2763060560465
 20
-689.0229046245739
 30
0.0
 40
15.00000000000003
100
AcDbArc
 50
357.0151345040433
 51
2.984889798197174
  0
LINE
  5
2CD
330
1F
100
AcDbEntity
  8
0
  6
CONTINUOUS
 62
     7
100
AcDbLine
 10
-974.7263060564308
 20
1082.761095375424
 30
0.0
 11
-973.0118649124478
 21
1082.458793144903
 31
0.0
  0
LINE
  5
2CE
330
1F
100
AcDbEntity
  8
0
  6
CONTINUOUS
 62
     7
100
AcDbLine
 10
-884.7922537628141
 20
1066.903295471613
 30
0.0
 11
-884.7627678319458
 21
1066.89809630645
 31
0.0
  0
LINE
  5
2CF
330
1F
100
AcDbEntity
  8
0
  6
CONTINUOUS
 62
     7
100
AcDbLine
 10
-884.7627678319458
 20
1066.89809630645
 30
0.0
 11
-884.7263060564308
 21
1066.891667111662
 31
0.0
  0
ARC
  5
2D0
330
1F
100
AcDbEntity
  8
0
  6
CONTINUOUS
 62
     7
100
AcDbCircle
 10
-937.2763060558914
 20
-708.4129046245739
 30
0.0
 40
15.00000000000003
100
AcDbArc
 50
357.0151345040433
 51
2.984889798197174
  0
ARC
  5
2D1
330
1F
100
AcDbEntity
  8
0
  6
CONTINUOUS
 62
     7
100
AcDbCircle
 10
-889.3263060564307
 20
1060.761095375424
 30
0.0
 40
6.099999999999997
100
AcDbArc
 50
318.9466487637069
 51
339.7295903032089
  0
ARC
  5
2D2
330
1F
100
AcDbEntity
  8
0
  6
CONTINUOUS
 62
     7
100
AcDbCircle
 10
-937.2763060561085
 20
-681.266904624574
 30
0.0
 40
15.00000000000003
100
AcDbArc
 50
357.0151345040433
 51
2.984889798197174
  0
ARC
  5
2D3
330
1F
100
AcDbEntity
  8
0
  6
CONTINUOUS
 62
     7
100
AcDbCircle
 10
-922.7959781737543
 20
-713.045957223958
 30
0.0
 40
0.5000000000000951
100
AcDbArc
 50
271.9999999987431
 51
357.015839242429
  0
ARC
  5
2D4
330
1F
100
AcDbEntity
  8
0
  6
CONTINUOUS
 62
     7
100
AcDbCircle
 10
-922.7959781737853
 20
-709.1679572239581
 30
0.0
 40
0.4999999999999843
100
AcDbArc
 50
271.9999999987431
 51
357.015839242429
  0
ARC
  5
2D5
330
1F
100
AcDbEntity
  8
0
  6
CONTINUOUS
 62
     7
100
AcDbCircle
 10
-922.7959781738474
 20
-701.4119572239581
 30
0.0
 40
0.4999999999999843
100
AcDbArc
 50
271.9999999987431
 51
357.015839242429
  0
LINE
  5
2D6
330
1F
100
AcDbEntity
  8
0
  6
CONTINUOUS
 62
     7
100
AcDbLine
 10
-885.7991861086429
 20
1067.080844811931
 30
0.0
 11
-885.6037237106652
 21
1067.046379517453
 31
0.0
  0
LINE
  5
2D7
330
1F
100
AcDbEntity
  8
0
  6
CONTINUOUS
 62
     7
100
AcDbLine
 10
-973.0118649124477
 20
-717.2389046245764
 30
0.0
 11
-950.7263060564305
 21
-717.2389046245764
 31
0.0
  0
ARC
  5
2D8
330
1F
100
AcDbEntity
  8
0
  6
CONTINUOUS
 62
     7
100
AcDbCircle
 10
-937.2763060558603
 20
-712.2909046245738
 30
0.0
 40
14.99999999999992
100
AcDbArc
 50
357.0151345040431
 51
2.984889798197059
  0
LINE
  5
2D9
330
1F
100
AcDbEntity
  8
0
  6
CONTINUOUS
 62
     7
100
AcDbLine
 10
-885.6037237106652
 20
1067.046379517453
 30
0.0
 11
-885.5715364656319
 21
1067.040704037719
 31
0.0
  0
ARC
  5
2DA
330
1F
100
AcDbEntity
  8
0
  6
CONTINUOUS
 62
     7
100
AcDbCircle
 10
-922.7959781737233
 20
-716.923957223958
 30
0.0
 40
0.4999999999999753
100
AcDbArc
 50
320.9576384291328
 51
357.015839242429
  0
ARC
  5
2DB
330
1F
100
AcDbEntity
  8
0
  6
CONTINUOUS
 62
     7
100
AcDbCircle
 10
-922.7959781738783
 20
-697.533957223958
 30
0.0
 40
0.4999999999999843
100
AcDbArc
 50
271.9999999987431
 51
357.015839242429
  0
ARC
  5
2DC
330
1F
100
AcDbEntity
  8
0
  6
CONTINUOUS
 62
     7
100
AcDbCircle
 10
-922.7959781739095
 20
-693.6559572239581
 30
0.0
 40
0.4999999999999843
100
AcDbArc
 50
271.9999999987431
 51
357.015839242429
  0
LINE
  5
2DD
330
1F
100
AcDbEntity
  8
0
  6
CONTINUOUS
 62
     7
100
AcDbLine
 10
-976.4288590546543
 20
1058.511095375325
 30
0.0
 11
-976.7288590546543
 21
1058.511095375325
 31
0.0
  0
ARC
  5
2DE
330
1F
100
AcDbEntity
  8
0
  6
CONTINUOUS
 62
     7
100
AcDbCircle
 10
-922.7959781739714
 20
-685.899957223958
 30
0.0
 40
0.5000000000000951
100
AcDbArc
 50
271.9999999987431
 51
357.0158392424294
  0
ARC
  5
2DF
330
1F
100
AcDbEntity
  8
0
  6
CONTINUOUS
 62
     7
100
AcDbCircle
 10
-922.7959781740025
 20
-682.0219572239581
 30
0.0
 40
0.4999999999999843
100
AcDbArc
 50
271.9999999987431
 51
357.0158392424294
  0
LINE
  5
2E0
330
1F
100
AcDbEntity
  8
0
  6
CONTINUOUS
 62
     7
100
AcDbLine
 10
-976.7288590546543
 20
1050.511095375325
 30
0.0
 11
-976.4288590546543
 21
1050.511095375325
 31
0.0
  0
ARC
  5
2E1
330
1F
100
AcDbEntity
  8
0
  6
CONTINUOUS
 62
     7
100
AcDbCircle
 10
-922.7959781739404
 20
-689.7779572239581
 30
0.0
 40
0.4999999999999843
100
AcDbArc
 50
271.9999999987431
 51
357.015839242429
  0
ARC
  5
2E2
330
1F
100
AcDbEntity
  8
0
  6
CONTINUOUS
 62
     7
100
AcDbCircle
 10
-922.7959781737353
 20
-715.4138520249581
 30
0.0
 40
0.4999999999999923
100
AcDbArc
 50
2.984889798198539
 51
88.00000000217337
  0
ARC
  5
2E3
330
1F
100
AcDbEntity
  8
0
  6
CONTINUOUS
 62
     7
100
AcDbCircle
 10
-922.7959781738284
 20
-703.779852024958
 30
0.0
 40
0.4999999999999923
100
AcDbArc
 50
2.984889798198539
 51
88.00000000217337
  0
LINE
  5
2E4
330
1F
100
AcDbEntity
  8
0
  6
CONTINUOUS
 62
     7
100
AcDbLine
 10
-884.7263060564308
 20
1066.891667111662
 30
0.0
 11
-884.7263060564306
 21
-717.2389046245764
 31
0.0
  0
LINE
  5
2E5
330
1F
100
AcDbEntity
  8
0
  6
CONTINUOUS
 62
     7
100
AcDbLine
 10
-884.9391906625069
 20
1066.92920441149
 30
0.0
 11
-884.840267956717
 21
1066.911761669455
 31
0.0
  0
ARC
  5
2E6
330
1F
100
AcDbEntity
  8
0
  6
CONTINUOUS
 62
     7
100
AcDbCircle
 10
-937.2763060560154
 20
-692.9009046245739
 30
0.0
 40
14.99999999999992
100
AcDbArc
 50
357.0151345040433
 51
2.984889798197174
  0
ARC
  5
2E7
330
1F
100
AcDbEntity
  8
0
  6
CONTINUOUS
 62
     7
100
AcDbCircle
 10
-922.7959781738164
 20
-705.289957223958
 30
0.0
 40
0.4999999999999881
100
AcDbArc
 50
271.9999999987431
 51
357.015839242429
  0
ARC
  5
2E8
330
1F
100
AcDbEntity
  8
0
  6
CONTINUOUS
 62
     7
100
AcDbCircle
 10
-922.7959781737663
 20
-711.535852024958
 30
0.0
 40
0.4999999999999923
100
AcDbArc
 50
2.984889798198539
 51
88.00000000217346
  0
LINE
  5
2E9
330
1F
100
AcDbEntity
  8
0
  6
CONTINUOUS
 62
     7
100
AcDbLine
 10
-898.6103417014158
 20
1069.339797196991
 30
0.0
 11
-885.7991861086429
 21
1067.080844811931
 31
0.0
  0
ARC
  5
2EA
330
1F
100
AcDbEntity
  8
0
  6
CONTINUOUS
 62
     7
100
AcDbCircle
 10
-937.2763060560775
 20
-685.1449046245739
 30
0.0
 40
14.99999999999992
100
AcDbArc
 50
357.0151345040433
 51
2.984889798197174
  0
LINE
  5
2EB
330
1F
100
AcDbEntity
  8
0
  6
CONTINUOUS
 62
     7
100
AcDbLine
 10
-976.4288590546543
 20
967.0110953753252
 30
0.0
 11
-974.7263060564308
 21
968.7136483735487
 31
0.0
  0
LINE
  5
2EC
330
1F
100
AcDbEntity
  8
0
  6
CONTINUOUS
 62
     7
100
AcDbLine
 10
-976.7288590546543
 20
967.0110953753252
 30
0.0
 11
-976.4288590546543
 21
967.0110953753252
 31
0.0
  0
ARC
  5
2ED
330
1F
100
AcDbEntity
  8
0
  6
CONTINUOUS
 62
     7
100
AcDbCircle
 10
-922.7959781737974
 20
-707.6578520249581
 30
0.0
 40
0.4999999999999923
100
AcDbArc
 50
2.984889798198539
 51
88.00000000217257
  0
ARC
  5
2EE
330
1F
100
AcDbEntity
  8
0
  6
CONTINUOUS
 62
     7
100
AcDbCircle
 10
-889.3263060564307
 20
1060.761095375424
 30
0.0
 40
6.100000000000006
100
AcDbArc
 50
20.2704096967911
 51
41.05335123629304
  0
ARC
  5
2EF
330
1F
100
AcDbEntity
  8
0
  6
CONTINUOUS
 62
     7
100
AcDbCircle
 10
-937.2763060561396
 20
-677.3889046245739
 30
0.0
 40
15.00000000000003
100
AcDbArc
 50
357.0151345040433
 51
2.984889798197174
  0
LINE
  5
2F0
330
1F
100
AcDbEntity
  8
0
  6
CONTINUOUS
 62
     7
100
AcDbLine
 10
-884.7263060564306
 20
-717.2389046245764
 30
0.0
 11
-898.6103417014157
 21
-717.2389046245764
 31
0.0
  0
ARC
  5
2F1
330
1F
100
AcDbEntity
  8
0
  6
CONTINUOUS
 62
     7
100
AcDbCircle
 10
-922.7959781740335
 20
-678.1439572239581
 30
0.0
 40
0.4999999999999843
100
AcDbArc
 50
271.9999999987431
 51
357.0158392424294
  0
ARC
  5
2F2
330
1F
100
AcDbEntity
  8
0
  6
CONTINUOUS
 62
     7
100
AcDbCircle
 10
-922.7959781738595
 20
-699.9018520249581
 30
0.0
 40
0.4999999999999923
100
AcDbArc
 50
2.984889798198539
 51
88.00000000217359
  0
LINE
  5
2F3
330
1F
100
AcDbEntity
  8
0
  6
CONTINUOUS
 62
     7
100
AcDbLine
 10
-885.3717296859174
 20
1067.005472711527
 30
0.0
 11
-885.1965345156796
 21
1066.974581076124
 31
0.0
  0
ARC
  5
2F4
330
1F
100
AcDbEntity
  8
0
  6
CONTINUOUS
 62
     7
100
AcDbCircle
 10
-922.7959781738905
 20
-696.023852024958
 30
0.0
 40
0.4999999999999923
100
AcDbArc
 50
2.984889798198539
 51
88.00000000217275
  0
ARC
  5
2F5
330
1F
100
AcDbEntity
  8
0
  6
CONTINUOUS
 62
     7
100
AcDbCircle
 10
-922.7959781739214
 20
-692.145852024958
 30
0.0
 40
0.4999999999999923
100
AcDbArc
 50
2.984889798198539
 51
88.00000000217275
  0
ARC
  5
2F6
330
1F
100
AcDbEntity
  8
0
  6
CONTINUOUS
 62
     7
100
AcDbCircle
 10
-922.7959781739526
 20
-688.2678520249581
 30
0.0
 40
0.4999999999999923
100
AcDbArc
 50
2.984889798198539
 51
88.00000000217359
  0
ARC
  5
2F7
330
1F
100
AcDbEntity
  8
0
  6
CONTINUOUS
 62
     7
100
AcDbCircle
 10
-922.7959781739835
 20
-684.389852024958
 30
0.0
 40
0.4999999999999923
100
AcDbArc
 50
2.984889798199272
 51
88.00000000217352
  0
ARC
  5
2F8
330
1F
100
AcDbEntity
  8
0
  6
CONTINUOUS
 62
     7
100
AcDbCircle
 10
-922.7959781740145
 20
-680.5118520249581
 30
0.0
 40
0.4999999999999923
100
AcDbArc
 50
2.984889798199272
 51
88.00000000217274
  0
LINE
  5
2F9
330
1F
100
AcDbEntity
  8
0
  6
CONTINUOUS
 62
     7
100
AcDbLine
 10
-974.7263060564306
 20
-717.2389046245764
 30
0.0
 11
-974.7263060564308
 21
1082.761095375424
 31
0.0
  0
LINE
  5
2FA
330
1F
100
AcDbEntity
  8
0
  6
CONTINUOUS
 62
     7
100
AcDbLine
 10
-973.0118649124477
 20
-717.2389046245764
 30
0.0
 11
-974.7263060564306
 21
-717.2389046245764
 31
0.0
  0
LINE
  5
2FB
330
1F
100
AcDbEntity
  8
0
  6
CONTINUOUS
 62
     7
100
AcDbLine
 10
-974.7263060564308
 20
973.3085423771015
 30
0.0
 11
-976.4288590546543
 21
975.0110953753252
 31
0.0
  0
LINE
  5
2FC
330
1F
100
AcDbEntity
  8
0
  6
CONTINUOUS
 62
     7
100
AcDbLine
 10
-976.4288590546543
 20
1050.511095375325
 30
0.0
 11
-974.7263060564308
 21
1052.213648373549
 31
0.0
  0
LINE
  5
2FD
330
1F
100
AcDbEntity
  8
0
  6
CONTINUOUS
 62
     7
100
AcDbLine
 10
-950.7263060564305
 20
-696.2389046245762
 30
0.0
 11
-950.7263060564305
 21
-717.2389046245764
 31
0.0
  0
LINE
  5
2FE
330
1F
100
AcDbEntity
  8
0
  6
CONTINUOUS
 62
     7
100
AcDbLine
 10
-884.840267956717
 20
1066.911761669455
 30
0.0
 11
-884.7922537628141
 21
1066.903295471613
 31
0.0
  0
LINE
  5
2FF
330
1F
100
AcDbEntity
  8
0
  6
CONTINUOUS
 62
     7
100
AcDbLine
 10
-885.1965345156796
 20
1066.974581076124
 30
0.0
 11
-885.1235401605053
 21
1066.961710201868
 31
0.0
  0
LINE
  5
300
330
1F
100
AcDbEntity
  8
0
  6
CONTINUOUS
 62
     7
100
AcDbLine
 10
-973.0118649124478
 20
1082.458793144903
 30
0.0
 11
-958.9653864193597
 21
1079.982017166337
 31
0.0
  0
LINE
  5
301
330
1F
100
AcDbEntity
  8
0
  6
CONTINUOUS
 62
     7
100
AcDbLine
 10
-976.4288590546543
 20
975.0110953753252
 30
0.0
 11
-976.7288590546543
 21
975.0110953753252
 31
0.0
  0
LINE
  5
302
330
1F
100
AcDbEntity
  8
0
  6
CONTINUOUS
 62
     7
100
AcDbLine
 10
-974.7263060564308
 20
1056.808542377102
 30
0.0
 11
-976.4288590546543
 21
1058.511095375325
 31
0.0
  0
ARC
  5
303
330
1F
100
AcDbEntity
  8
0
  6
CONTINUOUS
 62
     7
100
AcDbCircle
 10
-937.2763060558293
 20
-716.1689046245739
 30
0.0
 40
15.00000000000003
100
AcDbArc
 50
357.0151345040431
 51
2.984889798197059
  0
ARC
  5
304
330
1F
100
AcDbEntity
  8
0
  6
CONTINUOUS
 62
     7
100
AcDbCircle
 10
950.1763060559665
 20
-699.0287177393772
 30
0.0
 40
0.299999999999967
210
0.0
220
0.0
230
-1.0
100
AcDbArc
 50
179.9999999995415
 51
268.0000000012558
  0
ARC
  5
305
330
1F
100
AcDbEntity
  8
0
  6
CONTINUOUS
 62
     7
100
AcDbCircle
 10
924.8763060559975
 20
-695.1507177391746
 30
0.0
 40
0.300000000000003
210
0.0
220
0.0
230
-1.0
100
AcDbArc
 50
271.9999999978266
 51
359.9999999995414
  0
ARC
  5
306
330
1F
100
AcDbEntity
  8
0
  6
CONTINUOUS
 62
     7
100
AcDbCircle
 10
924.8763060558733
 20
-710.6627177391747
 30
0.0
 40
0.300000000000003
210
0.0
220
0.0
230
-1.0
100
AcDbArc
 50
271.9999999978266
 51
359.9999999995416
  0
ARC
  5
307
330
1F
100
AcDbEntity
  8
0
  6
CONTINUOUS
 62
     7
100
AcDbCircle
 10
950.1763060559404
 20
-702.2850915100771
 30
0.0
 40
0.2999999999999992
210
0.0
220
0.0
230
-1.0
100
AcDbArc
 50
91.9999999978265
 51
179.9999999995418
  0
ARC
  5
308
330
1F
100
AcDbEntity
  8
0
  6
CONTINUOUS
 62
     7
100
AcDbCircle
 10
924.8763060560905
 20
-683.5167177391747
 30
0.0
 40
0.2999999999998921
210
0.0
220
0.0
230
-1.0
100
AcDbArc
 50
271.9999999978266
 51
359.9999999995414
  0
LINE
  5
309
330
1F
100
AcDbEntity
  8
0
  6
CONTINUOUS
 62
     7
100
AcDbLine
 10
-950.1658362069935
 20
-695.450534987477
 30
0.0
 11
-950.7122106872322
 21
-695.4696148047435
 31
0.0
  0
LINE
  5
30A
330
1F
100
AcDbEntity
  8
0
  6
CONTINUOUS
 62
     7
100
AcDbLine
 10
-924.8867759051308
 20
-678.7172742617687
 30
0.0
 11
-922.7785284256901
 21
-678.6436526375601
 31
0.0
  0
LINE
  5
30B
330
1F
100
AcDbEntity
  8
0
  6
CONTINUOUS
 62
     7
100
AcDbLine
 10
-924.8867759048825
 20
-709.7412742617688
 30
0.0
 11
-922.7785284254418
 21
-709.6676526375601
 31
0.0
  0
LINE
  5
30C
330
1F
100
AcDbEntity
  8
0
  6
CONTINUOUS
 62
     7
100
AcDbLine
 10
-950.1658362070245
 20
-691.572534987477
 30
0.0
 11
-950.2015750503033
 21
-691.573783015384
 31
0.0
  0
LINE
  5
30D
330
1F
100
AcDbEntity
  8
0
  6
CONTINUOUS
 62
     7
100
AcDbLine
 10
-922.7785284256512
 20
-683.8901566114479
 30
0.0
 11
-924.8867759050897
 21
-683.8165349872747
 31
0.0
  0
LINE
  5
30E
330
1F
100
AcDbEntity
  8
0
  6
CONTINUOUS
 62
     7
100
AcDbLine
 10
-923.7768428703782
 20
-676.099294702887
 30
0.0
 11
-924.8867759051518
 21
-676.0605349872748
 31
0.0
  0
LINE
  5
30F
330
1F
100
AcDbEntity
  8
0
  6
CONTINUOUS
 62
     7
100
AcDbLine
 10
-922.778528425434
 20
-711.036156611448
 30
0.0
 11
-924.8867759048726
 21
-710.9625349872748
 31
0.0
  0
LINE
  5
310
330
1F
100
AcDbEntity
  8
0
  6
CONTINUOUS
 62
     7
100
AcDbLine
 10
-950.7263060564305
 20
-709.7217022235707
 30
0.0
 11
-950.165836206879
 21
-709.741274261971
 31
0.0
  0
ARC
  5
311
330
1F
100
AcDbEntity
  8
0
  6
CONTINUOUS
 62
     7
100
AcDbCircle
 10
950.1763060558734
 20
-710.6627177393771
 30
0.0
 40
0.300000000000078
210
0.0
220
0.0
230
-1.0
100
AcDbArc
 50
179.9999999995416
 51
268.0000000012558
  0
ARC
  5
312
330
1F
100
AcDbEntity
  8
0
  6
CONTINUOUS
 62
     7
100
AcDbCircle
 10
950.1763060559044
 20
-706.7847177393771
 30
0.0
 40
0.299999999999967
210
0.0
220
0.0
230
-1.0
100
AcDbArc
 50
179.9999999995418
 51
268.0000000012558
  0
ARC
  5
313
330
1F
100
AcDbEntity
  8
0
  6
CONTINUOUS
 62
     7
100
AcDbCircle
 10
924.8763060559044
 20
-706.7847177391748
 30
0.0
 40
0.2999999999999992
210
0.0
220
0.0
230
-1.0
100
AcDbArc
 50
271.9999999978266
 51
359.9999999995418
  0
ARC
  5
314
330
1F
100
AcDbEntity
  8
0
  6
CONTINUOUS
 62
     7
100
AcDbCircle
 10
924.8763060558473
 20
-713.9190915098748
 30
0.0
 40
0.299999999999967
210
0.0
220
0.0
230
-1.0
100
AcDbArc
 50
359.9999999995417
 51
88.0000000012559
  0
ARC
  5
315
330
1F
100
AcDbEntity
  8
0
  6
CONTINUOUS
 62
     7
100
AcDbCircle
 10
924.8763060558783
 20
-710.0410915098747
 30
0.0
 40
0.300000000000078
210
0.0
220
0.0
230
-1.0
100
AcDbArc
 50
359.9999999995416
 51
88.0000000012559
  0
ARC
  5
316
330
1F
100
AcDbEntity
  8
0
  6
CONTINUOUS
 62
     7
100
AcDbCircle
 10
950.1763060560285
 20
-691.2727177393772
 30
0.0
 40
0.300000000000078
210
0.0
220
0.0
230
-1.0
100
AcDbArc
 50
179.9999999995415
 51
268.0000000012558
  0
ARC
  5
317
330
1F
100
AcDbEntity
  8
0
  6
CONTINUOUS
 62
     7
100
AcDbCircle
 10
924.8763060560285
 20
-691.2727177391747
 30
0.0
 40
0.2999999999999992
210
0.0
220
0.0
230
-1.0
100
AcDbArc
 50
271.9999999978266
 51
359.9999999995414
  0
ARC
  5
318
330
1F
100
AcDbEntity
  8
0
  6
CONTINUOUS
 62
     7
100
AcDbCircle
 10
924.8763060561216
 20
-679.6387177391747
 30
0.0
 40
0.2999999999999992
210
0.0
220
0.0
230
-1.0
100
AcDbArc
 50
271.9999999978266
 51
359.9999999995414
  0
ARC
  5
319
330
1F
100
AcDbEntity
  8
0
  6
CONTINUOUS
 62
     7
100
AcDbCircle
 10
950.1763060560024
 20
-694.5290915100771
 30
0.0
 40
0.2999999999999992
210
0.0
220
0.0
230
-1.0
100
AcDbArc
 50
91.9999999978265
 51
179.9999999995415
  0
ARC
  5
31A
330
1F
100
AcDbEntity
  8
0
  6
CONTINUOUS
 62
     7
100
AcDbCircle
 10
924.8763060560025
 20
-694.5290915098748
 30
0.0
 40
0.299999999999967
210
0.0
220
0.0
230
-1.0
100
AcDbArc
 50
359.9999999995414
 51
88.0000000012559
  0
LINE
  5
31B
330
1F
100
AcDbEntity
  8
0
  6
CONTINUOUS
 62
     7
100
AcDbLine
 10
-924.8867759049446
 20
-701.9852742617688
 30
0.0
 11
-922.7785284255039
 21
-701.91165263756
 31
0.0
  0
ARC
  5
31C
330
1F
100
AcDbEntity
  8
0
  6
CONTINUOUS
 62
     7
100
AcDbCircle
 10
924.8763060559094
 20
-706.1630915098748
 30
0.0
 40
0.299999999999967
210
0.0
220
0.0
230
-1.0
100
AcDbArc
 50
359.9999999995418
 51
88.0000000012559
  0
LINE
  5
31D
330
1F
100
AcDbEntity
  8
0
  6
CONTINUOUS
 62
     7
100
AcDbLine
 10
-922.7785284254961
 20
-703.2801566114479
 30
0.0
 11
-924.8867759049346
 21
-703.2065349872748
 31
0.0
  0
LINE
  5
31E
330
1F
100
AcDbEntity
  8
0
  6
CONTINUOUS
 62
     7
100
AcDbLine
 10
-924.8867759050377
 20
-690.3512742617688
 30
0.0
 11
-922.778528425597
 21
-690.27765263756
 31
0.0
  0
LINE
  5
31F
330
1F
100
AcDbEntity
  8
0
  6
CONTINUOUS
 62
     7
100
AcDbLine
 10
-922.7785284255891
 20
-691.6461566114479
 30
0.0
 11
-924.8867759050277
 21
-691.5725349872747
 31
0.0
  0
LINE
  5
320
330
1F
100
AcDbEntity
  8
0
  6
CONTINUOUS
 62
     7
100
AcDbLine
 10
-924.8867759049135
 20
-705.8632742617688
 30
0.0
 11
-922.7785284254728
 21
-705.78965263756
 31
0.0
  0
LINE
  5
321
330
1F
100
AcDbEntity
  8
0
  6
CONTINUOUS
 62
     7
100
AcDbLine
 10
-950.7263060564305
 20
-698.0877022235738
 30
0.0
 11
-950.165836206972
 21
-698.1072742619709
 31
0.0
  0
LINE
  5
322
330
1F
100
AcDbEntity
  8
0
  6
CONTINUOUS
 62
     7
100
AcDbLine
 10
-950.7263060564305
 20
-705.8437022235718
 30
0.0
 11
-950.16583620691
 21
-705.863274261971
 31
0.0
  0
LINE
  5
323
330
1F
100
AcDbEntity
  8
0
  6
CONTINUOUS
 62
     7
100
AcDbLine
 10
-950.6283682971434
 20
-694.2131222854875
 30
0.0
 11
-950.1658362070029
 21
-694.229274261971
 31
0.0
  0
ARC
  5
324
330
1F
100
AcDbEntity
  8
0
  6
CONTINUOUS
 62
     7
100
AcDbCircle
 10
-922.7959781740456
 20
-676.6338520249581
 30
0.0
 40
0.4999999999999923
100
AcDbArc
 50
2.984889798199272
 51
4.244872903044319
  0
LINE
  5
325
330
1F
100
AcDbEntity
  8
0
  6
CONTINUOUS
 62
     7
100
AcDbLine
 10
-922.7785284254031
 20
-714.9141566114479
 30
0.0
 11
-924.8867759048416
 21
-714.8405349872747
 31
0.0
  0
LINE
  5
326
330
1F
100
AcDbEntity
  8
0
  6
CONTINUOUS
 62
     7
100
AcDbLine
 10
-922.7785284255272
 20
-699.4021566114478
 30
0.0
 11
-924.8867759049656
 21
-699.3285349872748
 31
0.0
  0
LINE
  5
327
330
1F
100
AcDbEntity
  8
0
  6
CONTINUOUS
 62
     7
100
AcDbLine
 10
-950.1658362069625
 20
-699.3285349874769
 30
0.0
 11
-950.7263060564305
 21
-699.3481070258829
 31
0.0
  0
ARC
  5
328
330
1F
100
AcDbEntity
  8
0
  6
CONTINUOUS
 62
     7
100
AcDbCircle
 10
924.8763060558423
 20
-714.5407177391747
 30
0.0
 40
0.300000000000003
210
0.0
220
0.0
230
-1.0
100
AcDbArc
 50
271.9999999978266
 51
359.9999999995417
  0
ARC
  5
329
330
1F
100
AcDbEntity
  8
0
  6
CONTINUOUS
 62
     7
100
AcDbCircle
 10
950.1763060559354
 20
-702.9067177393771
 30
0.0
 40
0.299999999999967
210
0.0
220
0.0
230
-1.0
100
AcDbArc
 50
179.9999999995418
 51
268.0000000012558
  0
LINE
  5
32A
330
1F
100
AcDbEntity
  8
0
  6
CONTINUOUS
 62
     7
100
AcDbLine
 10
-924.8867759050686
 20
-686.4732742617688
 30
0.0
 11
-922.7785284256279
 21
-686.39965263756
 31
0.0
  0
LINE
  5
32B
330
1F
100
AcDbEntity
  8
0
  6
CONTINUOUS
 62
     7
100
AcDbLine
 10
-950.1658362068383
 20
-714.840534987477
 30
0.0
 11
-950.7263060564305
 21
-714.8601070258873
 31
0.0
  0
LINE
  5
32C
330
1F
100
AcDbEntity
  8
0
  6
CONTINUOUS
 62
     7
100
AcDbLine
 10
-950.1658362069004
 20
-707.084534987477
 30
0.0
 11
-950.7263060564305
 21
-707.1041070258851
 31
0.0
  0
ARC
  5
32D
330
1F
100
AcDbEntity
  8
0
  6
CONTINUOUS
 62
     7
100
AcDbCircle
 10
950.1763060558424
 20
-714.5407177393771
 30
0.0
 40
0.299999999999967
210
0.0
220
0.0
230
-1.0
100
AcDbArc
 50
179.9999999995417
 51
268.0000000012558
  0
LINE
  5
32E
330
1F
100
AcDbEntity
  8
0
  6
CONTINUOUS
 62
     7
100
AcDbLine
 10
-950.7263060564305
 20
-701.9657022235727
 30
0.0
 11
-950.1658362069411
 21
-701.985274261971
 31
0.0
  0
ARC
  5
32F
330
1F
100
AcDbEntity
  8
0
  6
CONTINUOUS
 62
     7
100
AcDbCircle
 10
924.8763060559664
 20
-699.0287177391747
 30
0.0
 40
0.2999999999999992
210
0.0
220
0.0
230
-1.0
100
AcDbArc
 50
271.9999999978266
 51
359.9999999995414
  0
LINE
  5
330
330
1F
100
AcDbEntity
  8
0
  6
CONTINUOUS
 62
     7
100
AcDbLine
 10
-950.1658362068695
 20
-710.9625349874769
 30
0.0
 11
-950.7263060564305
 21
-710.9821070258862
 31
0.0
  0
ARC
  5
331
330
1F
100
AcDbEntity
  8
0
  6
CONTINUOUS
 62
     7
100
AcDbCircle
 10
950.1763060558474
 20
-713.9190915100771
 30
0.0
 40
0.300000000000003
210
0.0
220
0.0
230
-1.0
100
AcDbArc
 50
91.9999999978265
 51
179.9999999995417
  0
ARC
  5
332
330
1F
100
AcDbEntity
  8
0
  6
CONTINUOUS
 62
     7
100
AcDbCircle
 10
950.1763060558783
 20
-710.0410915100771
 30
0.0
 40
0.2999999999999992
210
0.0
220
0.0
230
-1.0
100
AcDbArc
 50
91.99999999782584
 51
179.9999999995416
  0
LINE
  5
333
330
1F
100
AcDbEntity
  8
0
  6
CONTINUOUS
 62
     7
100
AcDbLine
 10
-922.7785284255582
 20
-695.5241566114478
 30
0.0
 11
-924.8867759049966
 21
-695.4505349872748
 31
0.0
  0
ARC
  5
334
330
1F
100
AcDbEntity
  8
0
  6
CONTINUOUS
 62
     7
100
AcDbCircle
 10
950.1763060559094
 20
-706.1630915100772
 30
0.0
 40
0.300000000000003
210
0.0
220
0.0
230
-1.0
100
AcDbArc
 50
91.9999999978265
 51
179.9999999995418
  0
LINE
  5
335
330
1F
100
AcDbEntity
  8
0
  6
CONTINUOUS
 62
     7
100
AcDbLine
 10
-924.8867759050997
 20
-682.5952742617687
 30
0.0
 11
-922.7785284256589
 21
-682.52165263756
 31
0.0
  0
LINE
  5
336
330
1F
100
AcDbEntity
  8
0
  6
CONTINUOUS
 62
     7
100
AcDbLine
 10
-922.7785284256203
 20
-687.7681566114478
 30
0.0
 11
-924.8867759050587
 21
-687.6945349872747
 31
0.0
  0
LINE
  5
337
330
1F
100
AcDbEntity
  8
0
  6
CONTINUOUS
 62
     7
100
AcDbLine
 10
-950.7263060564305
 20
-713.5997022235695
 30
0.0
 11
-950.1658362068479
 21
-713.619274261971
 31
0.0
  0
LINE
  5
338
330
1F
100
AcDbEntity
  8
0
  6
CONTINUOUS
 62
     7
100
AcDbLine
 10
-924.8867759049756
 20
-698.1072742617688
 30
0.0
 11
-922.7785284255349
 21
-698.03365263756
 31
0.0
  0
ARC
  5
339
330
1F
100
AcDbEntity
  8
0
  6
CONTINUOUS
 62
     7
100
AcDbCircle
 10
924.8763060560595
 20
-687.3947177391747
 30
0.0
 40
0.2999999999999992
210
0.0
220
0.0
230
-1.0
100
AcDbArc
 50
271.9999999978266
 51
359.9999999995414
  0
LINE
  5
33A
330
1F
100
AcDbEntity
  8
0
  6
CONTINUOUS
 62
     7
100
AcDbLine
 10
-924.8867759048516
 20
-713.6192742617687
 30
0.0
 11
-922.7785284254109
 21
-713.5456526375601
 31
0.0
  0
LINE
  5
33B
330
1F
100
AcDbEntity
  8
0
  6
CONTINUOUS
 62
     7
100
AcDbLine
 10
-924.8867759050065
 20
-694.2292742617688
 30
0.0
 11
-922.7785284255658
 21
-694.15565263756
 31
0.0
  0
LINE
  5
33C
330
1F
100
AcDbEntity
  8
0
  6
CONTINUOUS
 62
     7
100
AcDbLine
 10
-950.1658362069315
 20
-703.206534987477
 30
0.0
 11
-950.7263060564305
 21
-703.2261070258841
 31
0.0
  0
LINE
  5
33D
330
1F
100
AcDbEntity
  8
0
  6
CONTINUOUS
 62
     7
100
AcDbLine
 10
-922.7785284254651
 20
-707.1581566114479
 30
0.0
 11
-924.8867759049035
 21
-707.0845349872748
 31
0.0
  0
LINE
  5
33E
330
1F
100
AcDbEntity
  8
0
  6
CONTINUOUS
 62
     7
100
AcDbLine
 10
-922.7785284256823
 20
-680.0121566114478
 30
0.0
 11
-924.8867759051207
 21
-679.9385349872747
 31
0.0
  0
ARC
  5
33F
330
1F
100
AcDbEntity
  8
0
  6
CONTINUOUS
 62
     7
100
AcDbCircle
 10
924.8763060559354
 20
-702.9067177391746
 30
0.0
 40
0.300000000000003
210
0.0
220
0.0
230
-1.0
100
AcDbArc
 50
271.9999999978266
 51
359.9999999995418
  0
ARC
  5
340
330
1F
100
AcDbEntity
  8
0
  6
CONTINUOUS
 62
     7
100
AcDbCircle
 10
950.1763060559974
 20
-695.1507177393771
 30
0.0
 40
0.299999999999967
210
0.0
220
0.0
230
-1.0
100
AcDbArc
 50
179.9999999995415
 51
268.0000000012558
  0
ARC
  5
341
330
1F
100
AcDbEntity
  8
0
  6
CONTINUOUS
 62
     7
100
AcDbCircle
 10
924.8763060559404
 20
-702.2850915098747
 30
0.0
 40
0.299999999999967
210
0.0
220
0.0
230
-1.0
100
AcDbArc
 50
359.9999999995418
 51
88.0000000012559
  0
ARC
  5
342
330
1F
100
AcDbEntity
  8
0
  6
CONTINUOUS
 62
     7
100
AcDbCircle
 10
950.1763060559714
 20
-698.4070915100771
 30
0.0
 40
0.2999999999999992
210
0.0
220
0.0
230
-1.0
100
AcDbArc
 50
91.9999999978265
 51
179.9999999995415
  0
ARC
  5
343
330
1F
100
AcDbEntity
  8
0
  6
CONTINUOUS
 62
     7
100
AcDbCircle
 10
924.8763060559714
 20
-698.4070915098747
 30
0.0
 40
0.299999999999967
210
0.0
220
0.0
230
-1.0
100
AcDbArc
 50
359.9999999995414
 51
88.0000000012559
  0
LINE
  5
344
330
1F
100
AcDbEntity
  8
0
  6
CONTINUOUS
 62
     7
100
AcDbLine
 10
-925.1763060561525
 20
-675.7607177391772
 30
0.0
 11
-925.1763060561527
 21
-675.7377461207876
 31
0.0
  0
LINE
  5
345
330
1F
100
AcDbEntity
  8
0
  6
CONTINUOUS
 62
     7
100
AcDbLine
 10
-949.8763060559094
 20
-706.1630915100748
 30
0.0
 11
-949.8763060559045
 21
-706.7847177393746
 31
0.0
  0
ARC
  5
346
330
1F
100
AcDbEntity
  8
0
  6
CONTINUOUS
 62
     7
100
AcDbCircle
 10
924.8763060561265
 20
-679.0170915098747
 30
0.0
 40
0.299999999999967
210
0.0
220
0.0
230
-1.0
100
AcDbArc
 50
359.9999999995414
 51
88.0000000012559
  0
ARC
  5
347
330
1F
100
AcDbEntity
  8
0
  6
CONTINUOUS
 62
     7
100
AcDbCircle
 10
924.8763060561525
 20
-675.7607177391747
 30
0.0
 40
0.300000000000003
210
0.0
220
0.0
230
-1.0
100
AcDbArc
 50
271.9999999978266
 51
359.9999999995414
  0
LINE
  5
348
330
1F
100
AcDbEntity
  8
0
  6
CONTINUOUS
 62
     7
100
AcDbLine
 10
-1507.003250073837
 20
-1206.395908644911
 30
0.0
 11
-1507.003250073837
 21
-1206.61254905209
 31
0.0
  0
LINE
  5
349
330
1F
100
AcDbEntity
  8
0
  6
CONTINUOUS
 62
     7
100
AcDbLine
 10
-1503.503250073837
 20
-1113.571140945346
 30
0.0
 11
-1508.811390596382
 21
-1113.571140945346
 31
0.0
  0
LINE
  5
34A
330
1F
100
AcDbEntity
  8
0
  6
CONTINUOUS
 62
     7
100
AcDbLine
 10
-949.8763060560025
 20
-694.5290915100746
 30
0.0
 11
-949.8763060559975
 21
-695.1507177393746
 31
0.0
  0
ARC
  5
34B
330
1F
100
AcDbEntity
  8
0
  6
CONTINUOUS
 62
     7
100
AcDbCircle
 10
1487.503250073757
 20
-1152.473693944158
 30
0.0
 40
11.85000000000014
210
0.0
220
0.0
230
-1.0
100
AcDbArc
 50
90.0
 51
180.0000000004583
  0
LINE
  5
34C
330
1F
100
AcDbEntity
  8
0
  6
CONTINUOUS
 62
     7
100
AcDbLine
 10
-925.1763060558734
 20
-710.6627177391771
 30
0.0
 11
-925.1763060558784
 21
-710.0410915098771
 31
0.0
  0
ARC
  5
34D
330
1F
100
AcDbEntity
  8
0
  6
CONTINUOUS
 62
     7
100
AcDbCircle
 10
924.8763060560955
 20
-682.8950915098746
 30
0.0
 40
0.299999999999967
210
0.0
220
0.0
230
-1.0
100
AcDbArc
 50
359.9999999995414
 51
88.0000000012572
  0
LINE
  5
34E
330
1F
100
AcDbEntity
  8
0
  6
CONTINUOUS
 62
     7
100
AcDbLine
 10
-925.1763060559664
 20
-699.0287177391771
 30
0.0
 11
-925.1763060559714
 21
-698.4070915098771
 31
0.0
  0
LINE
  5
34F
330
1F
100
AcDbEntity
  8
0
  6
CONTINUOUS
 62
     7
100
AcDbLine
 10
-925.1763060560285
 20
-691.2727177391771
 30
0.0
 11
-925.1763060560335
 21
-690.6510915098771
 31
0.0
  0
ARC
  5
350
330
1F
100
AcDbEntity
  8
0
  6
CONTINUOUS
 62
     7
100
AcDbCircle
 10
-1507.503250073838
 20
-1200.673693943569
 30
0.0
 40
6.079473661428439
100
AcDbArc
 50
282.3471472894665
 51
289.7399598120339
  0
LINE
  5
351
330
1F
100
AcDbEntity
  8
0
  6
CONTINUOUS
 62
     7
100
AcDbLine
 10
-1508.811390596382
 20
-1113.571140945346
 30
0.0
 11
-1511.503250073838
 21
-1113.571140945346
 31
0.0
  0
LINE
  5
352
330
1F
100
AcDbEntity
  8
0
  6
CONTINUOUS
 62
     7
100
AcDbLine
 10
-1508.003250073837
 20
-1206.61254905209
 30
0.0
 11
-1508.003250073837
 21
-1206.395908644911
 31
0.0
  0
LINE
  5
353
330
1F
100
AcDbEntity
  8
0
  6
CONTINUOUS
 62
     7
100
AcDbLine
 10
-925.1763060561216
 20
-679.6387177391772
 30
0.0
 11
-925.1763060561266
 21
-679.0170915098771
 31
0.0
  0
LINE
  5
354
330
1F
100
AcDbEntity
  8
0
  6
CONTINUOUS
 62
     7
100
AcDbLine
 10
-1503.503250073837
 20
-1113.271140945346
 30
0.0
 11
-1508.811390596382
 21
-1113.271140945346
 31
0.0
  0
LINE
  5
355
330
1F
100
AcDbEntity
  8
0
  6
CONTINUOUS
 62
     7
100
AcDbLine
 10
-925.1763060560905
 20
-683.5167177391771
 30
0.0
 11
-925.1763060560954
 21
-682.8950915098771
 31
0.0
  0
LWPOLYLINE
  5
356
330
1F
100
AcDbEntity
  8
0
  6
CONTINUOUS
 62
     7
100
AcDbPolyline
 90
        3
 70
     0
 43
0.0
 10
-1508.803250073837
 20
-1206.61254905209
 42
0.0776780398876441
 10
-1508.087450080435
 20
-1206.672020834107
 10
-1508.003250073837
 20
-1206.61254905209
  0
LINE
  5
357
330
1F
100
AcDbEntity
  8
0
  6
CONTINUOUS
 62
     7
100
AcDbLine
 10
-1508.811390596382
 20
-1113.271140945346
 30
0.0
 11
-1511.503250073838
 21
-1113.271140945346
 31
0.0
  0
LINE
  5
358
330
1F
100
AcDbEntity
  8
0
  6
CONTINUOUS
 62
     7
100
AcDbLine
 10
-1509.503250073838
 20
-1133.271140945346
 30
0.0
 11
-1505.503250073837
 21
-1133.271140945346
 31
0.0
  0
ARC
  5
359
330
1F
100
AcDbEntity
  8
0
  6
CONTINUOUS
 62
     7
100
AcDbCircle
 10
950.1763060560334
 20
-690.6510915100771
 30
0.0
 40
0.2999999999999525
210
0.0
220
0.0
230
-1.0
100
AcDbArc
 50
147.3125835495437
 51
179.9999999995415
  0
ARC
  5
35A
330
1F
100
AcDbEntity
  8
0
  6
CONTINUOUS
 62
     7
100
AcDbCircle
 10
924.8763060560645
 20
-686.7730915098747
 30
0.0
 40
0.299999999999967
210
0.0
220
0.0
230
-1.0
100
AcDbArc
 50
359.9999999995414
 51
88.0000000012559
  0
ARC
  5
35B
330
1F
100
AcDbEntity
  8
0
  6
CONTINUOUS
 62
     7
100
AcDbCircle
 10
-1507.503250073838
 20
-1200.673693943569
 30
0.0
 40
6.079473661428317
100
AcDbArc
 50
250.260040187966
 51
257.6528527105334
  0
ARC
  5
35C
330
1F
100
AcDbEntity
  8
0
  6
CONTINUOUS
 62
     7
100
AcDbCircle
 10
924.8763060560334
 20
-690.6510915098747
 30
0.0
 40
0.300000000000078
210
0.0
220
0.0
230
-1.0
100
AcDbArc
 50
359.9999999995414
 51
88.0000000012559
  0
LINE
  5
35D
330
1F
100
AcDbEntity
  8
0
  6
CONTINUOUS
 62
     7
100
AcDbLine
 10
-949.8763060558474
 20
-713.9190915100747
 30
0.0
 11
-949.8763060558424
 21
-714.5407177393746
 31
0.0
  0
LINE
  5
35E
330
1F
100
AcDbEntity
  8
0
  6
CONTINUOUS
 62
     7
100
AcDbLine
 10
-949.8763060558783
 20
-710.0410915100747
 30
0.0
 11
-949.8763060558733
 21
-710.6627177393747
 31
0.0
  0
LINE
  5
35F
330
1F
100
AcDbEntity
  8
0
  6
CONTINUOUS
 62
     7
100
AcDbLine
 10
-949.8763060560334
 20
-690.6510915100747
 30
0.0
 11
-949.8763060560284
 21
-691.2727177393747
 31
0.0
  0
LINE
  5
360
330
1F
100
AcDbEntity
  8
0
  6
CONTINUOUS
 62
     7
100
AcDbLine
 10
-1508.003250073837
 20
-1206.395908644911
 30
0.0
 11
-1507.003250073837
 21
-1206.395908644911
 31
0.0
  0
LINE
  5
361
330
1F
100
AcDbEntity
  8
0
  6
CONTINUOUS
 62
     7
100
AcDbLine
 10
-1505.449896983951
 20
-1206.395908644911
 30
0.0
 11
-1505.389897544857
 21
-1206.395908644911
 31
0.0
  0
LINE
  5
362
330
1F
100
AcDbEntity
  8
0
  6
CONTINUOUS
 62
     7
100
AcDbLine
 10
-1509.003250073837
 20
-1196.273693943569
 30
0.0
 11
-1506.003250073837
 21
-1196.273693943569
 31
0.0
  0
LINE
  5
363
330
1F
100
AcDbEntity
  8
0
  6
CONTINUOUS
 62
     7
100
AcDbLine
 10
-925.1763060559044
 20
-706.784717739177
 30
0.0
 11
-925.1763060559093
 21
-706.1630915098771
 31
0.0
  0
LINE
  5
364
330
1F
100
AcDbEntity
  8
0
  6
CONTINUOUS
 62
     7
100
AcDbLine
 10
-925.1763060560595
 20
-687.3947177391772
 30
0.0
 11
-925.1763060560645
 21
-686.7730915098771
 31
0.0
  0
LWPOLYLINE
  5
365
330
1F
100
AcDbEntity
  8
0
  6
CONTINUOUS
 62
     7
100
AcDbPolyline
 90
        3
 70
     0
 43
0.0
 10
-1507.003250073837
 20
-1206.61254905209
 10
-1506.908102411064
 20
-1206.674230959034
 42
0.0808323380522635
 10
-1506.203250073837
 20
-1206.61254905209
  0
LINE
  5
366
330
1F
100
AcDbEntity
  8
0
  6
CONTINUOUS
 62
     7
100
AcDbLine
 10
-925.1763060558424
 20
-714.5407177391771
 30
0.0
 11
-925.1763060558474
 21
-713.919091509877
 31
0.0
  0
LINE
  5
367
330
1F
100
AcDbEntity
  8
0
  6
CONTINUOUS
 62
     7
100
AcDbLine
 10
-949.8763060559713
 20
-698.4070915100747
 30
0.0
 11
-949.8763060559664
 21
-699.0287177393747
 31
0.0
  0
LINE
  5
368
330
1F
100
AcDbEntity
  8
0
  6
CONTINUOUS
 62
     7
100
AcDbLine
 10
-1509.616602602817
 20
-1206.395908644911
 30
0.0
 11
-1509.556603163724
 21
-1206.395908644911
 31
0.0
  0
ARC
  5
369
330
1F
100
AcDbEntity
  8
0
  6
CONTINUOUS
 62
     7
100
AcDbCircle
 10
1487.503250073757
 20
-1152.473693944158
 30
0.0
 40
11.84999999999992
210
0.0
220
0.0
230
-1.0
100
AcDbArc
 50
180.0000000004583
 51
90.0
  0
LINE
  5
36A
330
1F
100
AcDbEntity
  8
0
  6
CONTINUOUS
 62
     7
100
AcDbLine
 10
-925.1763060559974
 20
-695.1507177391771
 30
0.0
 11
-925.1763060560024
 21
-694.529091509877
 31
0.0
  0
LINE
  5
36B
330
1F
100
AcDbEntity
  8
0
  6
CONTINUOUS
 62
     7
100
AcDbLine
 10
-925.1763060559355
 20
-702.9067177391771
 30
0.0
 11
-925.1763060559404
 21
-702.2850915098771
 31
0.0
  0
LINE
  5
36C
330
1F
100
AcDbEntity
  8
0
  6
CONTINUOUS
 62
     7
100
AcDbLine
 10
-949.8763060559404
 20
-702.2850915100746
 30
0.0
 11
-949.8763060559354
 21
-702.9067177393746
 31
0.0
  0
ARC
  5
36D
330
1F
100
AcDbEntity
  8
0
  6
CONTINUOUS
 62
     7
100
AcDbCircle
 10
1487.503250073676
 20
-1152.473693945076
 30
0.0
 40
19.64999999999995
210
0.0
220
0.0
230
-1.0
100
AcDbArc
 50
270.0
 51
180.0
  0
ARC
  5
36E
330
1F
100
AcDbEntity
  8
0
  6
CONTINUOUS
 62
     7
100
AcDbCircle
 10
1487.503250073676
 20
-1152.473693945076
 30
0.0
 40
19.64999999999995
210
0.0
220
0.0
230
-1.0
100
AcDbArc
 50
180.0
 51
270.0
  0
LINE
  5
36F
330
1F
100
AcDbEntity
  8
0
  6
CONTINUOUS
 62
     7
100
AcDbLine
 10
-1498.4978178643
 20
-1135.024704175916
 30
0.0
 11
-1496.426875691158
 21
-1133.916900381857
 31
0.0
  0
ARC
  5
370
330
1F
100
AcDbEntity
  8
0
  6
CONTINUOUS
 62
     7
100
AcDbCircle
 10
1486.79614329246
 20
-1151.766587163747
 30
0.0
 40
19.64999999995734
210
0.0
220
0.0
230
-1.0
100
AcDbArc
 50
131.7013008238205
 51
141.4654233335696
  0
LINE
  5
371
330
1F
100
AcDbEntity
  8
0
  6
CONTINUOUS
 62
     7
100
AcDbLine
 10
-1501.282466415838
 20
-1167.851944227114
 30
0.0
 11
-1499.737277011077
 21
-1167.851944227178
 31
0.0
  0
LINE
  5
372
330
1F
100
AcDbEntity
  8
0
  6
CONTINUOUS
 62
     7
100
AcDbLine
 10
-1502.881500355826
 20
-1138.694477602818
 30
0.0
 11
-1502.881500355826
 21
-1140.239667007628
 31
0.0
  0
ARC
  5
373
330
1F
100
AcDbEntity
  8
0
  6
CONTINUOUS
 62
     7
100
AcDbCircle
 10
1486.796143292521
 20
-1153.180800726121
 30
0.0
 40
19.65000000004316
210
0.0
220
0.0
230
-1.0
100
AcDbArc
 50
221.7013008238308
 51
231.4654233335371
  0
LINE
  5
374
330
1F
100
AcDbEntity
  8
0
  6
CONTINUOUS
 62
     7
100
AcDbLine
 10
-1476.090457842488
 20
-1168.471167603663
 30
0.0
 11
-1474.554452495219
 21
-1168.551666232817
 31
0.0
  0
LINE
  5
375
330
1F
100
AcDbEntity
  8
0
  6
CONTINUOUS
 62
     7
100
AcDbLine
 10
-1476.508682283052
 20
-1169.922683714016
 30
0.0
 11
-1478.579624456195
 21
-1171.030487508079
 31
0.0
  0
LINE
  5
376
330
1F
100
AcDbEntity
  8
0
  6
CONTINUOUS
 62
     7
100
AcDbLine
 10
-1479.983520627702
 20
-1170.627926758875
 30
0.0
 11
-1478.579624456195
 21
-1171.030487508079
 31
0.0
  0
LINE
  5
377
330
1F
100
AcDbEntity
  8
0
  6
CONTINUOUS
 62
     7
100
AcDbLine
 10
-1476.508682283047
 20
-1169.922683714018
 30
0.0
 11
-1476.092983612711
 21
-1168.472970166871
 31
0.0
  0
LINE
  5
378
330
1F
100
AcDbEntity
  8
0
  6
CONTINUOUS
 62
     7
100
AcDbLine
 10
-1469.349017259829
 20
-1144.953964499054
 30
0.0
 11
-1468.946456510565
 21
-1143.550068327486
 31
0.0
  0
LINE
  5
379
330
1F
100
AcDbEntity
  8
0
  6
CONTINUOUS
 62
     7
100
AcDbLine
 10
-1475.27120184859
 20
-1137.093865338722
 30
0.0
 11
-1475.614135629379
 21
-1135.608455940693
 31
0.0
  0
LINE
  5
37A
330
1F
100
AcDbEntity
  8
0
  6
CONTINUOUS
 62
     7
100
AcDbLine
 10
-1478.579624456195
 20
-1133.916900381857
 30
0.0
 11
-1479.983520627702
 21
-1134.319461131181
 31
0.0
  0
ARC
  5
37B
330
1F
100
AcDbEntity
  8
0
  6
CONTINUOUS
 62
     7
100
AcDbCircle
 10
1486.796143293057
 20
-1151.766587164936
 30
0.0
 40
19.65000000128567
210
0.0
220
0.0
230
-1.0
100
AcDbArc
 50
114.7174312418777
 51
124.6846270160966
  0
LINE
  5
37C
330
1F
100
AcDbEntity
  8
0
  6
CONTINUOUS
 62
     7
100
AcDbLine
 10
-1503.500723732311
 20
-1163.886486176216
 30
0.0
 11
-1503.581222361528
 21
-1165.422491523422
 31
0.0
  0
LINE
  5
37D
330
1F
100
AcDbEntity
  8
0
  6
CONTINUOUS
 62
     7
100
AcDbLine
 10
-1498.916042304864
 20
-1136.476220286393
 30
0.0
 11
-1500.452047652134
 21
-1136.395721657112
 31
0.0
  0
LINE
  5
37E
330
1F
100
AcDbEntity
  8
0
  6
CONTINUOUS
 62
     7
100
AcDbLine
 10
-1473.72403373153
 20
-1137.095443662814
 30
0.0
 11
-1475.269223136276
 21
-1137.095443662878
 31
0.0
  0
LINE
  5
37F
330
1F
100
AcDbEntity
  8
0
  6
CONTINUOUS
 62
     7
100
AcDbLine
 10
-1504.952239842728
 20
-1163.468261735595
 30
0.0
 11
-1503.502526295519
 21
-1163.883960405993
 31
0.0
  0
ARC
  5
380
330
1F
100
AcDbEntity
  8
0
  6
CONTINUOUS
 62
     7
100
AcDbCircle
 10
1488.210356854796
 20
-1153.180800726085
 30
0.0
 40
19.65000000009288
210
0.0
220
0.0
230
-1.0
100
AcDbArc
 50
311.7013008238932
 51
321.4654233335235
  0
ARC
  5
381
330
1F
100
AcDbEntity
  8
0
  6
CONTINUOUS
 62
     7
100
AcDbCircle
 10
1488.210356854916
 20
-1151.766587163724
 30
0.0
 40
19.64999999992482
210
0.0
220
0.0
230
-1.0
100
AcDbArc
 50
41.70130082381043
 51
51.46542333357439
  0
LINE
  5
382
330
1F
100
AcDbEntity
  8
0
  6
CONTINUOUS
 62
     7
100
AcDbLine
 10
-1504.952239842726
 20
-1163.46826173559
 30
0.0
 11
-1506.060043636787
 21
-1161.397319562449
 31
0.0
  0
LINE
  5
383
330
1F
100
AcDbEntity
  8
0
  6
CONTINUOUS
 62
     7
100
AcDbLine
 10
-1498.497817864305
 20
-1135.024704175914
 30
0.0
 11
-1498.913516534641
 21
-1136.474417723186
 31
0.0
  0
LINE
  5
384
330
1F
100
AcDbEntity
  8
0
  6
CONTINUOUS
 62
     7
100
AcDbLine
 10
-1470.054260304624
 20
-1141.479126154337
 30
0.0
 11
-1471.503973851833
 21
-1141.063427484063
 31
0.0
  0
LINE
  5
385
330
1F
100
AcDbEntity
  8
0
  6
CONTINUOUS
 62
     7
100
AcDbLine
 10
-1470.054260304626
 20
-1141.479126154342
 30
0.0
 11
-1468.946456510565
 21
-1143.550068327486
 31
0.0
  0
LINE
  5
386
330
1F
100
AcDbEntity
  8
0
  6
CONTINUOUS
 62
     7
100
AcDbLine
 10
-1495.02297951965
 20
-1134.319461131181
 30
0.0
 11
-1496.426875691158
 21
-1133.916900381857
 31
0.0
  0
LINE
  5
387
330
1F
100
AcDbEntity
  8
0
  6
CONTINUOUS
 62
     7
100
AcDbLine
 10
-1505.657482887523
 20
-1159.993423391002
 30
0.0
 11
-1506.060043636787
 21
-1161.397319562449
 31
0.0
  0
LINE
  5
388
330
1F
100
AcDbEntity
  8
0
  6
CONTINUOUS
 62
     7
100
AcDbLine
 10
-1471.505776415041
 20
-1141.06090171384
 30
0.0
 11
-1471.425277785824
 21
-1139.524896366507
 31
0.0
  0
LINE
  5
389
330
1F
100
AcDbEntity
  8
0
  6
CONTINUOUS
 62
     7
100
AcDbLine
 10
-1472.124999791526
 20
-1166.25291028711
 30
0.0
 11
-1472.124999791526
 21
-1164.707720882429
 31
0.0
  0
LINE
  5
38A
330
1F
100
AcDbEntity
  8
0
  6
CONTINUOUS
 62
     7
100
AcDbLine
 10
-1490.003250073676
 20
-1174.683432799611
 30
0.0
 11
-1490.003250073676
 21
-1173.968754090296
 31
0.0
  0
ARC
  5
38B
330
1F
100
AcDbEntity
  8
0
  6
CONTINUOUS
 62
     7
100
AcDbCircle
 10
1487.503250073676
 20
-1152.473693944776
 30
0.0
 40
22.34999999999991
210
0.0
220
0.0
230
-1.0
100
AcDbArc
 50
267.4355743353465
 51
270.0000000000002
  0
LINE
  5
38C
330
1F
100
AcDbEntity
  8
0
  6
CONTINUOUS
 62
     7
100
AcDbLine
 10
-1485.003250073676
 20
-1130.978633799511
 30
0.0
 11
-1485.003250073676
 21
-1131.148413236425
 31
0.0
  0
LINE
  5
38D
330
1F
100
AcDbEntity
  8
0
  6
CONTINUOUS
 62
     7
100
AcDbLine
 10
-1488.503250073676
 20
-1131.025673120235
 30
0.0
 11
-1488.503250073676
 21
-1130.847873435561
 31
0.0
  0
ARC
  5
38E
330
1F
100
AcDbEntity
  8
0
  6
CONTINUOUS
 62
     7
100
AcDbCircle
 10
1488.210356854249
 20
-1153.180800724964
 30
0.0
 40
19.65000000133772
210
0.0
220
0.0
230
-1.0
100
AcDbArc
 50
294.7174312419596
 51
304.6846270161601
  0
LINE
  5
38F
330
1F
100
AcDbEntity
  8
0
  6
CONTINUOUS
 62
     7
100
AcDbLine
 10
-1485.003250073676
 20
-1131.148413236425
 30
0.0
 11
-1485.003250073676
 21
-1132.983375835772
 31
0.0
  0
LINE
  5
390
330
1F
100
AcDbEntity
  8
0
  6
CONTINUOUS
 62
     7
100
AcDbLine
 10
-1502.883078679984
 20
-1140.241645719942
 30
0.0
 11
-1504.368488077948
 21
-1140.584579500668
 31
0.0
  0
ARC
  5
391
330
1F
100
AcDbEntity
  8
0
  6
CONTINUOUS
 62
     7
100
AcDbCircle
 10
1486.796143293654
 20
-1153.180800725558
 30
0.0
 40
19.6500000013068
210
0.0
220
0.0
230
-1.0
100
AcDbArc
 50
204.7174312419434
 51
214.6846270161492
  0
LINE
  5
392
330
1F
100
AcDbEntity
  8
0
  6
CONTINUOUS
 62
     7
100
AcDbLine
 10
-1490.003250073676
 20
-1173.968754090296
 30
0.0
 11
-1490.003250073676
 21
-1173.798974653398
 31
0.0
  0
LINE
  5
393
330
1F
100
AcDbEntity
  8
0
  6
CONTINUOUS
 62
     7
100
AcDbLine
 10
-1468.946456510565
 20
-1161.397319562449
 30
0.0
 11
-1469.349017259829
 21
-1159.993423391002
 31
0.0
  0
LINE
  5
394
330
1F
100
AcDbEntity
  8
0
  6
CONTINUOUS
 62
     7
100
AcDbLine
 10
-1486.503250073676
 20
-1172.098232156156
 30
0.0
 11
-1486.503250073676
 21
-1173.921714769588
 31
0.0
  0
LINE
  5
395
330
1F
100
AcDbEntity
  8
0
  6
CONTINUOUS
 62
     7
100
AcDbLine
 10
-1472.123421467369
 20
-1164.705742170114
 30
0.0
 11
-1470.638012069404
 21
-1164.362808389262
 31
0.0
  0
LINE
  5
396
330
1F
100
AcDbEntity
  8
0
  6
CONTINUOUS
 62
     7
100
AcDbLine
 10
-1485.003250073676
 20
-1130.26395508994
 30
0.0
 11
-1485.003250073676
 21
-1130.978633799511
 31
0.0
  0
ARC
  5
397
330
1F
100
AcDbEntity
  8
0
  6
CONTINUOUS
 62
     7
100
AcDbCircle
 10
1487.503250073676
 20
-1152.473693944776
 30
0.0
 40
22.35000000000009
210
0.0
220
0.0
230
-1.0
100
AcDbArc
 50
270.0
 51
276.4223643843948
  0
LINE
  5
398
330
1F
100
AcDbEntity
  8
0
  6
CONTINUOUS
 62
     7
100
AcDbLine
 10
-1488.503250073676
 20
-1130.847873435561
 30
0.0
 11
-1488.503250073676
 21
-1130.146076517025
 31
0.0
  0
ARC
  5
399
330
1F
100
AcDbEntity
  8
0
  6
CONTINUOUS
 62
     7
100
AcDbCircle
 10
1488.210356853739
 20
-1151.766587164335
 30
0.0
 40
19.65000000125207
210
0.0
220
0.0
230
-1.0
100
AcDbArc
 50
24.71743124187856
 51
34.68462701612589
  0
LINE
  5
39A
330
1F
100
AcDbEntity
  8
0
  6
CONTINUOUS
 62
     7
100
AcDbLine
 10
-1490.003250073676
 20
-1173.798974653398
 30
0.0
 11
-1490.003250073676
 21
-1171.964012054284
 31
0.0
  0
LINE
  5
39B
330
1F
100
AcDbEntity
  8
0
  6
CONTINUOUS
 62
     7
100
AcDbLine
 10
-1496.426875691158
 20
-1171.030487508079
 30
0.0
 11
-1495.02297951965
 21
-1170.627926758875
 31
0.0
  0
LINE
  5
39C
330
1F
100
AcDbEntity
  8
0
  6
CONTINUOUS
 62
     7
100
AcDbLine
 10
-1488.503250073676
 20
-1132.849155733901
 30
0.0
 11
-1488.503250073676
 21
-1131.025673120235
 31
0.0
  0
LINE
  5
39D
330
1F
100
AcDbEntity
  8
0
  6
CONTINUOUS
 62
     7
100
AcDbLine
 10
-1486.503250073676
 20
-1173.921714769588
 30
0.0
 11
-1486.503250073676
 21
-1174.801311372526
 31
0.0
  0
ARC
  5
39E
330
1F
100
AcDbEntity
  8
0
  6
CONTINUOUS
 62
     7
100
AcDbCircle
 10
1487.503250073676
 20
-1152.473693944776
 30
0.0
 40
22.34999999999992
210
0.0
220
0.0
230
-1.0
100
AcDbArc
 50
87.43557433534653
 51
96.4223643843948
  0
LINE
  5
39F
330
1F
100
AcDbEntity
  8
0
  6
CONTINUOUS
 62
     7
100
AcDbLine
 10
-1499.735298298762
 20
-1167.853522551336
 30
0.0
 11
-1499.392364517973
 21
-1169.338931949238
 31
0.0
  0
LINE
  5
3A0
330
1F
100
AcDbEntity
  8
0
  6
CONTINUOUS
 62
     7
100
AcDbLine
 10
-1506.060043636787
 20
-1143.550068327486
 30
0.0
 11
-1505.657482887523
 21
-1144.953964499054
 31
0.0
  0
LINE
  5
3A1
330
1F
100
AcDbEntity
  8
0
  6
CONTINUOUS
 62
     7
100
AcDbLine
 10
-1504.128250073837
 20
-1123.339145452
 30
0.0
 11
-1503.893325297649
 21
-1123.359649170436
 31
0.0
  0
LINE
  5
3A2
330
1F
100
AcDbEntity
  8
0
  6
CONTINUOUS
 62
     7
100
AcDbLine
 10
-1502.898287077409
 20
-1123.36750777232
 30
0.0
 11
-1505.326495103245
 21
-1123.36750777232
 31
0.0
  0
LINE
  5
3A3
330
1F
100
AcDbEntity
  8
0
  6
CONTINUOUS
 62
     7
100
AcDbLine
 10
-1506.860463300306
 20
-1141.301371172848
 30
0.0
 11
-1505.422472614173
 21
-1142.289043723232
 31
0.0
  0
ARC
  5
3A4
330
1F
100
AcDbEntity
  8
0
  6
CONTINUOUS
 62
     7
100
AcDbCircle
 10
-1487.503250073772
 20
-1152.473693943693
 30
0.0
 40
10.54999999999994
100
AcDbArc
 50
145.5170811974741
 51
235.5170811974741
  0
ARC
  5
3A5
330
1F
100
AcDbEntity
  8
0
  6
CONTINUOUS
 62
     7
100
AcDbCircle
 10
-1487.503250073772
 20
-1152.473693943693
 30
0.0
 40
10.54999999999994
100
AcDbArc
 50
235.5170811974741
 51
145.5170811974741
  0
LINE
  5
3A6
330
1F
100
AcDbEntity
  8
0
  6
CONTINUOUS
 62
     7
100
AcDbLine
 10
-1469.584027532267
 20
-1162.658344165108
 30
0.0
 11
-1468.146036847077
 21
-1163.646016714844
 31
0.0
  0
ARC
  5
3A7
330
1F
100
AcDbEntity
  8
0
  6
CONTINUOUS
 62
     7
100
AcDbCircle
 10
-1487.503250073692
 20
-1152.473693943846
 30
0.0
 40
22.34999999999985
100
AcDbArc
 50
141.0262376981354
 51
150.0079246968128
  0
LINE
  5
3A8
330
1F
100
AcDbEntity
  8
0
  6
CONTINUOUS
 62
     7
100
AcDbLine
 10
-1510.878250073837
 20
-1120.908242435139
 30
0.0
 11
-1511.113174850026
 21
-1120.887738716703
 31
0.0
  0
LINE
  5
3A9
330
1F
100
AcDbEntity
  8
0
  6
CONTINUOUS
 62
     7
100
AcDbLine
 10
-1503.893325297649
 20
-1120.887738716703
 30
0.0
 11
-1502.898287077409
 21
-1120.879880114818
 31
0.0
  0
LINE
  5
3AA
330
1F
100
AcDbEntity
  8
0
  6
CONTINUOUS
 62
     7
100
AcDbLine
 10
-1504.416940942967
 20
-1120.961134500888
 30
0.0
 11
-1504.128250073837
 21
-1120.957179886771
 31
0.0
  0
LINE
  5
3AB
330
1F
100
AcDbEntity
  8
0
  6
CONTINUOUS
 62
     7
100
AcDbLine
 10
-1510.878250073837
 20
-1120.957179886771
 30
0.0
 11
-1510.589559204707
 21
-1120.961134500888
 31
0.0
  0
LINE
  5
3AC
330
1F
100
AcDbEntity
  8
0
  6
CONTINUOUS
 62
     7
100
AcDbLine
 10
-1507.503250073838
 20
-1120.920460050045
 30
0.0
 11
-1509.603250073837
 21
-1120.938786472406
 31
0.0
  0
LINE
  5
3AD
330
1F
100
AcDbEntity
  8
0
  6
CONTINUOUS
 62
     7
100
AcDbLine
 10
-1502.898287077409
 20
-1123.36750777232
 30
0.0
 11
-1503.893325297649
 21
-1123.359649170436
 31
0.0
  0
ARC
  5
3AE
330
1F
100
AcDbEntity
  8
0
  6
CONTINUOUS
 62
     7
100
AcDbCircle
 10
1487.503250073692
 20
-1152.473693943846
 30
0.0
 40
22.35000000000004
210
0.0
220
0.0
230
-1.0
100
AcDbArc
 50
209.9920753031873
 51
218.9737623018647
  0
LINE
  5
3AF
330
1F
100
AcDbEntity
  8
0
  6
CONTINUOUS
 62
     7
100
AcDbLine
 10
-1504.128250073837
 20
-1120.908242435139
 30
0.0
 11
-1503.893325297649
 21
-1120.887738716703
 31
0.0
  0
LINE
  5
3B0
330
1F
100
AcDbEntity
  8
0
  6
CONTINUOUS
 62
     7
100
AcDbLine
 10
-1509.503250073838
 20
-1120.965555133004
 30
0.0
 11
-1510.589559204707
 21
-1120.961134500888
 31
0.0
  0
LINE
  5
3B1
330
1F
100
AcDbEntity
  8
0
  6
CONTINUOUS
 62
     7
100
AcDbLine
 10
-1511.113174850026
 20
-1123.359649170436
 30
0.0
 11
-1512.108213070266
 21
-1123.36750777232
 31
0.0
  0
LINE
  5
3B2
330
1F
100
AcDbEntity
  8
0
  6
CONTINUOUS
 62
     7
100
AcDbLine
 10
-1504.416940942967
 20
-1120.961134500888
 30
0.0
 11
-1505.503250073837
 21
-1120.965555133004
 31
0.0
  0
LINE
  5
3B3
330
1F
100
AcDbEntity
  8
0
  6
CONTINUOUS
 62
     7
100
AcDbLine
 10
-1502.881500355826
 20
-1139.788237827058
 30
0.0
 11
-1504.878901477947
 21
-1138.416338635047
 31
0.0
  0
LINE
  5
3B4
330
1F
100
AcDbEntity
  8
0
  6
CONTINUOUS
 62
     7
100
AcDbLine
 10
-1470.127598669437
 20
-1166.531049252645
 30
0.0
 11
-1472.124999791526
 21
-1165.159150060655
 31
0.0
  0
LINE
  5
3B5
330
1F
100
AcDbEntity
  8
0
  6
CONTINUOUS
 62
     7
100
AcDbLine
 10
-1512.108213070266
 20
-1120.879880114818
 30
0.0
 11
-1511.113174850026
 21
-1120.887738716703
 31
0.0
  0
LINE
  5
3B6
330
1F
100
AcDbEntity
  8
0
  6
CONTINUOUS
 62
     7
100
AcDbLine
 10
-1512.108213070266
 20
-1120.879880114818
 30
0.0
 11
-1502.898287077409
 21
-1120.879880114818
 31
0.0
  0
LINE
  5
3B7
330
1F
100
AcDbEntity
  8
0
  6
CONTINUOUS
 62
     7
100
AcDbLine
 10
-1505.503250073837
 20
-1123.281832754134
 30
0.0
 11
-1504.416940942967
 21
-1123.28625338625
 31
0.0
  0
LINE
  5
3B8
330
1F
100
AcDbEntity
  8
0
  6
CONTINUOUS
 62
     7
100
AcDbLine
 10
-1504.128250073837
 20
-1123.290208000368
 30
0.0
 11
-1504.416940942967
 21
-1123.28625338625
 31
0.0
  0
ARC
  5
3B9
330
1F
100
AcDbEntity
  8
0
  6
CONTINUOUS
 62
     7
100
AcDbCircle
 10
-1520.503247342935
 20
-1150.473691212667
 30
0.0
 40
23.00000273090247
100
AcDbArc
 50
180.0000068030071
 51
269.9999931969929
  0
LINE
  5
3BA
330
1F
100
AcDbEntity
  8
0
  6
CONTINUOUS
 62
     7
100
AcDbLine
 10
-1513.503250073838
 20
-1125.473693943569
 30
0.0
 11
-1513.599245619536
 21
-1125.569689489267
 31
0.0
  0
ARC
  5
3BB
330
1F
100
AcDbEntity
  8
0
  6
CONTINUOUS
 62
     7
100
AcDbCircle
 10
-1527.503250073837
 20
-1152.472687254957
 30
0.0
 40
13.21838395753098
100
AcDbArc
 50
355.7069909685984
 51
4.201970560383188
  0
LINE
  5
3BC
330
1F
100
AcDbEntity
  8
0
  6
CONTINUOUS
 62
     7
100
AcDbLine
 10
-1514.503250073837
 20
-1120.973693943569
 30
0.0
 11
-1513.503250073838
 21
-1120.973693943569
 31
0.0
  0
LINE
  5
3BD
330
1F
100
AcDbEntity
  8
0
  6
CONTINUOUS
 62
     7
100
AcDbLine
 10
-1510.589559204707
 20
-1123.28625338625
 30
0.0
 11
-1509.503250073838
 21
-1123.281832754134
 31
0.0
  0
LINE
  5
3BE
330
1F
100
AcDbEntity
  8
0
  6
CONTINUOUS
 62
     7
100
AcDbLine
 10
-1510.878250073837
 20
-1123.339145452
 30
0.0
 11
-1510.878250073837
 21
-1120.908242435139
 31
0.0
  0
LINE
  5
3BF
330
1F
100
AcDbEntity
  8
0
  6
CONTINUOUS
 62
     7
100
AcDbLine
 10
-1508.503250073837
 20
-1145.973693943569
 30
0.0
 11
-1508.503250073837
 21
-1144.973693943569
 31
0.0
  0
LINE
  5
3C0
330
1F
100
AcDbEntity
  8
0
  6
CONTINUOUS
 62
     7
100
AcDbLine
 10
-1520.503250073837
 20
-1173.473693943569
 30
0.0
 11
-1511.104450940722
 21
-1173.473693943569
 31
0.0
  0
LINE
  5
3C1
330
1F
100
AcDbEntity
  8
0
  6
CONTINUOUS
 62
     7
100
AcDbLine
 10
-1505.503250073837
 20
-1125.532600301157
 30
0.0
 11
-1505.326495103245
 21
-1125.473693943569
 31
0.0
  0
LWPOLYLINE
  5
3C2
330
1F
100
AcDbEntity
  8
0
  6
CONTINUOUS
 62
     7
100
AcDbPolyline
 90
        3
 70
     0
 43
0.0
 10
-1526.500956630773
 20
-1139.298615967277
 42
0.0003301899381158
 10
-1526.519587863591
 20
-1139.288136764475
 42
0.0000327622916564
 10
-1526.522035403632
 20
-1139.286762474707
  0
LINE
  5
3C3
330
1F
100
AcDbEntity
  8
0
  6
CONTINUOUS
 62
     7
100
AcDbLine
 10
-1500.503250073837
 20
-1120.973693943569
 30
0.0
 11
-1500.503250073837
 21
-1119.273693943569
 31
0.0
  0
LINE
  5
3C4
330
1F
100
AcDbEntity
  8
0
  6
CONTINUOUS
 62
     7
100
AcDbLine
 10
-1501.503250073837
 20
-1120.973693943569
 30
0.0
 11
-1500.503250073837
 21
-1120.973693943569
 31
0.0
  0
LINE
  5
3C5
330
1F
100
AcDbEntity
  8
0
  6
CONTINUOUS
 62
     7
100
AcDbLine
 10
-1501.503250073837
 20
-1125.473693943569
 30
0.0
 11
-1501.407254528139
 21
-1125.569689489267
 31
0.0
  0
LINE
  5
3C6
330
1F
100
AcDbEntity
  8
0
  6
CONTINUOUS
 62
     7
100
AcDbLine
 10
-1505.403250073837
 20
-1120.938786472406
 30
0.0
 11
-1507.503250073838
 21
-1120.920460050045
 31
0.0
  0
LINE
  5
3C7
330
1F
100
AcDbEntity
  8
0
  6
CONTINUOUS
 62
     7
100
AcDbLine
 10
-1503.901900569346
 20
-1175.473693943569
 30
0.0
 11
-1511.104571802059
 21
-1175.473693943569
 31
0.0
  0
ARC
  5
3C8
330
1F
100
AcDbEntity
  8
0
  6
CONTINUOUS
 62
     7
100
AcDbCircle
 10
-1527.503250073837
 20
-1152.472687254957
 30
0.0
 40
13.21838395753098
100
AcDbArc
 50
85.75234952475599
 51
94.24765047524494
  0
LINE
  5
3C9
330
1F
100
AcDbEntity
  8
0
  6
CONTINUOUS
 62
     7
100
AcDbLine
 10
-1511.104450940722
 20
-1175.473693943569
 30
0.0
 11
-1511.104450940722
 21
-1173.473693943569
 31
0.0
  0
LINE
  5
3CA
330
1F
100
AcDbEntity
  8
0
  6
CONTINUOUS
 62
     7
100
AcDbLine
 10
-1505.326495103245
 20
-1123.36750777232
 30
0.0
 11
-1505.326495103245
 21
-1125.473693943569
 31
0.0
  0
LINE
  5
3CB
330
1F
100
AcDbEntity
  8
0
  6
CONTINUOUS
 62
     7
100
AcDbLine
 10
-1511.104450940722
 20
-1175.473693943569
 30
0.0
 11
-1520.503250073837
 21
-1175.473693943569
 31
0.0
  0
LINE
  5
3CC
330
1F
100
AcDbEntity
  8
0
  6
CONTINUOUS
 62
     7
100
AcDbLine
 10
-1505.503250073837
 20
-1123.308601414732
 30
0.0
 11
-1505.503250073837
 21
-1125.532600301157
 31
0.0
  0
LINE
  5
3CD
330
1F
100
AcDbEntity
  8
0
  6
CONTINUOUS
 62
     7
100
AcDbLine
 10
-1509.680005044429
 20
-1123.36750777232
 30
0.0
 11
-1509.503250073838
 21
-1123.308601414732
 31
0.0
  0
LINE
  5
3CE
330
1F
100
AcDbEntity
  8
0
  6
CONTINUOUS
 62
     7
100
AcDbLine
 10
-1501.503250073837
 20
-1125.473693943569
 30
0.0
 11
-1501.503250073837
 21
-1120.973693943569
 31
0.0
  0
LINE
  5
3CF
330
1F
100
AcDbEntity
  8
0
  6
CONTINUOUS
 62
     7
100
AcDbLine
 10
-1513.503250073838
 20
-1125.473693943569
 30
0.0
 11
-1509.680005044429
 21
-1125.473693943569
 31
0.0
  0
CIRCLE
  5
3D0
330
1F
100
AcDbEntity
  8
0
  6
CONTINUOUS
 62
     7
100
AcDbCircle
 10
1507.503250073838
 20
-1169.97369394357
 30
0.0
 40
3.000000000000114
210
0.0
220
0.0
230
-1.0
  0
LINE
  5
3D1
330
1F
100
AcDbEntity
  8
0
  6
CONTINUOUS
 62
     7
100
AcDbLine
 10
-1509.603250073837
 20
-1120.938786472406
 30
0.0
 11
-1509.503250073838
 21
-1120.944374394273
 31
0.0
  0
ARC
  5
3D2
330
1F
100
AcDbEntity
  8
0
  6
CONTINUOUS
 62
     7
100
AcDbCircle
 10
1527.503250073837
 20
-1152.472688052535
 30
0.0
 40
13.20791131735528
210
0.0
220
0.0
230
-1.0
100
AcDbArc
 50
184.3419789735802
 51
265.6578553860946
  0
ARC
  5
3D3
330
1F
100
AcDbEntity
  8
0
  6
CONTINUOUS
 62
     7
100
AcDbCircle
 10
-1525.690851671674
 20
-1157.661665855419
 30
0.0
 40
16.2096298597867
100
AcDbArc
 50
157.5554294212904
 51
157.6754014091929
  0
LINE
  5
3D4
330
1F
100
AcDbEntity
  8
0
  6
CONTINUOUS
 62
     7
100
AcDbLine
 10
-1509.680005044429
 20
-1125.473693943569
 30
0.0
 11
-1509.503250073838
 21
-1125.532600301157
 31
0.0
  0
LINE
  5
3D5
330
1F
100
AcDbEntity
  8
0
  6
CONTINUOUS
 62
     7
100
AcDbLine
 10
-1514.333246409695
 20
-1153.472649975598
 30
0.0
 11
-1514.321953309102
 21
-1153.462176537845
 31
0.0
  0
LINE
  5
3D6
330
1F
100
AcDbEntity
  8
0
  6
CONTINUOUS
 62
     7
100
AcDbLine
 10
-1540.684546838572
 20
-1153.462176537845
 30
0.0
 11
-1540.67325373798
 21
-1153.472649975598
 31
0.0
  0
ARC
  5
3D7
330
1F
100
AcDbEntity
  8
0
  6
CONTINUOUS
 62
     7
100
AcDbCircle
 10
1527.503250073837
 20
-1152.472688052535
 30
0.0
 40
13.20791131735528
210
0.0
220
0.0
230
-1.0
100
AcDbArc
 50
274.3421446139074
 51
355.6580210264199
  0
LINE
  5
3D8
330
1F
100
AcDbEntity
  8
0
  6
CONTINUOUS
 62
     7
100
AcDbLine
 10
-1513.503250073838
 20
-1120.973693943569
 30
0.0
 11
-1513.599245619536
 21
-1121.069689489268
 31
0.0
  0
CIRCLE
  5
3D9
330
1F
100
AcDbEntity
  8
0
  6
CONTINUOUS
 62
     7
100
AcDbCircle
 10
1527.503250073837
 20
-1152.473693943569
 30
0.0
 40
13.24999999999998
210
0.0
220
0.0
230
-1.0
  0
LINE
  5
3DA
330
1F
100
AcDbEntity
  8
0
  6
CONTINUOUS
 62
     7
100
AcDbLine
 10
-1509.503250073838
 20
-1123.308601414732
 30
0.0
 11
-1509.503250073838
 21
-1125.532600301157
 31
0.0
  0
LINE
  5
3DB
330
1F
100
AcDbEntity
  8
0
  6
CONTINUOUS
 62
     7
100
AcDbLine
 10
-1509.680005044429
 20
-1123.36750777232
 30
0.0
 11
-1509.680005044429
 21
-1125.473693943569
 31
0.0
  0
LINE
  5
3DC
330
1F
100
AcDbEntity
  8
0
  6
CONTINUOUS
 62
     7
100
AcDbLine
 10
-1509.680005044429
 20
-1123.36750777232
 30
0.0
 11
-1512.108213070266
 21
-1123.36750777232
 31
0.0
  0
LWPOLYLINE
  5
3DD
330
1F
100
AcDbEntity
  8
0
  6
CONTINUOUS
 62
     7
100
AcDbPolyline
 90
        3
 70
     0
 43
0.0
 10
-1528.484464744042
 20
-1139.286762474706
 42
0.0000327622916705
 10
-1528.486912284084
 20
-1139.288136764475
 42
0.0003301899381096
 10
-1528.505543516901
 20
-1139.298615967276
  0
ARC
  5
3DE
330
1F
100
AcDbEntity
  8
0
  6
CONTINUOUS
 62
     7
100
AcDbCircle
 10
1527.503250073837
 20
-1152.472688052535
 30
0.0
 40
13.20791131735528
210
0.0
220
0.0
230
-1.0
100
AcDbArc
 50
4.341978973580926
 51
85.65785538609347
  0
LINE
  5
3DF
330
1F
100
AcDbEntity
  8
0
  6
CONTINUOUS
 62
     7
100
AcDbLine
 10
-1504.128250073837
 20
-1120.908242435139
 30
0.0
 11
-1504.128250073837
 21
-1123.339145452
 31
0.0
  0
LINE
  5
3E0
330
1F
100
AcDbEntity
  8
0
  6
CONTINUOUS
 62
     7
100
AcDbLine
 10
-1505.503250073837
 20
-1120.944374394273
 30
0.0
 11
-1505.403250073837
 21
-1120.938786472406
 31
0.0
  0
LINE
  5
3E1
330
1F
100
AcDbEntity
  8
0
  6
CONTINUOUS
 62
     7
100
AcDbLine
 10
-1510.878250073837
 20
-1123.339145452
 30
0.0
 11
-1511.113174850026
 21
-1123.359649170436
 31
0.0
  0
LINE
  5
3E2
330
1F
100
AcDbEntity
  8
0
  6
CONTINUOUS
 62
     7
100
AcDbLine
 10
-1514.503250073837
 20
-1119.273693943569
 30
0.0
 11
-1514.503250073837
 21
-1120.973693943569
 31
0.0
  0
LINE
  5
3E3
330
1F
100
AcDbEntity
  8
0
  6
CONTINUOUS
 62
     7
100
AcDbLine
 10
-1500.503250073837
 20
-1120.973693943569
 30
0.0
 11
-1500.407254528139
 21
-1121.069689489268
 31
0.0
  0
ARC
  5
3E4
330
1F
100
AcDbEntity
  8
0
  6
CONTINUOUS
 62
     7
100
AcDbCircle
 10
-1529.315648476
 20
-1157.661665855419
 30
0.0
 40
16.2096298597867
100
AcDbArc
 50
22.32459859080884
 51
22.44457057871069
  0
ARC
  5
3E5
330
1F
100
AcDbEntity
  8
0
  6
CONTINUOUS
 62
     7
100
AcDbCircle
 10
-1527.503250073837
 20
-1152.472687254957
 30
0.0
 40
13.21838395753098
100
AcDbArc
 50
175.7980294396178
 51
184.2930090314015
  0
LINE
  5
3E6
330
1F
100
AcDbEntity
  8
0
  6
CONTINUOUS
 62
     7
100
AcDbLine
 10
-1506.503250073837
 20
-1144.973693943569
 30
0.0
 11
-1506.503250073837
 21
-1141.546720257386
 31
0.0
  0
LINE
  5
3E7
330
1F
100
AcDbEntity
  8
0
  6
CONTINUOUS
 62
     7
100
AcDbLine
 10
-1508.503250073837
 20
-1133.271140945346
 30
0.0
 11
-1508.503250073837
 21
-1144.973693943569
 31
0.0
  0
ARC
  5
3E8
330
1F
100
AcDbEntity
  8
0
  6
CONTINUOUS
 62
     7
100
AcDbCircle
 10
-1527.503250073837
 20
-1152.472687254957
 30
0.0
 40
13.21838395753098
100
AcDbArc
 50
265.7523495247551
 51
274.247650475244
  0
LINE
  5
3E9
330
1F
100
AcDbEntity
  8
0
  6
CONTINUOUS
 62
     7
100
AcDbLine
 10
-1514.503250073837
 20
-1120.973693943569
 30
0.0
 11
-1514.599245619536
 21
-1121.069689489268
 31
0.0
  0
LINE
  5
3EA
330
1F
100
AcDbEntity
  8
0
  6
CONTINUOUS
 62
     7
100
AcDbLine
 10
-1505.326495103245
 20
-1125.473693943569
 30
0.0
 11
-1501.503250073837
 21
-1125.473693943569
 31
0.0
  0
CIRCLE
  5
3EB
330
1F
100
AcDbEntity
  8
0
  6
CONTINUOUS
 62
     7
100
AcDbCircle
 10
1507.503250073838
 20
-1169.97369394357
 30
0.0
 40
5.000000000000115
210
0.0
220
0.0
230
-1.0
  0
LINE
  5
3EC
330
1F
100
AcDbEntity
  8
0
  6
CONTINUOUS
 62
     7
100
AcDbLine
 10
-1501.503250073837
 20
-1120.973693943569
 30
0.0
 11
-1501.407254528139
 21
-1121.069689489268
 31
0.0
  0
ARC
  5
3ED
330
1F
100
AcDbEntity
  8
0
  6
CONTINUOUS
 62
     7
100
AcDbCircle
 10
1527.503250073837
 20
-1152.472688052535
 30
0.0
 40
13.20791131735528
210
0.0
220
0.0
230
-1.0
100
AcDbArc
 50
94.34214461390641
 51
175.6580210264189
  0
LINE
  5
3EE
330
1F
100
AcDbEntity
  8
0
  6
CONTINUOUS
 62
     7
100
AcDbLine
 10
-1506.503250073837
 20
-1140.718061897301
 30
0.0
 11
-1506.503250073837
 21
-1133.271140945346
 31
0.0
  0
LINE
  5
3EF
330
1F
100
AcDbEntity
  8
0
  6
CONTINUOUS
 62
     7
100
AcDbLine
 10
-1505.503250073837
 20
-1123.308601414732
 30
0.0
 11
-1505.326495103245
 21
-1123.36750777232
 31
0.0
  0
LINE
  5
3F0
330
1F
100
AcDbEntity
  8
0
  6
CONTINUOUS
 62
     7
100
AcDbLine
 10
-1513.503250073838
 20
-1120.973693943569
 30
0.0
 11
-1513.503250073838
 21
-1125.473693943569
 31
0.0
  0
ARC
  5
3F1
330
1F
100
AcDbEntity
  8
0
  6
CONTINUOUS
 62
     7
100
AcDbCircle
 10
-1534.444212219456
 20
-1151.545447424829
 30
0.0
 40
16.18468158974285
100
AcDbArc
 50
299.3069089452201
 51
299.3925180908485
  0
ARC
  5
3F2
330
1F
100
AcDbEntity
  8
0
  6
CONTINUOUS
 62
     7
100
AcDbCircle
 10
-1520.562287928221
 20
-1151.545447424832
 30
0.0
 40
16.18468158973923
100
AcDbArc
 50
240.6074819091533
 51
240.6930910547786
  0
LINE
  5
3F3
330
1F
100
AcDbEntity
  8
0
  6
CONTINUOUS
 62
     7
100
AcDbLine
 10
-1510.589559204707
 20
-1123.28625338625
 30
0.0
 11
-1510.878250073837
 21
-1123.290208000368
 31
0.0
  0
LINE
  5
3F4
330
1F
100
AcDbEntity
  8
0
  6
CONTINUOUS
 62
     7
100
AcDbLine
 10
-1506.503250073837
 20
-1145.973693943569
 30
0.0
 11
-1508.503250073837
 21
-1145.973693943569
 31
0.0
  0
LINE
  5
3F5
330
1F
100
AcDbEntity
  8
0
  6
CONTINUOUS
 62
     7
100
AcDbLine
 10
-1506.503250073837
 20
-1144.973693943569
 30
0.0
 11
-1506.503250073837
 21
-1145.973693943569
 31
0.0
  0
LINE
  5
3F6
330
1F
100
AcDbEntity
  8
0
  6
CONTINUOUS
 62
     7
100
AcDbLine
 10
-1515.336360816824
 20
-1151.47272612947
 30
0.0
 11
-1516.538991851713
 21
-1151.50414325242
 31
0.0
  0
LINE
  5
3F7
330
1F
100
AcDbEntity
  8
0
  6
CONTINUOUS
 62
     7
100
AcDbLine
 10
-1471.503250073837
 20
-1139.431180362702
 30
0.0
 11
-1471.503250073837
 21
-1128.473693943569
 31
0.0
  0
LINE
  5
3F8
330
1F
100
AcDbEntity
  8
0
  6
CONTINUOUS
 62
     7
100
AcDbLine
 10
-1503.902049206952
 20
-1175.473693943569
 30
0.0
 11
-1503.902049206952
 21
-1173.473693943569
 31
0.0
  0
LINE
  5
3F9
330
1F
100
AcDbEntity
  8
0
  6
CONTINUOUS
 62
     7
100
AcDbLine
 10
-1472.003250073837
 20
-1128.473693943569
 30
0.0
 11
-1475.15168404682
 21
-1119.478168306477
 31
0.0
  0
ARC
  5
3FA
330
1F
100
AcDbEntity
  8
0
  6
CONTINUOUS
 62
     7
100
AcDbCircle
 10
-1494.512948624103
 20
-1150.449724645367
 30
0.0
 40
23.02397134089716
100
AcDbArc
 50
270.0241351070936
 51
281.2971898869991
  0
CIRCLE
  5
3FB
330
1F
100
AcDbEntity
  8
0
  6
CONTINUOUS
 62
     7
100
AcDbCircle
 10
1527.503250073837
 20
-1152.473693943569
 30
0.0
 40
15.26745373558147
210
0.0
220
0.0
230
-1.0
  0
ARC
  5
3FC
330
1F
100
AcDbEntity
  8
0
  6
CONTINUOUS
 62
     7
100
AcDbCircle
 10
-1527.502378673625
 20
-1152.473518149282
 30
0.0
 40
12.20884859756809
100
AcDbArc
 50
94.70233818029413
 51
175.2980356077253
  0
ARC
  5
3FD
330
1F
100
AcDbEntity
  8
0
  6
CONTINUOUS
 62
     7
100
AcDbCircle
 10
1520.503250073838
 20
-1150.47369394357
 30
0.0
 40
24.99999999999969
210
0.0
220
0.0
230
-1.0
100
AcDbArc
 50
269.9999999999995
 51
0.0000000000005116
  0
LINE
  5
3FE
330
1F
100
AcDbEntity
  8
0
  6
CONTINUOUS
 62
     7
100
AcDbLine
 10
-1500.407254528139
 20
-1121.069689489268
 30
0.0
 11
-1501.407254528139
 21
-1121.069689489268
 31
0.0
  0
ARC
  5
3FF
330
1F
100
AcDbEntity
  8
0
  6
CONTINUOUS
 62
     7
100
AcDbCircle
 10
-1527.503682878226
 20
-1152.473079555742
 30
0.0
 40
12.20837553171322
100
AcDbArc
 50
4.700081665193133
 51
85.29954454406872
  0
LINE
  5
400
330
1F
100
AcDbEntity
  8
0
  6
CONTINUOUS
 62
     7
100
AcDbLine
 10
-1526.524196151751
 20
-1163.447497683893
 30
0.0
 11
-1528.482303995923
 21
-1163.447497683895
 31
0.0
  0
LINE
  5
401
330
1F
100
AcDbEntity
  8
0
  6
CONTINUOUS
 62
     7
100
AcDbLine
 10
-1515.336360816824
 20
-1151.47272612947
 30
0.0
 11
-1514.333246409696
 21
-1151.47272612947
 31
0.0
  0
LINE
  5
402
330
1F
100
AcDbEntity
  8
0
  6
CONTINUOUS
 62
     7
100
AcDbLine
 10
-1528.482303995923
 20
-1141.518821960835
 30
0.0
 11
-1528.482303995923
 21
-1139.290611247709
 31
0.0
  0
LINE
  5
403
330
1F
100
AcDbEntity
  8
0
  6
CONTINUOUS
 62
     7
100
AcDbLine
 10
-1514.333246409695
 20
-1153.472649975598
 30
0.0
 11
-1515.336360816825
 21
-1153.472649975598
 31
0.0
  0
LINE
  5
404
330
1F
100
AcDbEntity
  8
0
  6
CONTINUOUS
 62
     7
100
AcDbLine
 10
-1543.503250073837
 20
-1128.473693943569
 30
0.0
 11
-1543.503250073837
 21
-1150.473693943569
 31
0.0
  0
ARC
  5
405
330
1F
100
AcDbEntity
  8
0
  6
CONTINUOUS
 62
     7
100
AcDbCircle
 10
1507.503250073837
 20
-1142.473693943569
 30
0.0
 40
40.5
210
0.0
220
0.0
230
-1.0
100
AcDbArc
 50
159.7767492920917
 51
165.2876683882107
  0
ARC
  5
406
330
1F
100
AcDbEntity
  8
0
  6
CONTINUOUS
 62
     7
100
AcDbCircle
 10
1494.503250073836
 20
-1150.473693943578
 30
0.0
 40
24.9999999999908
210
0.0
220
0.0
230
-1.0
100
AcDbArc
 50
256.6016154895084
 51
270.0000000000035
  0
LINE
  5
407
330
1F
100
AcDbEntity
  8
0
  6
CONTINUOUS
 62
     7
100
AcDbLine
 10
-1469.503250073837
 20
-1128.473693943569
 30
0.0
 11
-1471.503250073837
 21
-1128.473693943569
 31
0.0
  0
LINE
  5
408
330
1F
100
AcDbEntity
  8
0
  6
CONTINUOUS
 62
     7
100
AcDbLine
 10
-1513.599245619536
 20
-1125.569689489267
 30
0.0
 11
-1513.599245619536
 21
-1121.069689489268
 31
0.0
  0
LINE
  5
409
330
1F
100
AcDbEntity
  8
0
  6
CONTINUOUS
 62
     7
100
AcDbLine
 10
-1471.503250073837
 20
-1128.473693943569
 30
0.0
 11
-1472.003250073837
 21
-1128.473693943569
 31
0.0
  0
LINE
  5
40A
330
1F
100
AcDbEntity
  8
0
  6
CONTINUOUS
 62
     7
100
AcDbLine
 10
-1528.503250073837
 20
-1140.305764021319
 30
0.0
 11
-1528.482303995923
 21
-1141.518821960835
 31
0.0
  0
LINE
  5
40B
330
1F
100
AcDbEntity
  8
0
  6
CONTINUOUS
 62
     7
100
AcDbLine
 10
-1539.854816100855
 20
-1119.478168306477
 30
0.0
 11
-1543.003250073837
 21
-1128.473693943569
 31
0.0
  0
LINE
  5
40C
330
1F
100
AcDbEntity
  8
0
  6
CONTINUOUS
 62
     7
100
AcDbLine
 10
-1501.407254528139
 20
-1121.069689489268
 30
0.0
 11
-1501.407254528139
 21
-1125.569689489267
 31
0.0
  0
LINE
  5
40D
330
1F
100
AcDbEntity
  8
0
  6
CONTINUOUS
 62
     7
100
AcDbLine
 10
-1514.599245619536
 20
-1121.069689489268
 30
0.0
 11
-1514.599245619536
 21
-1119.273693943569
 31
0.0
  0
LINE
  5
40E
330
1F
100
AcDbEntity
  8
0
  6
CONTINUOUS
 62
     7
100
AcDbLine
 10
-1503.902049206952
 20
-1173.473693943569
 30
0.0
 11
-1494.503250073837
 21
-1173.473693943569
 31
0.0
  0
LINE
  5
40F
330
1F
100
AcDbEntity
  8
0
  6
CONTINUOUS
 62
     7
100
AcDbLine
 10
-1545.503250073837
 20
-1150.473693943569
 30
0.0
 11
-1545.503250073837
 21
-1128.473693943569
 31
0.0
  0
LINE
  5
410
330
1F
100
AcDbEntity
  8
0
  6
CONTINUOUS
 62
     7
100
AcDbLine
 10
-1528.482303995923
 20
-1163.447497683895
 30
0.0
 11
-1528.503250073837
 21
-1164.639611942662
 31
0.0
  0
LINE
  5
411
330
1F
100
AcDbEntity
  8
0
  6
CONTINUOUS
 62
     7
100
AcDbLine
 10
-1526.524196151751
 20
-1141.518821960325
 30
0.0
 11
-1526.503250073837
 21
-1140.305764020784
 31
0.0
  0
LINE
  5
412
330
1F
100
AcDbEntity
  8
0
  6
CONTINUOUS
 62
     7
100
AcDbLine
 10
-1516.538991851713
 20
-1151.50414325242
 30
0.0
 11
-1516.538991851713
 21
-1153.462176537845
 31
0.0
  0
LINE
  5
413
330
1F
100
AcDbEntity
  8
0
  6
CONTINUOUS
 62
     7
100
AcDbLine
 10
-1528.482303995923
 20
-1141.518821960835
 30
0.0
 11
-1526.524196151751
 21
-1141.518821960325
 31
0.0
  0
LINE
  5
414
330
1F
100
AcDbEntity
  8
0
  6
CONTINUOUS
 62
     7
100
AcDbLine
 10
-1494.503250073837
 20
-1175.473693943569
 30
0.0
 11
-1503.902049206952
 21
-1175.473693943569
 31
0.0
  0
LINE
  5
415
330
1F
100
AcDbEntity
  8
0
  6
CONTINUOUS
 62
     7
100
AcDbLine
 10
-1469.503250073837
 20
-1128.473693943569
 30
0.0
 11
-1469.503250073837
 21
-1142.436894634033
 31
0.0
  0
LINE
  5
416
330
1F
100
AcDbEntity
  8
0
  6
CONTINUOUS
 62
     7
100
AcDbLine
 10
-1538.46750829596
 20
-1153.462176537845
 30
0.0
 11
-1538.467508295958
 21
-1151.50414325242
 31
0.0
  0
LINE
  5
417
330
1F
100
AcDbEntity
  8
0
  6
CONTINUOUS
 62
     7
100
AcDbLine
 10
-1516.538991851713
 20
-1153.462176537845
 30
0.0
 11
-1515.336360816825
 21
-1153.472649975598
 31
0.0
  0
LINE
  5
418
330
1F
100
AcDbEntity
  8
0
  6
CONTINUOUS
 62
     7
100
AcDbLine
 10
-1540.686102419058
 20
-1151.50414325242
 30
0.0
 11
-1538.467508295958
 21
-1151.50414325242
 31
0.0
  0
LINE
  5
419
330
1F
100
AcDbEntity
  8
0
  6
CONTINUOUS
 62
     7
100
AcDbLine
 10
-1539.670139330848
 20
-1153.472649975598
 30
0.0
 11
-1538.46750829596
 21
-1153.462176537845
 31
0.0
  0
LINE
  5
41A
330
1F
100
AcDbEntity
  8
0
  6
CONTINUOUS
 62
     7
100
AcDbLine
 10
-1516.538991851713
 20
-1151.50414325242
 30
0.0
 11
-1514.320397728618
 21
-1151.50414325242
 31
0.0
  0
LINE
  5
41B
330
1F
100
AcDbEntity
  8
0
  6
CONTINUOUS
 62
     7
100
AcDbLine
 10
-1514.321953309102
 20
-1153.462176537845
 30
0.0
 11
-1516.538991851713
 21
-1153.462176537845
 31
0.0
  0
LINE
  5
41C
330
1F
100
AcDbEntity
  8
0
  6
CONTINUOUS
 62
     7
100
AcDbLine
 10
-1528.503250073837
 20
-1140.305764021319
 30
0.0
 11
-1528.503250073837
 21
-1139.302687241548
 31
0.0
  0
LINE
  5
41D
330
1F
100
AcDbEntity
  8
0
  6
CONTINUOUS
 62
     7
100
AcDbLine
 10
-1509.503250073838
 20
-1125.569689489267
 30
0.0
 11
-1513.599245619536
 21
-1125.569689489267
 31
0.0
  0
LINE
  5
41E
330
1F
100
AcDbEntity
  8
0
  6
CONTINUOUS
 62
     7
100
AcDbLine
 10
-1526.524196151751
 20
-1163.447497683893
 30
0.0
 11
-1526.524196151751
 21
-1165.654763262205
 31
0.0
  0
ARC
  5
41F
330
1F
100
AcDbEntity
  8
0
  6
CONTINUOUS
 62
     7
100
AcDbCircle
 10
1494.503250073837
 20
-1150.473693943572
 30
0.0
 40
24.99999999999782
210
0.0
220
0.0
230
-1.0
100
AcDbArc
 50
233.9493219657159
 51
251.331758300989
  0
CIRCLE
  5
420
330
1F
100
AcDbEntity
  8
0
  6
CONTINUOUS
 62
     7
100
AcDbCircle
 10
-1527.502985778523
 20
-1152.490152909592
 30
0.0
 40
10.20801376552333
  0
LINE
  5
421
330
1F
100
AcDbEntity
  8
0
  6
CONTINUOUS
 62
     7
100
AcDbLine
 10
-1528.482303995923
 20
-1165.654763262202
 30
0.0
 11
-1528.482303995923
 21
-1163.447497683895
 31
0.0
  0
LINE
  5
422
330
1F
100
AcDbEntity
  8
0
  6
CONTINUOUS
 62
     7
100
AcDbLine
 10
-1540.673253737979
 20
-1151.47272612947
 30
0.0
 11
-1539.670139330846
 21
-1151.472726129471
 31
0.0
  0
LINE
  5
423
330
1F
100
AcDbEntity
  8
0
  6
CONTINUOUS
 62
     7
100
AcDbLine
 10
-1526.503250073837
 20
-1164.639611942661
 30
0.0
 11
-1526.524196151751
 21
-1163.447497683893
 31
0.0
  0
LINE
  5
424
330
1F
100
AcDbEntity
  8
0
  6
CONTINUOUS
 62
     7
100
AcDbLine
 10
-1539.670139330848
 20
-1153.472649975598
 30
0.0
 11
-1540.67325373798
 21
-1153.472649975598
 31
0.0
  0
LINE
  5
425
330
1F
100
AcDbEntity
  8
0
  6
CONTINUOUS
 62
     7
100
AcDbLine
 10
-1545.503250073837
 20
-1128.473693943569
 30
0.0
 11
-1543.503250073837
 21
-1128.473693943569
 31
0.0
  0
LINE
  5
426
330
1F
100
AcDbEntity
  8
0
  6
CONTINUOUS
 62
     7
100
AcDbLine
 10
-1528.503250073837
 20
-1165.64268886352
 30
0.0
 11
-1528.503250073837
 21
-1164.639611942662
 31
0.0
  0
LINE
  5
427
330
1F
100
AcDbEntity
  8
0
  6
CONTINUOUS
 62
     7
100
AcDbLine
 10
-1526.503250073837
 20
-1164.639611942661
 30
0.0
 11
-1526.503250073837
 21
-1165.642688863521
 31
0.0
  0
LINE
  5
428
330
1F
100
AcDbEntity
  8
0
  6
CONTINUOUS
 62
     7
100
AcDbLine
 10
-1471.503250073837
 20
-1141.063635024064
 30
0.0
 11
-1471.503250073837
 21
-1141.012696252005
 31
0.0
  0
ARC
  5
429
330
1F
100
AcDbEntity
  8
0
  6
CONTINUOUS
 62
     7
100
AcDbCircle
 10
-1476.567471581369
 20
-1119.973693943569
 30
0.0
 40
1.499999999999988
100
AcDbArc
 50
19.29004621918809
 51
27.81813928464488
  0
ARC
  5
42A
330
1F
100
AcDbEntity
  8
0
  6
CONTINUOUS
 62
     7
100
AcDbCircle
 10
-1527.502792508109
 20
-1152.472271633841
 30
0.0
 40
12.20840225137936
100
AcDbArc
 50
184.7001886818064
 51
265.2994382540849
  0
LINE
  5
42B
330
1F
100
AcDbEntity
  8
0
  6
CONTINUOUS
 62
     7
100
AcDbLine
 10
-1538.467508295958
 20
-1151.50414325242
 30
0.0
 11
-1539.670139330846
 21
-1151.472726129471
 31
0.0
  0
LINE
  5
42C
330
1F
100
AcDbEntity
  8
0
  6
CONTINUOUS
 62
     7
100
AcDbLine
 10
-1501.407254528139
 20
-1125.569689489267
 30
0.0
 11
-1505.503250073837
 21
-1125.569689489267
 31
0.0
  0
LINE
  5
42D
330
1F
100
AcDbEntity
  8
0
  6
CONTINUOUS
 62
     7
100
AcDbLine
 10
-1500.407254528139
 20
-1119.273693943569
 30
0.0
 11
-1500.407254528139
 21
-1121.069689489268
 31
0.0
  0
LINE
  5
42E
330
1F
100
AcDbEntity
  8
0
  6
CONTINUOUS
 62
     7
100
AcDbLine
 10
-1513.599245619536
 20
-1121.069689489268
 30
0.0
 11
-1514.599245619536
 21
-1121.069689489268
 31
0.0
  0
LINE
  5
42F
330
1F
100
AcDbEntity
  8
0
  6
CONTINUOUS
 62
     7
100
AcDbLine
 10
-1526.524196151751
 20
-1139.290611247711
 30
0.0
 11
-1526.524196151751
 21
-1141.518821960325
 31
0.0
  0
LINE
  5
430
330
1F
100
AcDbEntity
  8
0
  6
CONTINUOUS
 62
     7
100
AcDbLine
 10
-1543.003250073837
 20
-1128.473693943569
 30
0.0
 11
-1543.503250073837
 21
-1128.473693943569
 31
0.0
  0
ARC
  5
431
330
1F
100
AcDbEntity
  8
0
  6
CONTINUOUS
 62
     7
100
AcDbCircle
 10
-1538.439028566306
 20
-1119.973693943569
 30
0.0
 40
1.499999999999874
100
AcDbArc
 50
152.1818607153557
 51
160.7099537808113
  0
ARC
  5
432
330
1F
100
AcDbEntity
  8
0
  6
CONTINUOUS
 62
     7
100
AcDbCircle
 10
-1527.503314572541
 20
-1152.472664698304
 30
0.0
 40
12.20797830308214
100
AcDbArc
 50
274.6988743426916
 51
355.3014987214058
  0
LINE
  5
433
330
1F
100
AcDbEntity
  8
0
  6
CONTINUOUS
 62
     7
100
AcDbLine
 10
-1538.46750829596
 20
-1153.462176537845
 30
0.0
 11
-1540.684546838572
 21
-1153.462176537845
 31
0.0
  0
LINE
  5
434
330
1F
100
AcDbEntity
  8
0
  6
CONTINUOUS
 62
     7
100
AcDbLine
 10
-1526.503250073837
 20
-1139.302687241549
 30
0.0
 11
-1526.503250073837
 21
-1140.305764020784
 31
0.0
  0
LINE
  5
435
330
1F
100
AcDbEntity
  8
0
  6
CONTINUOUS
 62
     7
100
AcDbLine
 10
-1499.903250087867
 20
-1200.350425129034
 30
0.0
 11
-1499.903250087867
 21
-1201.256168566033
 31
0.0
  0
LINE
  5
436
330
1F
100
AcDbEntity
  8
0
  6
CONTINUOUS
 62
     7
100
AcDbLine
 10
-1500.895666058826
 20
-1200.350425129034
 30
0.0
 11
-1499.903250087867
 21
-1200.350425129034
 31
0.0
  0
LINE
  5
437
330
1F
100
AcDbEntity
  8
0
  6
CONTINUOUS
 62
     7
100
AcDbLine
 10
-1509.503655483817
 20
-1200.225963890074
 30
0.0
 11
-1509.840576013404
 21
-1200.204178339691
 31
0.0
  0
LINE
  5
438
330
1F
100
AcDbEntity
  8
0
  6
CONTINUOUS
 62
     7
100
AcDbLine
 10
-1517.043788316626
 20
-1196.456276013642
 30
0.0
 11
-1517.24454493006
 21
-1196.254900557924
 31
0.0
  0
LINE
  5
439
330
1F
100
AcDbEntity
  8
0
  6
CONTINUOUS
 62
     7
100
AcDbLine
 10
-1501.324541958951
 20
-1196.508802875544
 30
0.0
 11
-1499.824777519786
 21
-1196.482606899875
 31
0.0
  0
LINE
  5
43A
330
1F
100
AcDbEntity
  8
0
  6
CONTINUOUS
 62
     7
100
AcDbLine
 10
-1515.103250087866
 20
-1201.256168566033
 30
0.0
 11
-1515.103250087866
 21
-1200.350425129034
 31
0.0
  0
LINE
  5
43B
330
1F
100
AcDbEntity
  8
0
  6
CONTINUOUS
 62
     7
100
AcDbLine
 10
-1515.181722655948
 20
-1200.115437748734
 30
0.0
 11
-1515.207972625339
 21
-1200.141607049948
 31
0.0
  0
LINE
  5
43C
330
1F
100
AcDbEntity
  8
0
  6
CONTINUOUS
 62
     7
100
AcDbLine
 10
-1517.253652818059
 20
-1196.253361892857
 30
0.0
 11
-1517.244544930061
 21
-1196.254900557924
 31
0.0
  0
ARC
  5
43D
330
1F
100
AcDbEntity
  8
0
  6
CONTINUOUS
 62
     7
100
AcDbCircle
 10
-1533.506071948214
 20
-1189.156639453004
 30
0.0
 40
10.19963656176494
100
AcDbArc
 50
188.1574793928864
 51
269.9991481432699
  0
ARC
  5
43E
330
1F
100
AcDbEntity
  8
0
  6
CONTINUOUS
 62
     7
100
AcDbCircle
 10
-1481.500453564931
 20
-1189.156610225057
 30
0.0
 40
10.19966579012004
100
AcDbArc
 50
270.0009941851151
 51
351.8423782787373
  0
ARC
  5
43F
330
1F
100
AcDbEntity
  8
0
  6
CONTINUOUS
 62
     7
100
AcDbCircle
 10
-1481.500485672692
 20
-1189.155927370032
 30
0.0
 40
12.1002411978077
100
AcDbArc
 50
270.0009900624964
 51
351.8423776672627
  0
LINE
  5
440
330
1F
100
AcDbEntity
  8
0
  6
CONTINUOUS
 62
     7
100
AcDbLine
 10
-1515.207972625339
 20
-1200.141607049948
 30
0.0
 11
-1515.103250087866
 21
-1200.350425129034
 31
0.0
  0
ARC
  5
441
330
1F
100
AcDbEntity
  8
0
  6
CONTINUOUS
 62
     7
100
AcDbCircle
 10
1507.503250073837
 20
-1142.473693943569
 30
0.0
 40
40.5
210
0.0
220
0.0
230
-1.0
100
AcDbArc
 50
331.0559866553553
 51
345.2876683882111
  0
LINE
  5
442
330
1F
100
AcDbEntity
  8
0
  6
CONTINUOUS
 62
     7
100
AcDbLine
 10
-1499.824777519785
 20
-1200.115437748734
 30
0.0
 11
-1499.798527550394
 21
-1200.141607049948
 31
0.0
  0
LINE
  5
443
330
1F
100
AcDbEntity
  8
0
  6
CONTINUOUS
 62
     7
100
AcDbLine
 10
-1501.324541958951
 20
-1200.089402530177
 30
0.0
 11
-1513.681958216782
 21
-1200.089402530177
 31
0.0
  0
LINE
  5
444
330
1F
100
AcDbEntity
  8
0
  6
CONTINUOUS
 62
     7
100
AcDbLine
 10
-1462.129037410256
 20
-1121.857350486958
 30
0.0
 11
-1474.318970283651
 21
-1121.857350486958
 31
0.0
  0
LINE
  5
445
330
1F
100
AcDbEntity
  8
0
  6
CONTINUOUS
 62
     7
100
AcDbLine
 10
-1533.506223593398
 20
-1199.356276013641
 30
0.0
 11
-1517.542175859717
 21
-1199.356276013641
 31
0.0
  0
LINE
  5
446
330
1F
100
AcDbEntity
  8
0
  6
CONTINUOUS
 62
     7
100
AcDbLine
 10
-1499.824777519786
 20
-1200.115437748734
 30
0.0
 11
-1501.324541958951
 21
-1200.089402530177
 31
0.0
  0
ARC
  5
447
330
1F
100
AcDbEntity
  8
0
  6
CONTINUOUS
 62
     7
100
AcDbCircle
 10
1517.542595922007
 20
-1198.857467338554
 30
0.0
 40
0.4988088519614201
210
0.0
220
0.0
230
-1.0
100
AcDbArc
 50
179.8719053799832
 51
269.9517494545954
  0
LINE
  5
448
330
1F
100
AcDbEntity
  8
0
  6
CONTINUOUS
 62
     7
100
AcDbLine
 10
-1499.903250087867
 20
-1201.256168566033
 30
0.0
 11
-1481.500276582335
 21
-1201.256168566033
 31
0.0
  0
LINE
  5
449
330
1F
100
AcDbEntity
  8
0
  6
CONTINUOUS
 62
     7
100
AcDbLine
 10
-1513.681958216782
 20
-1196.508802875544
 30
0.0
 11
-1501.324541958951
 21
-1196.508802875544
 31
0.0
  0
LINE
  5
44A
330
1F
100
AcDbEntity
  8
0
  6
CONTINUOUS
 62
     7
100
AcDbLine
 10
-1540.687529864023
 20
-1121.857350486958
 30
0.0
 11
-1552.877462765477
 21
-1121.857350486958
 31
0.0
  0
LINE
  5
44B
330
1F
100
AcDbEntity
  8
0
  6
CONTINUOUS
 62
     7
100
AcDbLine
 10
-1499.798527550394
 20
-1201.151607049948
 30
0.0
 11
-1499.903250087867
 21
-1201.256168566033
 31
0.0
  0
LINE
  5
44C
330
1F
100
AcDbEntity
  8
0
  6
CONTINUOUS
 62
     7
100
AcDbLine
 10
-1497.962711859107
 20
-1196.456276013642
 30
0.0
 11
-1499.798527550394
 21
-1196.456276013642
 31
0.0
  0
LINE
  5
44D
330
1F
100
AcDbEntity
  8
0
  6
CONTINUOUS
 62
     7
100
AcDbLine
 10
-1497.962711859107
 20
-1196.456276013642
 30
0.0
 11
-1497.761955245673
 21
-1196.254900557924
 31
0.0
  0
ARC
  5
44E
330
1F
100
AcDbEntity
  8
0
  6
CONTINUOUS
 62
     7
100
AcDbCircle
 10
1534.193587243137
 20
-1157.234313909853
 30
0.0
 40
10.0
210
0.0
220
0.0
230
-1.0
100
AcDbArc
 50
319.9999999999991
 51
331.0559866553543
  0
LINE
  5
44F
330
1F
100
AcDbEntity
  8
0
  6
CONTINUOUS
 62
     7
100
AcDbLine
 10
-1499.798527550394
 20
-1200.141607049948
 30
0.0
 11
-1499.798527550394
 21
-1201.151607049948
 31
0.0
  0
ARC
  5
450
330
1F
100
AcDbEntity
  8
0
  6
CONTINUOUS
 62
     7
100
AcDbCircle
 10
1552.878120359492
 20
-1122.358246920361
 30
0.0
 40
0.5008968650590567
210
0.0
220
0.0
230
-1.0
100
AcDbArc
 50
352.0004321480652
 51
90.07521982089878
  0
ARC
  5
451
330
1F
100
AcDbEntity
  8
0
  6
CONTINUOUS
 62
     7
100
AcDbCircle
 10
1537.003250073837
 20
-1134.727727251154
 30
0.0
 40
10.0
210
0.0
220
0.0
230
-1.0
100
AcDbArc
 50
0.0
 51
14.71233161178822
  0
LINE
  5
452
330
1F
100
AcDbEntity
  8
0
  6
CONTINUOUS
 62
     7
100
AcDbLine
 10
-1499.798527550394
 20
-1196.456276013642
 30
0.0
 11
-1499.798527550394
 21
-1200.141607049948
 31
0.0
  0
LINE
  5
453
330
1F
100
AcDbEntity
  8
0
  6
CONTINUOUS
 62
     7
100
AcDbLine
 10
-1515.207972625339
 20
-1200.141607049948
 30
0.0
 11
-1515.207972625339
 21
-1196.456276013642
 31
0.0
  0
LINE
  5
454
330
1F
100
AcDbEntity
  8
0
  6
CONTINUOUS
 62
     7
100
AcDbLine
 10
-1497.464324316016
 20
-1199.356276013641
 30
0.0
 11
-1481.500276582333
 21
-1199.356276013641
 31
0.0
  0
LINE
  5
455
330
1F
100
AcDbEntity
  8
0
  6
CONTINUOUS
 62
     7
100
AcDbLine
 10
-1471.403993559275
 20
-1190.603910326742
 30
0.0
 11
-1461.632357119263
 21
-1122.42795454913
 31
0.0
  0
ARC
  5
456
330
1F
100
AcDbEntity
  8
0
  6
CONTINUOUS
 62
     7
100
AcDbCircle
 10
1507.503250073837
 20
-1142.473693943569
 30
0.0
 40
40.5
210
0.0
220
0.0
230
-1.0
100
AcDbArc
 50
14.71233161178891
 51
20.22325070790829
  0
ARC
  5
457
330
1F
100
AcDbEntity
  8
0
  6
CONTINUOUS
 62
     7
100
AcDbCircle
 10
1537.003250073837
 20
-1150.219660635984
 30
0.0
 40
10.0
210
0.0
220
0.0
230
-1.0
100
AcDbArc
 50
345.2876683882106
 51
0.0
  0
LINE
  5
458
330
1F
100
AcDbEntity
  8
0
  6
CONTINUOUS
 62
     7
100
AcDbLine
 10
-1468.003250073837
 20
-1134.727727251154
 30
0.0
 11
-1468.003250073837
 21
-1150.05036978057
 31
0.0
  0
ARC
  5
459
330
1F
100
AcDbEntity
  8
0
  6
CONTINUOUS
 62
     7
100
AcDbCircle
 10
1462.128379816242
 20
-1122.358246920361
 30
0.0
 40
0.5008968650590307
210
0.0
220
0.0
230
-1.0
100
AcDbArc
 50
89.92478017910122
 51
187.9995678519348
  0
LINE
  5
45A
330
1F
100
AcDbEntity
  8
0
  6
CONTINUOUS
 62
     7
100
AcDbLine
 10
-1517.043788316626
 20
-1196.456276013642
 30
0.0
 11
-1517.043788316626
 21
-1198.856352166064
 31
0.0
  0
LINE
  5
45B
330
1F
100
AcDbEntity
  8
0
  6
CONTINUOUS
 62
     7
100
AcDbLine
 10
-1547.003250073837
 20
-1150.219660635984
 30
0.0
 11
-1547.003250073837
 21
-1134.727727251154
 31
0.0
  0
LINE
  5
45C
330
1F
100
AcDbEntity
  8
0
  6
CONTINUOUS
 62
     7
100
AcDbLine
 10
-1513.681958216782
 20
-1200.089402530177
 30
0.0
 11
-1515.181722655947
 21
-1200.115437748734
 31
0.0
  0
LINE
  5
45D
330
1F
100
AcDbEntity
  8
0
  6
CONTINUOUS
 62
     7
100
AcDbLine
 10
-1515.207972625339
 20
-1196.456276013642
 30
0.0
 11
-1517.043788316626
 21
-1196.456276013642
 31
0.0
  0
LINE
  5
45E
330
1F
100
AcDbEntity
  8
0
  6
CONTINUOUS
 62
     7
100
AcDbLine
 10
-1515.207972625339
 20
-1201.151607049948
 30
0.0
 11
-1515.207972625339
 21
-1200.141607049948
 31
0.0
  0
LINE
  5
45F
330
1F
100
AcDbEntity
  8
0
  6
CONTINUOUS
 62
     7
100
AcDbLine
 10
-1515.181722655948
 20
-1196.482606899875
 30
0.0
 11
-1515.207972625339
 21
-1196.456276013642
 31
0.0
  0
LINE
  5
460
330
1F
100
AcDbEntity
  8
0
  6
CONTINUOUS
 62
     7
100
AcDbLine
 10
-1541.380514066698
 20
-1164.226506316768
 30
0.0
 11
-1541.854031674327
 21
-1163.662190006719
 31
0.0
  0
ARC
  5
461
330
1F
100
AcDbEntity
  8
0
  6
CONTINUOUS
 62
     7
100
AcDbCircle
 10
-1533.506044101395
 20
-1189.155961513188
 30
0.0
 40
12.10020705417691
100
AcDbArc
 50
188.157482184147
 51
269.9991500860928
  0
LINE
  5
462
330
1F
100
AcDbEntity
  8
0
  6
CONTINUOUS
 62
     7
100
AcDbLine
 10
-1499.824777519785
 20
-1196.482606899875
 30
0.0
 11
-1499.798527550394
 21
-1196.456276013642
 31
0.0
  0
LINE
  5
463
330
1F
100
AcDbEntity
  8
0
  6
CONTINUOUS
 62
     7
100
AcDbLine
 10
-1515.207972625339
 20
-1201.151607049948
 30
0.0
 11
-1515.103250087866
 21
-1201.256168566033
 31
0.0
  0
ARC
  5
464
330
1F
100
AcDbEntity
  8
0
  6
CONTINUOUS
 62
     7
100
AcDbCircle
 10
1497.463904253726
 20
-1198.857467338554
 30
0.0
 40
0.4988088519613935
210
0.0
220
0.0
230
-1.0
100
AcDbArc
 50
270.0482505454046
 51
0.128094620016725
  0
LINE
  5
465
330
1F
100
AcDbEntity
  8
0
  6
CONTINUOUS
 62
     7
100
AcDbLine
 10
-1533.506223593398
 20
-1201.256168566033
 30
0.0
 11
-1515.103250087866
 21
-1201.256168566033
 31
0.0
  0
LINE
  5
466
330
1F
100
AcDbEntity
  8
0
  6
CONTINUOUS
 62
     7
100
AcDbLine
 10
-1515.103250087866
 20
-1200.350425129034
 30
0.0
 11
-1514.110834088849
 21
-1200.350425129034
 31
0.0
  0
LINE
  5
467
330
1F
100
AcDbEntity
  8
0
  6
CONTINUOUS
 62
     7
100
AcDbLine
 10
-1497.962711859107
 20
-1198.856352166064
 30
0.0
 11
-1497.962711859107
 21
-1196.456276013642
 31
0.0
  0
ARC
  5
468
330
1F
100
AcDbEntity
  8
0
  6
CONTINUOUS
 62
     7
100
AcDbCircle
 10
1478.003250073837
 20
-1134.727727251154
 30
0.0
 40
10.0
210
0.0
220
0.0
230
-1.0
100
AcDbArc
 50
165.2876683882106
 51
180.0
  0
LINE
  5
469
330
1F
100
AcDbEntity
  8
0
  6
CONTINUOUS
 62
     7
100
AcDbLine
 10
-1515.181722655947
 20
-1196.482606899875
 30
0.0
 11
-1513.681958216782
 21
-1196.508802875544
 31
0.0
  0
LINE
  5
46A
330
1F
100
AcDbEntity
  8
0
  6
CONTINUOUS
 62
     7
100
AcDbLine
 10
-1553.37414305647
 20
-1122.42795454913
 30
0.0
 11
-1543.602506616458
 21
-1190.603910326742
 31
0.0
  0
LINE
  5
46B
330
1F
100
AcDbEntity
  8
0
  6
CONTINUOUS
 62
     7
100
AcDbLine
 10
-1499.798527550394
 20
-1200.141607049948
 30
0.0
 11
-1499.903250087867
 21
-1200.350425129034
 31
0.0
  0
LINE
  5
46C
330
1F
100
AcDbEntity
  8
0
  6
CONTINUOUS
 62
     7
100
AcDbLine
 10
-1509.503250073838
 20
-1200.183837071159
 30
0.0
 11
-1509.503250073838
 21
-1200.273693943569
 31
0.0
  0
LINE
  5
46D
330
1F
100
AcDbEntity
  8
0
  6
CONTINUOUS
 62
     7
100
AcDbLine
 10
-1511.503250073838
 20
-1113.571140945346
 30
0.0
 11
-1509.800697075613
 21
-1115.273693943569
 31
0.0
  0
LINE
  5
46E
330
1F
100
AcDbEntity
  8
0
  6
CONTINUOUS
 62
     7
100
AcDbLine
 10
-1555.474458592544
 20
-1121.168988148619
 30
0.0
 11
-1545.483818838934
 21
-1190.872913198802
 31
0.0
  0
LINE
  5
46F
330
1F
100
AcDbEntity
  8
0
  6
CONTINUOUS
 62
     7
100
AcDbLine
 10
-1461.016867440073
 20
-1119.456168566045
 30
0.0
 11
-1475.159576882317
 21
-1119.456168566045
 31
0.0
  0
LINE
  5
470
330
1F
100
AcDbEntity
  8
0
  6
CONTINUOUS
 62
     7
100
AcDbLine
 10
-1497.752847357675
 20
-1196.253361892857
 30
0.0
 11
-1497.262033765951
 21
-1195.840262134113
 31
0.0
  0
ARC
  5
471
330
1F
100
AcDbEntity
  8
0
  6
CONTINUOUS
 62
     7
100
AcDbCircle
 10
1461.016907809659
 20
-1120.956203562027
 30
0.0
 40
1.500034996525391
210
0.0
220
0.0
230
-1.0
100
AcDbArc
 50
90.0015419685856
 51
188.1550903016399
  0
LINE
  5
472
330
1F
100
AcDbEntity
  8
0
  6
CONTINUOUS
 62
     7
100
AcDbLine
 10
-1509.840576013404
 20
-1200.204178339691
 30
0.0
 11
-1505.165924165068
 21
-1200.204178337035
 31
0.0
  0
LINE
  5
473
330
1F
100
AcDbEntity
  8
0
  6
CONTINUOUS
 62
     7
100
AcDbLine
 10
-1505.205803072061
 20
-1115.273693943569
 30
0.0
 11
-1503.503250073837
 21
-1113.571140945346
 31
0.0
  0
LINE
  5
474
330
1F
100
AcDbEntity
  8
0
  6
CONTINUOUS
 62
     7
100
AcDbLine
 10
-1503.503250073837
 20
-1113.571140945346
 30
0.0
 11
-1503.503250073837
 21
-1113.271140945346
 31
0.0
  0
ARC
  5
475
330
1F
100
AcDbEntity
  8
0
  6
CONTINUOUS
 62
     7
100
AcDbCircle
 10
-1533.475122508352
 20
-1189.073693943569
 30
0.0
 40
16.20000000000017
100
AcDbArc
 50
188.219209248899
 51
269.9999999999999
  0
LINE
  5
476
330
1F
100
AcDbEntity
  8
0
  6
CONTINUOUS
 62
     7
100
AcDbLine
 10
-1515.224937910324
 20
-1201.523693943569
 30
0.0
 11
-1514.93626277573
 21
-1201.023693943569
 31
0.0
  0
ARC
  5
477
330
1F
100
AcDbEntity
  8
0
  6
CONTINUOUS
 62
     7
100
AcDbCircle
 10
-1558.771016039996
 20
-1116.773693943569
 30
0.0
 40
1.500000000000057
100
AcDbArc
 50
90.0
 51
188.2192092488999
  0
LINE
  5
478
330
1F
100
AcDbEntity
  8
0
  6
CONTINUOUS
 62
     7
100
AcDbLine
 10
-1504.116201639682
 20
-1205.74694762387
 30
0.0
 11
-1481.500276582335
 21
-1205.74694762387
 31
0.0
  0
LINE
  5
479
330
1F
100
AcDbEntity
  8
0
  6
CONTINUOUS
 62
     7
100
AcDbLine
 10
-1533.506223593398
 20
-1205.74694762387
 30
0.0
 11
-1510.890298507994
 21
-1205.74694762387
 31
0.0
  0
LINE
  5
47A
330
1F
100
AcDbEntity
  8
0
  6
CONTINUOUS
 62
     7
100
AcDbLine
 10
-1539.846923265358
 20
-1119.456168566045
 30
0.0
 11
-1553.98963273566
 21
-1119.456168566045
 31
0.0
  0
ARC
  5
47B
330
1F
100
AcDbEntity
  8
0
  6
CONTINUOUS
 62
     7
100
AcDbCircle
 10
1553.989632584822
 20
-1120.956168696804
 30
0.0
 40
1.500000130759303
210
0.0
220
0.0
230
-1.0
100
AcDbArc
 50
351.8433734913334
 51
89.99999423843849
  0
ARC
  5
47C
330
1F
100
AcDbEntity
  8
0
  6
CONTINUOUS
 62
     7
100
AcDbCircle
 10
1481.358190879255
 20
-1189.273693943569
 30
0.0
 40
13.00000000000004
210
0.0
220
0.0
230
-1.0
100
AcDbArc
 50
188.2192092488991
 51
270.0000000000001
  0
ARC
  5
47D
330
1F
100
AcDbEntity
  8
0
  6
CONTINUOUS
 62
     7
100
AcDbCircle
 10
-1481.500295393723
 20
-1189.159107682091
 30
0.0
 40
16.58783994178893
100
AcDbArc
 50
270.0000649760996
 51
351.8538285991872
  0
LINE
  5
47E
330
1F
100
AcDbEntity
  8
0
  6
CONTINUOUS
 62
     7
100
AcDbLine
 10
-1557.036583407171
 20
-1139.273693943569
 30
0.0
 11
-1554.005448672822
 21
-1139.273693943569
 31
0.0
  0
LINE
  5
47F
330
1F
100
AcDbEntity
  8
0
  6
CONTINUOUS
 62
     7
100
AcDbLine
 10
-1550.969916740504
 20
-1181.273693943569
 30
0.0
 11
-1547.938782006155
 21
-1181.273693943569
 31
0.0
  0
LINE
  5
480
330
1F
100
AcDbEntity
  8
0
  6
CONTINUOUS
 62
     7
100
AcDbLine
 10
-1498.482524131674
 20
-1202.273693943569
 30
0.0
 11
-1481.358190879255
 21
-1202.273693943569
 31
0.0
  0
LINE
  5
481
330
1F
100
AcDbEntity
  8
0
  6
CONTINUOUS
 62
     7
100
AcDbLine
 10
-1467.06771814152
 20
-1181.273693943569
 30
0.0
 11
-1464.036583407171
 21
-1181.273693943569
 31
0.0
  0
LINE
  5
482
330
1F
100
AcDbEntity
  8
0
  6
CONTINUOUS
 62
     7
100
AcDbLine
 10
-1533.64830926842
 20
-1202.273693943569
 30
0.0
 11
-1516.523976016001
 21
-1202.273693943569
 31
0.0
  0
ARC
  5
483
330
1F
100
AcDbEntity
  8
0
  6
CONTINUOUS
 62
     7
100
AcDbCircle
 10
1459.844396619806
 20
-1120.773693943569
 30
0.0
 40
1.500000000000057
210
0.0
220
0.0
230
-1.0
100
AcDbArc
 50
90.0
 51
188.2192092488984
  0
LINE
  5
484
330
1F
100
AcDbEntity
  8
0
  6
CONTINUOUS
 62
     7
100
AcDbLine
 10
-1497.761955245672
 20
-1196.254900557924
 30
0.0
 11
-1497.752847357675
 21
-1196.253361892857
 31
0.0
  0
ARC
  5
485
330
1F
100
AcDbEntity
  8
0
  6
CONTINUOUS
 62
     7
100
AcDbCircle
 10
-1456.235484107679
 20
-1116.773693943569
 30
0.0
 40
1.50000000000007
100
AcDbArc
 50
351.7807907511009
 51
90.0000000000003
  0
ARC
  5
486
330
1F
100
AcDbEntity
  8
0
  6
CONTINUOUS
 62
     7
100
AcDbCircle
 10
1516.523976016001
 20
-1200.773693943569
 30
0.0
 40
1.500000000000116
210
0.0
220
0.0
230
-1.0
100
AcDbArc
 50
210.0
 51
270.0000000000001
  0
ARC
  5
487
330
1F
100
AcDbEntity
  8
0
  6
CONTINUOUS
 62
     7
100
AcDbCircle
 10
-1513.637224670053
 20
-1201.773693943569
 30
0.0
 40
1.500000000000057
100
AcDbArc
 50
90.0
 51
150.0
  0
ARC
  5
488
330
1F
100
AcDbEntity
  8
0
  6
CONTINUOUS
 62
     7
100
AcDbCircle
 10
-1501.369275477622
 20
-1201.773693943569
 30
0.0
 40
1.500000000000116
100
AcDbArc
 50
30.00000000000004
 51
89.99999999999996
  0
LINE
  5
489
330
1F
100
AcDbEntity
  8
0
  6
CONTINUOUS
 62
     7
100
AcDbLine
 10
-1500.070237371945
 20
-1201.023693943569
 30
0.0
 11
-1499.78156223735
 21
-1201.523693943569
 31
0.0
  0
LINE
  5
48A
330
1F
100
AcDbEntity
  8
0
  6
CONTINUOUS
 62
     7
100
AcDbLine
 10
-1454.750891572413
 20
-1116.988135087552
 30
0.0
 11
-1457.969916740504
 21
-1139.273693943569
 31
0.0
  0
LINE
  5
48B
330
1F
100
AcDbEntity
  8
0
  6
CONTINUOUS
 62
     7
100
AcDbLine
 10
-1547.938782006155
 20
-1181.273693943569
 30
0.0
 11
-1546.514777907391
 21
-1191.132183858088
 31
0.0
  0
LINE
  5
48C
330
1F
100
AcDbEntity
  8
0
  6
CONTINUOUS
 62
     7
100
AcDbLine
 10
-1517.253652818058
 20
-1196.253361892857
 30
0.0
 11
-1517.744466409782
 21
-1195.840262134113
 31
0.0
  0
LINE
  5
48D
330
1F
100
AcDbEntity
  8
0
  6
CONTINUOUS
 62
     7
100
AcDbLine
 10
-1464.036583407171
 20
-1181.273693943569
 30
0.0
 11
-1465.497778258451
 21
-1191.389658298584
 31
0.0
  0
LINE
  5
48E
330
1F
100
AcDbEntity
  8
0
  6
CONTINUOUS
 62
     7
100
AcDbLine
 10
-1456.229638530551
 20
-1114.971311375313
 30
0.0
 11
-1504.903420503805
 21
-1114.971311375313
 31
0.0
  0
LINE
  5
48F
330
1F
100
AcDbEntity
  8
0
  6
CONTINUOUS
 62
     7
100
AcDbLine
 10
-1560.596520427771
 20
-1117.06686194786
 30
0.0
 11
-1549.926669968685
 21
-1191.509587843165
 31
0.0
  0
LINE
  5
490
330
1F
100
AcDbEntity
  8
0
  6
CONTINUOUS
 62
     7
100
AcDbLine
 10
-1556.646696063135
 20
-1120.988135087552
 30
0.0
 11
-1554.005448672822
 21
-1139.273693943569
 31
0.0
  0
ARC
  5
491
330
1F
100
AcDbEntity
  8
0
  6
CONTINUOUS
 62
     7
100
AcDbCircle
 10
-1481.531377639323
 20
-1189.073693943569
 30
0.0
 40
16.19999999999999
100
AcDbArc
 50
270.0
 51
351.7807907511009
  0
LINE
  5
492
330
1F
100
AcDbEntity
  8
0
  6
CONTINUOUS
 62
     7
100
AcDbLine
 10
-1558.771016039996
 20
-1115.273693943569
 30
0.0
 11
-1456.235484107679
 21
-1115.273693943569
 31
0.0
  0
LINE
  5
493
330
1F
100
AcDbEntity
  8
0
  6
CONTINUOUS
 62
     7
100
AcDbLine
 10
-1459.844396619806
 20
-1119.273693943569
 30
0.0
 11
-1555.162103527869
 21
-1119.273693943569
 31
0.0
  0
LINE
  5
494
330
1F
100
AcDbEntity
  8
0
  6
CONTINUOUS
 62
     7
100
AcDbLine
 10
-1554.005448672822
 20
-1139.273693943569
 30
0.0
 11
-1547.938782006155
 21
-1181.273693943569
 31
0.0
  0
LINE
  5
495
330
1F
100
AcDbEntity
  8
0
  6
CONTINUOUS
 62
     7
100
AcDbLine
 10
-1550.969916740504
 20
-1181.273693943569
 30
0.0
 11
-1557.036583407171
 21
-1139.273693943569
 31
0.0
  0
LINE
  5
496
330
1F
100
AcDbEntity
  8
0
  6
CONTINUOUS
 62
     7
100
AcDbLine
 10
-1505.165737767054
 20
-1200.20416628576
 30
0.0
 11
-1505.5029144332
 21
-1200.22596592183
 31
0.0
  0
LINE
  5
497
330
1F
100
AcDbEntity
  8
0
  6
CONTINUOUS
 62
     7
100
AcDbLine
 10
-1557.036583407171
 20
-1139.273693943569
 30
0.0
 11
-1560.255608575262
 21
-1116.988135087552
 31
0.0
  0
LINE
  5
498
330
1F
100
AcDbEntity
  8
0
  6
CONTINUOUS
 62
     7
100
AcDbLine
 10
-1461.001051474853
 20
-1139.273693943569
 30
0.0
 11
-1458.35980408454
 21
-1120.988135087552
 31
0.0
  0
LINE
  5
499
330
1F
100
AcDbEntity
  8
0
  6
CONTINUOUS
 62
     7
100
AcDbLine
 10
-1457.969916740504
 20
-1139.273693943569
 30
0.0
 11
-1461.001051474853
 21
-1139.273693943569
 31
0.0
  0
ARC
  5
49A
330
1F
100
AcDbEntity
  8
0
  6
CONTINUOUS
 62
     7
100
AcDbCircle
 10
1498.482524131674
 20
-1200.773693943569
 30
0.0
 40
1.500000000000057
210
0.0
220
0.0
230
-1.0
100
AcDbArc
 50
270.0
 51
330.0
  0
LINE
  5
49B
330
1F
100
AcDbEntity
  8
0
  6
CONTINUOUS
 62
     7
100
AcDbLine
 10
-1481.531377639323
 20
-1205.273693943569
 30
0.0
 11
-1533.475122508352
 21
-1205.273693943569
 31
0.0
  0
ARC
  5
49C
330
1F
100
AcDbEntity
  8
0
  6
CONTINUOUS
 62
     7
100
AcDbCircle
 10
1533.64830926842
 20
-1189.273693943569
 30
0.0
 40
12.9999999999999
210
0.0
220
0.0
230
-1.0
100
AcDbArc
 50
270.0
 51
351.7807907511011
  0
ARC
  5
49D
330
1F
100
AcDbEntity
  8
0
  6
CONTINUOUS
 62
     7
100
AcDbCircle
 10
-1533.506161458036
 20
-1189.159057715032
 30
0.0
 40
16.58788990895381
100
AcDbArc
 50
188.1463210447791
 51
269.9997853799342
  0
ARC
  5
49E
330
1F
100
AcDbEntity
  8
0
  6
CONTINUOUS
 62
     7
100
AcDbCircle
 10
1555.162103527869
 20
-1120.773693943569
 30
0.0
 40
1.50000000000007
210
0.0
220
0.0
230
-1.0
100
AcDbArc
 50
351.7807907511009
 51
90.00000000000006
  0
LINE
  5
49F
330
1F
100
AcDbEntity
  8
0
  6
CONTINUOUS
 62
     7
100
AcDbLine
 10
-1510.10307964387
 20
-1114.971311375313
 30
0.0
 11
-1558.776861645182
 21
-1114.971311375313
 31
0.0
  0
LINE
  5
4A0
330
1F
100
AcDbEntity
  8
0
  6
CONTINUOUS
 62
     7
100
AcDbLine
 10
-1468.491722240283
 20
-1191.132183858088
 30
0.0
 11
-1467.06771814152
 21
-1181.273693943569
 31
0.0
  0
LINE
  5
4A1
330
1F
100
AcDbEntity
  8
0
  6
CONTINUOUS
 62
     7
100
AcDbLine
 10
-1467.06771814152
 20
-1181.273693943569
 30
0.0
 11
-1461.001051474853
 21
-1139.273693943569
 31
0.0
  0
ARC
  5
4A2
330
1F
100
AcDbEntity
  8
0
  6
CONTINUOUS
 62
     7
100
AcDbCircle
 10
-1507.503250073838
 20
-1200.673693943569
 30
0.0
 40
6.100000000000103
100
AcDbArc
 50
228.9466487637095
 51
249.7295903032086
  0
ARC
  5
4A3
330
1F
100
AcDbEntity
  8
0
  6
CONTINUOUS
 62
     7
100
AcDbCircle
 10
-1507.503250073838
 20
-1200.673693943569
 30
0.0
 40
6.100000000000187
100
AcDbArc
 50
290.2704096967914
 51
311.0533512362904
  0
LINE
  5
4A4
330
1F
100
AcDbEntity
  8
0
  6
CONTINUOUS
 62
     7
100
AcDbLine
 10
-1549.508721889224
 20
-1191.389658298584
 30
0.0
 11
-1550.969916740504
 21
-1181.273693943569
 31
0.0
  0
LINE
  5
4A5
330
1F
100
AcDbEntity
  8
0
  6
CONTINUOUS
 62
     7
100
AcDbLine
 10
-1505.503250073837
 20
-1200.273693943569
 30
0.0
 11
-1505.503250073837
 21
-1200.183824319647
 31
0.0
  0
LINE
  5
4A6
330
1F
100
AcDbEntity
  8
0
  6
CONTINUOUS
 62
     7
100
AcDbLine
 10
-1469.5226813368
 20
-1190.872913198802
 30
0.0
 11
-1459.532041583189
 21
-1121.168988148619
 31
0.0
  0
ARC
  5
4A7
330
1F
100
AcDbEntity
  8
0
  6
CONTINUOUS
 62
     7
100
AcDbCircle
 10
-1456.229953479842
 20
-1116.809405045913
 30
0.0
 40
1.83809369758234
100
AcDbArc
 50
351.9482568376415
 51
89.9901826195113
  0
LINE
  5
4A8
330
1F
100
AcDbEntity
  8
0
  6
CONTINUOUS
 62
     7
100
AcDbLine
 10
-1465.079830207048
 20
-1191.509587843165
 30
0.0
 11
-1454.409979747962
 21
-1117.06686194786
 31
0.0
  0
ARC
  5
4A9
330
1F
100
AcDbEntity
  8
0
  6
CONTINUOUS
 62
     7
100
AcDbCircle
 10
-1558.776309657628
 20
-1116.809610876669
 30
0.0
 40
1.838299584228799
100
AcDbArc
 50
90.01720424568092
 51
188.0443562971617
  0
LINE
  5
4AA
330
1F
100
AcDbEntity
  8
0
  6
CONTINUOUS
 62
     7
100
AcDbLine
 10
-1513.637224670053
 20
-1200.273693943569
 30
0.0
 11
-1501.369275477622
 21
-1200.273693943569
 31
0.0
  0
LINE
  5
4AB
330
1F
100
AcDbEntity
  8
0
  6
CONTINUOUS
 62
     7
100
AcDbLine
 10
-1457.969916740504
 20
-1139.273693943569
 30
0.0
 11
-1464.036583407171
 21
-1181.273693943569
 31
0.0
  0
ARC
  5
4AC
330
1F
100
AcDbEntity
  8
0
  6
CONTINUOUS
 62
     7
100
AcDbCircle
 10
-1507.503250073838
 20
971.0110953753252
 30
0.0
 40
1.200223116976795
100
AcDbArc
 50
44.59736260715422
 51
97.22480050442385
  0
CIRCLE
  5
4AD
330
1F
100
AcDbEntity
  8
0
  6
CONTINUOUS
 62
     7
100
AcDbCircle
 10
1507.503250073838
 20
1054.511095375325
 30
0.0
 40
1.021236244656443
210
0.0
220
0.0
230
-1.0
  0
ARC
  5
4AE
330
1F
100
AcDbEntity
  8
0
  6
CONTINUOUS
 62
     7
100
AcDbCircle
 10
-1507.503250073838
 20
1054.511095375325
 30
0.0
 40
1.200223116976636
100
AcDbArc
 50
314.5973626071552
 51
7.224800504427718
  0
LINE
  5
4AF
330
1F
100
AcDbEntity
  8
0
  6
CONTINUOUS
 62
     7
100
AcDbLine
 10
-1509.503250073838
 20
-1120.93319855054
 30
0.0
 11
-1509.503250073838
 21
-1133.271140945346
 31
0.0
  0
ARC
  5
4B0
330
1F
100
AcDbEntity
  8
0
  6
CONTINUOUS
 62
     7
100
AcDbCircle
 10
-1507.503250073838
 20
971.0110953753252
 30
0.0
 40
1.200223116976636
100
AcDbArc
 50
134.5973626071552
 51
187.2248005044277
  0
ARC
  5
4B1
330
1F
100
AcDbEntity
  8
0
  6
CONTINUOUS
 62
     7
100
AcDbCircle
 10
-1507.503250073838
 20
1054.511095375325
 30
0.0
 40
1.20022311697648
100
AcDbArc
 50
134.5973626071552
 51
187.2248005044277
  0
ARC
  5
4B2
330
1F
100
AcDbEntity
  8
0
  6
CONTINUOUS
 62
     7
100
AcDbCircle
 10
-1507.503250073838
 20
971.0110953753252
 30
0.0
 40
1.200223116976636
100
AcDbArc
 50
224.5973626071543
 51
277.2248005044239
  0
ARC
  5
4B3
330
1F
100
AcDbEntity
  8
0
  6
CONTINUOUS
 62
     7
100
AcDbCircle
 10
-1507.503250073838
 20
971.0110953753252
 30
0.0
 40
1.200223116976636
100
AcDbArc
 50
314.5973626071552
 51
7.224800504427718
  0
ARC
  5
4B4
330
1F
100
AcDbEntity
  8
0
  6
CONTINUOUS
 62
     7
100
AcDbCircle
 10
-1507.503250073838
 20
1054.511095375325
 30
0.0
 40
1.200223116976636
100
AcDbArc
 50
224.5973626071543
 51
277.2248005044239
  0
LINE
  5
4B5
330
1F
100
AcDbEntity
  8
0
  6
CONTINUOUS
 62
     7
100
AcDbLine
 10
-1505.503250073837
 20
-1133.271140945346
 30
0.0
 11
-1505.503250073837
 21
-1120.93319855054
 31
0.0
  0
LINE
  5
4B6
330
1F
100
AcDbEntity
  8
0
  6
CONTINUOUS
 62
     7
100
AcDbLine
 10
-1511.503250073838
 20
-1113.271140945346
 30
0.0
 11
-1511.503250073838
 21
-1113.571140945346
 31
0.0
  0
CIRCLE
  5
4B7
330
1F
100
AcDbEntity
  8
0
  6
CONTINUOUS
 62
     7
100
AcDbCircle
 10
1507.503250073838
 20
971.0110953753252
 30
0.0
 40
1.021236244656221
210
0.0
220
0.0
230
-1.0
  0
ARC
  5
4B8
330
1F
100
AcDbEntity
  8
0
  6
CONTINUOUS
 62
     7
100
AcDbCircle
 10
-1507.503250073838
 20
1054.511095375325
 30
0.0
 40
1.200223116976795
100
AcDbArc
 50
44.59736260715422
 51
97.22480050442385
  0
LINE
  5
4B9
330
1F
100
AcDbEntity
  8
0
  6
CONTINUOUS
 62
     7
100
AcDbLine
 10
-1500.142780224756
 20
-663.20527426187
 30
0.0
 11
-1489.594069830964
 21
-663.2052742618699
 31
0.0
  0
LINE
  5
4BA
330
1F
100
AcDbEntity
  8
0
  6
CONTINUOUS
 62
     7
100
AcDbLine
 10
-1500.142780224756
 20
-668.3045349873761
 30
0.0
 11
-1493.979363020319
 21
-668.304534987376
 31
0.0
  0
LINE
  5
4BB
330
1F
100
AcDbEntity
  8
0
  6
CONTINUOUS
 62
     7
100
AcDbLine
 10
-1502.251027704194
 20
-672.256156611566
 30
0.0
 11
-1501.15426410146
 21
-672.256156611566
 31
0.0
  0
LINE
  5
4BC
330
1F
100
AcDbEntity
  8
0
  6
CONTINUOUS
 62
     7
100
AcDbLine
 10
-1500.142780224756
 20
-670.96127426187
 30
0.0
 11
-1497.991527035744
 21
-670.96127426187
 31
0.0
  0
LINE
  5
4BD
330
1F
100
AcDbEntity
  8
0
  6
CONTINUOUS
 62
     7
100
AcDbLine
 10
-1500.142780224756
 20
-659.3272742618701
 30
0.0
 11
-1487.735725800907
 21
-659.3272742618699
 31
0.0
  0
LINE
  5
4BE
330
1F
100
AcDbEntity
  8
0
  6
CONTINUOUS
 62
     7
100
AcDbLine
 10
-1500.142780224756
 20
-660.5485349873761
 30
0.0
 11
-1488.217243664301
 21
-660.5485349873759
 31
0.0
  0
LINE
  5
4BF
330
1F
100
AcDbEntity
  8
0
  6
CONTINUOUS
 62
     7
100
AcDbLine
 10
-1500.142780224756
 20
-664.426534987376
 30
0.0
 11
-1490.401739434934
 21
-664.4265349873759
 31
0.0
  0
LINE
  5
4C0
330
1F
100
AcDbEntity
  8
0
  6
CONTINUOUS
 62
     7
100
AcDbLine
 10
-1500.142780224756
 20
-667.0832742618701
 30
0.0
 11
-1492.649136500064
 21
-667.08327426187
 31
0.0
  0
LINE
  5
4C1
330
1F
100
AcDbEntity
  8
0
  6
CONTINUOUS
 62
     7
100
AcDbLine
 10
-1500.142780224756
 20
-593.4012742618702
 30
0.0
 11
-1486.503250073838
 21
-593.4012742618701
 31
0.0
  0
LINE
  5
4C2
330
1F
100
AcDbEntity
  8
0
  6
CONTINUOUS
 62
     7
100
AcDbLine
 10
-1500.142780224756
 20
-589.5232742618703
 30
0.0
 11
-1486.503250073838
 21
-589.52327426187
 31
0.0
  0
LINE
  5
4C3
330
1F
100
AcDbEntity
  8
0
  6
CONTINUOUS
 62
     7
100
AcDbLine
 10
-1500.142780224756
 20
-594.6225349873762
 30
0.0
 11
-1486.503250073838
 21
-594.6225349873761
 31
0.0
  0
LINE
  5
4C4
330
1F
100
AcDbEntity
  8
0
  6
CONTINUOUS
 62
     7
100
AcDbLine
 10
-1500.142780224756
 20
-597.2792742618702
 30
0.0
 11
-1486.503250073838
 21
-597.27927426187
 31
0.0
  0
LINE
  5
4C5
330
1F
100
AcDbEntity
  8
0
  6
CONTINUOUS
 62
     7
100
AcDbLine
 10
-1500.142780224756
 20
-581.7672742618703
 30
0.0
 11
-1486.503250073838
 21
-581.76727426187
 31
0.0
  0
LINE
  5
4C6
330
1F
100
AcDbEntity
  8
0
  6
CONTINUOUS
 62
     7
100
AcDbLine
 10
-1500.142780224756
 20
-586.8665349873762
 30
0.0
 11
-1486.503250073838
 21
-586.8665349873761
 31
0.0
  0
LINE
  5
4C7
330
1F
100
AcDbEntity
  8
0
  6
CONTINUOUS
 62
     7
100
AcDbLine
 10
-1500.142780224756
 20
-598.5005349873762
 30
0.0
 11
-1486.503250073838
 21
-598.500534987376
 31
0.0
  0
LINE
  5
4C8
330
1F
100
AcDbEntity
  8
0
  6
CONTINUOUS
 62
     7
100
AcDbLine
 10
-1500.142780224756
 20
-601.1572742618702
 30
0.0
 11
-1486.503250073838
 21
-601.15727426187
 31
0.0
  0
LINE
  5
4C9
330
1F
100
AcDbEntity
  8
0
  6
CONTINUOUS
 62
     7
100
AcDbLine
 10
-1500.142780224756
 20
-602.3785349873762
 30
0.0
 11
-1486.503250073838
 21
-602.378534987376
 31
0.0
  0
LINE
  5
4CA
330
1F
100
AcDbEntity
  8
0
  6
CONTINUOUS
 62
     7
100
AcDbLine
 10
-1500.142780224756
 20
-605.0352742618702
 30
0.0
 11
-1486.503250073838
 21
-605.03527426187
 31
0.0
  0
LINE
  5
4CB
330
1F
100
AcDbEntity
  8
0
  6
CONTINUOUS
 62
     7
100
AcDbLine
 10
-1500.142780224756
 20
-582.9885349873763
 30
0.0
 11
-1486.503250073838
 21
-582.988534987376
 31
0.0
  0
LINE
  5
4CC
330
1F
100
AcDbEntity
  8
0
  6
CONTINUOUS
 62
     7
100
AcDbLine
 10
-1500.142780224756
 20
-585.6452742618702
 30
0.0
 11
-1486.503250073838
 21
-585.6452742618701
 31
0.0
  0
LINE
  5
4CD
330
1F
100
AcDbEntity
  8
0
  6
CONTINUOUS
 62
     7
100
AcDbLine
 10
-1500.142780224756
 20
-590.7445349873763
 30
0.0
 11
-1486.503250073838
 21
-590.744534987376
 31
0.0
  0
LINE
  5
4CE
330
1F
100
AcDbEntity
  8
0
  6
CONTINUOUS
 62
     7
100
AcDbLine
 10
-1500.142780224755
 20
-656.6705349873762
 30
0.0
 11
-1486.976178867139
 21
-656.6705349873761
 31
0.0
  0
LINE
  5
4CF
330
1F
100
AcDbEntity
  8
0
  6
CONTINUOUS
 62
     7
100
AcDbLine
 10
-1500.142780224755
 20
-637.2805349873762
 30
0.0
 11
-1486.503250073838
 21
-637.280534987376
 31
0.0
  0
LINE
  5
4D0
330
1F
100
AcDbEntity
  8
0
  6
CONTINUOUS
 62
     7
100
AcDbLine
 10
-1500.142780224755
 20
-628.3032742618701
 30
0.0
 11
-1486.503250073838
 21
-628.30327426187
 31
0.0
  0
LINE
  5
4D1
330
1F
100
AcDbEntity
  8
0
  6
CONTINUOUS
 62
     7
100
AcDbLine
 10
-1500.142780224755
 20
-629.5245349873761
 30
0.0
 11
-1486.503250073838
 21
-629.524534987376
 31
0.0
  0
LINE
  5
4D2
330
1F
100
AcDbEntity
  8
0
  6
CONTINUOUS
 62
     7
100
AcDbLine
 10
-1500.142780224755
 20
-641.1585349873761
 30
0.0
 11
-1486.503250073838
 21
-641.1585349873759
 31
0.0
  0
LINE
  5
4D3
330
1F
100
AcDbEntity
  8
0
  6
CONTINUOUS
 62
     7
100
AcDbLine
 10
-1500.142780224755
 20
-643.8152742618702
 30
0.0
 11
-1486.503250073838
 21
-643.8152742618701
 31
0.0
  0
LINE
  5
4D4
330
1F
100
AcDbEntity
  8
0
  6
CONTINUOUS
 62
     7
100
AcDbLine
 10
-1500.142780224755
 20
-633.4025349873762
 30
0.0
 11
-1486.503250073838
 21
-633.4025349873759
 31
0.0
  0
LINE
  5
4D5
330
1F
100
AcDbEntity
  8
0
  6
CONTINUOUS
 62
     7
100
AcDbLine
 10
-1500.142780224756
 20
-621.7685349873761
 30
0.0
 11
-1486.503250073838
 21
-621.768534987376
 31
0.0
  0
LINE
  5
4D6
330
1F
100
AcDbEntity
  8
0
  6
CONTINUOUS
 62
     7
100
AcDbLine
 10
-1500.142780224756
 20
-617.8905349873762
 30
0.0
 11
-1486.503250073838
 21
-617.890534987376
 31
0.0
  0
LINE
  5
4D7
330
1F
100
AcDbEntity
  8
0
  6
CONTINUOUS
 62
     7
100
AcDbLine
 10
-1500.142780224755
 20
-616.6692742618702
 30
0.0
 11
-1486.503250073838
 21
-616.66927426187
 31
0.0
  0
LINE
  5
4D8
330
1F
100
AcDbEntity
  8
0
  6
CONTINUOUS
 62
     7
100
AcDbLine
 10
-1500.142780224755
 20
-620.5472742618701
 30
0.0
 11
-1486.503250073838
 21
-620.54727426187
 31
0.0
  0
LINE
  5
4D9
330
1F
100
AcDbEntity
  8
0
  6
CONTINUOUS
 62
     7
100
AcDbLine
 10
-1500.142780224755
 20
-645.0365349873762
 30
0.0
 11
-1486.503250073838
 21
-645.036534987376
 31
0.0
  0
LINE
  5
4DA
330
1F
100
AcDbEntity
  8
0
  6
CONTINUOUS
 62
     7
100
AcDbLine
 10
-1500.142780224755
 20
-647.6932742618702
 30
0.0
 11
-1486.503250073838
 21
-647.6932742618701
 31
0.0
  0
LINE
  5
4DB
330
1F
100
AcDbEntity
  8
0
  6
CONTINUOUS
 62
     7
100
AcDbLine
 10
-1500.142780224756
 20
-606.2565349873762
 30
0.0
 11
-1486.503250073838
 21
-606.256534987376
 31
0.0
  0
LINE
  5
4DC
330
1F
100
AcDbEntity
  8
0
  6
CONTINUOUS
 62
     7
100
AcDbLine
 10
-1500.142780224755
 20
-648.9145349873761
 30
0.0
 11
-1486.503250073838
 21
-648.914534987376
 31
0.0
  0
LINE
  5
4DD
330
1F
100
AcDbEntity
  8
0
  6
CONTINUOUS
 62
     7
100
AcDbLine
 10
-1500.142780224756
 20
-610.1345349873761
 30
0.0
 11
-1486.503250073838
 21
-610.134534987376
 31
0.0
  0
LINE
  5
4DE
330
1F
100
AcDbEntity
  8
0
  6
CONTINUOUS
 62
     7
100
AcDbLine
 10
-1500.142780224755
 20
-651.5712742618703
 30
0.0
 11
-1486.503250073838
 21
-651.57127426187
 31
0.0
  0
LINE
  5
4DF
330
1F
100
AcDbEntity
  8
0
  6
CONTINUOUS
 62
     7
100
AcDbLine
 10
-1500.142780224756
 20
-625.6465349873762
 30
0.0
 11
-1486.503250073838
 21
-625.646534987376
 31
0.0
  0
LINE
  5
4E0
330
1F
100
AcDbEntity
  8
0
  6
CONTINUOUS
 62
     7
100
AcDbLine
 10
-1500.142780224755
 20
-612.7912742618702
 30
0.0
 11
-1486.503250073838
 21
-612.79127426187
 31
0.0
  0
LINE
  5
4E1
330
1F
100
AcDbEntity
  8
0
  6
CONTINUOUS
 62
     7
100
AcDbLine
 10
-1500.142780224756
 20
-614.0125349873762
 30
0.0
 11
-1486.503250073838
 21
-614.012534987376
 31
0.0
  0
LINE
  5
4E2
330
1F
100
AcDbEntity
  8
0
  6
CONTINUOUS
 62
     7
100
AcDbLine
 10
-1500.142780224755
 20
-652.7925349873763
 30
0.0
 11
-1486.510549118004
 21
-652.792534987376
 31
0.0
  0
LINE
  5
4E3
330
1F
100
AcDbEntity
  8
0
  6
CONTINUOUS
 62
     7
100
AcDbLine
 10
-1500.142780224755
 20
-632.1812742618702
 30
0.0
 11
-1486.503250073838
 21
-632.1812742618699
 31
0.0
  0
LINE
  5
4E4
330
1F
100
AcDbEntity
  8
0
  6
CONTINUOUS
 62
     7
100
AcDbLine
 10
-1500.142780224755
 20
-639.9372742618701
 30
0.0
 11
-1486.503250073838
 21
-639.9372742618699
 31
0.0
  0
LINE
  5
4E5
330
1F
100
AcDbEntity
  8
0
  6
CONTINUOUS
 62
     7
100
AcDbLine
 10
-1500.142780224755
 20
-655.4492742618702
 30
0.0
 11
-1486.750093041954
 21
-655.4492742618701
 31
0.0
  0
LINE
  5
4E6
330
1F
100
AcDbEntity
  8
0
  6
CONTINUOUS
 62
     7
100
AcDbLine
 10
-1500.142780224756
 20
-608.9132742618701
 30
0.0
 11
-1486.503250073838
 21
-608.91327426187
 31
0.0
  0
LINE
  5
4E7
330
1F
100
AcDbEntity
  8
0
  6
CONTINUOUS
 62
     7
100
AcDbLine
 10
-1500.142780224755
 20
-624.4252742618702
 30
0.0
 11
-1486.503250073838
 21
-624.42527426187
 31
0.0
  0
LINE
  5
4E8
330
1F
100
AcDbEntity
  8
0
  6
CONTINUOUS
 62
     7
100
AcDbLine
 10
-1500.142780224755
 20
-636.0592742618702
 30
0.0
 11
-1486.503250073838
 21
-636.05927426187
 31
0.0
  0
LINE
  5
4E9
330
1F
100
AcDbEntity
  8
0
  6
CONTINUOUS
 62
     7
100
AcDbLine
 10
-1500.142780224755
 20
-566.25527426187
 30
0.0
 11
-1486.503250073838
 21
-566.2552742618699
 31
0.0
  0
LINE
  5
4EA
330
1F
100
AcDbEntity
  8
0
  6
CONTINUOUS
 62
     7
100
AcDbLine
 10
-1500.142780224756
 20
-517.0625349873761
 30
0.0
 11
-1486.503250073838
 21
-517.062534987376
 31
0.0
  0
LINE
  5
4EB
330
1F
100
AcDbEntity
  8
0
  6
CONTINUOUS
 62
     7
100
AcDbLine
 10
-1500.142780224756
 20
-540.3305349873762
 30
0.0
 11
-1486.503250073838
 21
-540.3305349873759
 31
0.0
  0
LINE
  5
4EC
330
1F
100
AcDbEntity
  8
0
  6
CONTINUOUS
 62
     7
100
AcDbLine
 10
-1500.142780224756
 20
-548.0865349873761
 30
0.0
 11
-1486.503250073838
 21
-548.0865349873759
 31
0.0
  0
LINE
  5
4ED
330
1F
100
AcDbEntity
  8
0
  6
CONTINUOUS
 62
     7
100
AcDbLine
 10
-1500.142780224755
 20
-562.3772742618701
 30
0.0
 11
-1486.503250073838
 21
-562.37727426187
 31
0.0
  0
LINE
  5
4EE
330
1F
100
AcDbEntity
  8
0
  6
CONTINUOUS
 62
     7
100
AcDbLine
 10
-1500.142780224755
 20
-577.8892742618702
 30
0.0
 11
-1486.503250073838
 21
-577.88927426187
 31
0.0
  0
LINE
  5
4EF
330
1F
100
AcDbEntity
  8
0
  6
CONTINUOUS
 62
     7
100
AcDbLine
 10
-1500.142780224756
 20
-505.4285349873762
 30
0.0
 11
-1487.638233954822
 21
-505.4285349873759
 31
0.0
  0
LINE
  5
4F0
330
1F
100
AcDbEntity
  8
0
  6
CONTINUOUS
 62
     7
100
AcDbLine
 10
-1500.142780224756
 20
-536.4525349873761
 30
0.0
 11
-1486.503250073838
 21
-536.4525349873759
 31
0.0
  0
LINE
  5
4F1
330
1F
100
AcDbEntity
  8
0
  6
CONTINUOUS
 62
     7
100
AcDbLine
 10
-1500.142780224755
 20
-554.6212742618701
 30
0.0
 11
-1486.503250073838
 21
-554.6212742618699
 31
0.0
  0
LINE
  5
4F2
330
1F
100
AcDbEntity
  8
0
  6
CONTINUOUS
 62
     7
100
AcDbLine
 10
-1500.142780224755
 20
-567.476534987376
 30
0.0
 11
-1486.503250073838
 21
-567.4765349873759
 31
0.0
  0
LINE
  5
4F3
330
1F
100
AcDbEntity
  8
0
  6
CONTINUOUS
 62
     7
100
AcDbLine
 10
-1500.142780224755
 20
-570.13327426187
 30
0.0
 11
-1486.503250073838
 21
-570.1332742618699
 31
0.0
  0
LINE
  5
4F4
330
1F
100
AcDbEntity
  8
0
  6
CONTINUOUS
 62
     7
100
AcDbLine
 10
-1500.142780224756
 20
-515.8412742618701
 30
0.0
 11
-1486.503250073838
 21
-515.84127426187
 31
0.0
  0
LINE
  5
4F5
330
1F
100
AcDbEntity
  8
0
  6
CONTINUOUS
 62
     7
100
AcDbLine
 10
-1500.142780224756
 20
-520.9405349873762
 30
0.0
 11
-1486.503250073838
 21
-520.9405349873759
 31
0.0
  0
LINE
  5
4F6
330
1F
100
AcDbEntity
  8
0
  6
CONTINUOUS
 62
     7
100
AcDbLine
 10
-1500.142780224756
 20
-524.8185349873761
 30
0.0
 11
-1486.503250073838
 21
-524.818534987376
 31
0.0
  0
LINE
  5
4F7
330
1F
100
AcDbEntity
  8
0
  6
CONTINUOUS
 62
     7
100
AcDbLine
 10
-1500.142780224755
 20
-535.2312742618701
 30
0.0
 11
-1486.503250073838
 21
-535.2312742618699
 31
0.0
  0
LINE
  5
4F8
330
1F
100
AcDbEntity
  8
0
  6
CONTINUOUS
 62
     7
100
AcDbLine
 10
-1500.142780224756
 20
-504.2072742618702
 30
0.0
 11
-1488.099824764846
 21
-504.2072742618699
 31
0.0
  0
LINE
  5
4F9
330
1F
100
AcDbEntity
  8
0
  6
CONTINUOUS
 62
     7
100
AcDbLine
 10
-1500.142780224755
 20
-539.1092742618702
 30
0.0
 11
-1486.503250073838
 21
-539.1092742618699
 31
0.0
  0
LINE
  5
4FA
330
1F
100
AcDbEntity
  8
0
  6
CONTINUOUS
 62
     7
100
AcDbLine
 10
-1500.142780224755
 20
-555.8425349873761
 30
0.0
 11
-1486.503250073838
 21
-555.8425349873759
 31
0.0
  0
LINE
  5
4FB
330
1F
100
AcDbEntity
  8
0
  6
CONTINUOUS
 62
     7
100
AcDbLine
 10
-1500.142780224755
 20
-563.5985349873761
 30
0.0
 11
-1486.503250073838
 21
-563.598534987376
 31
0.0
  0
LINE
  5
4FC
330
1F
100
AcDbEntity
  8
0
  6
CONTINUOUS
 62
     7
100
AcDbLine
 10
-1500.142780224756
 20
-527.4752742618701
 30
0.0
 11
-1486.503250073838
 21
-527.47527426187
 31
0.0
  0
LINE
  5
4FD
330
1F
100
AcDbEntity
  8
0
  6
CONTINUOUS
 62
     7
100
AcDbLine
 10
-1500.142780224755
 20
-571.354534987376
 30
0.0
 11
-1486.503250073838
 21
-571.3545349873759
 31
0.0
  0
LINE
  5
4FE
330
1F
100
AcDbEntity
  8
0
  6
CONTINUOUS
 62
     7
100
AcDbLine
 10
-1500.142780224756
 20
-528.6965349873761
 30
0.0
 11
-1486.503250073838
 21
-528.696534987376
 31
0.0
  0
LINE
  5
4FF
330
1F
100
AcDbEntity
  8
0
  6
CONTINUOUS
 62
     7
100
AcDbLine
 10
-1500.142780224756
 20
-532.5745349873761
 30
0.0
 11
-1486.503250073838
 21
-532.574534987376
 31
0.0
  0
LINE
  5
500
330
1F
100
AcDbEntity
  8
0
  6
CONTINUOUS
 62
     7
100
AcDbLine
 10
-1500.142780224755
 20
-574.0112742618701
 30
0.0
 11
-1486.503250073838
 21
-574.01127426187
 31
0.0
  0
LINE
  5
501
330
1F
100
AcDbEntity
  8
0
  6
CONTINUOUS
 62
     7
100
AcDbLine
 10
-1500.142780224756
 20
-519.7192742618702
 30
0.0
 11
-1486.503250073838
 21
-519.7192742618699
 31
0.0
  0
LINE
  5
502
330
1F
100
AcDbEntity
  8
0
  6
CONTINUOUS
 62
     7
100
AcDbLine
 10
-1500.142780224755
 20
-551.964534987376
 30
0.0
 11
-1486.503250073838
 21
-551.9645349873759
 31
0.0
  0
LINE
  5
503
330
1F
100
AcDbEntity
  8
0
  6
CONTINUOUS
 62
     7
100
AcDbLine
 10
-1500.142780224755
 20
-546.8652742618701
 30
0.0
 11
-1486.503250073838
 21
-546.8652742618699
 31
0.0
  0
LINE
  5
504
330
1F
100
AcDbEntity
  8
0
  6
CONTINUOUS
 62
     7
100
AcDbLine
 10
-1500.142780224756
 20
-511.9632742618701
 30
0.0
 11
-1486.505059011193
 21
-511.9632742618699
 31
0.0
  0
LINE
  5
505
330
1F
100
AcDbEntity
  8
0
  6
CONTINUOUS
 62
     7
100
AcDbLine
 10
-1500.142780224756
 20
-509.3065349873761
 30
0.0
 11
-1486.708991050911
 21
-509.306534987376
 31
0.0
  0
LINE
  5
506
330
1F
100
AcDbEntity
  8
0
  6
CONTINUOUS
 62
     7
100
AcDbLine
 10
-1500.142780224755
 20
-575.2325349873761
 30
0.0
 11
-1486.503250073838
 21
-575.2325349873759
 31
0.0
  0
LINE
  5
507
330
1F
100
AcDbEntity
  8
0
  6
CONTINUOUS
 62
     7
100
AcDbLine
 10
-1500.142780224755
 20
-542.9872742618701
 30
0.0
 11
-1486.503250073838
 21
-542.98727426187
 31
0.0
  0
LINE
  5
508
330
1F
100
AcDbEntity
  8
0
  6
CONTINUOUS
 62
     7
100
AcDbLine
 10
-1500.142780224755
 20
-550.74327426187
 30
0.0
 11
-1486.503250073838
 21
-550.7432742618699
 31
0.0
  0
LINE
  5
509
330
1F
100
AcDbEntity
  8
0
  6
CONTINUOUS
 62
     7
100
AcDbLine
 10
-1500.142780224755
 20
-558.4992742618701
 30
0.0
 11
-1486.503250073838
 21
-558.4992742618699
 31
0.0
  0
LINE
  5
50A
330
1F
100
AcDbEntity
  8
0
  6
CONTINUOUS
 62
     7
100
AcDbLine
 10
-1500.142780224756
 20
-513.1845349873762
 30
0.0
 11
-1486.503250073838
 21
-513.184534987376
 31
0.0
  0
LINE
  5
50B
330
1F
100
AcDbEntity
  8
0
  6
CONTINUOUS
 62
     7
100
AcDbLine
 10
-1500.142780224755
 20
-559.7205349873761
 30
0.0
 11
-1486.503250073838
 21
-559.7205349873759
 31
0.0
  0
LINE
  5
50C
330
1F
100
AcDbEntity
  8
0
  6
CONTINUOUS
 62
     7
100
AcDbLine
 10
-1500.142780224755
 20
-579.1105349873761
 30
0.0
 11
-1486.503250073838
 21
-579.110534987376
 31
0.0
  0
LINE
  5
50D
330
1F
100
AcDbEntity
  8
0
  6
CONTINUOUS
 62
     7
100
AcDbLine
 10
-1500.142780224756
 20
-508.0852742618701
 30
0.0
 11
-1486.918125473474
 21
-508.08527426187
 31
0.0
  0
LINE
  5
50E
330
1F
100
AcDbEntity
  8
0
  6
CONTINUOUS
 62
     7
100
AcDbLine
 10
-1500.142780224756
 20
-523.5972742618701
 30
0.0
 11
-1486.503250073838
 21
-523.59727426187
 31
0.0
  0
LINE
  5
50F
330
1F
100
AcDbEntity
  8
0
  6
CONTINUOUS
 62
     7
100
AcDbLine
 10
-1500.142780224756
 20
-531.3532742618701
 30
0.0
 11
-1486.503250073838
 21
-531.35327426187
 31
0.0
  0
LINE
  5
510
330
1F
100
AcDbEntity
  8
0
  6
CONTINUOUS
 62
     7
100
AcDbLine
 10
-1500.142780224756
 20
-544.2085349873761
 30
0.0
 11
-1486.503250073838
 21
-544.208534987376
 31
0.0
  0
LINE
  5
511
330
1F
100
AcDbEntity
  8
0
  6
CONTINUOUS
 62
     7
100
AcDbLine
 10
-1500.142780224755
 20
-497.6725349873761
 30
0.0
 11
-1492.376423717952
 21
-497.672534987376
 31
0.0
  0
ARC
  5
512
330
1F
100
AcDbEntity
  8
0
  6
CONTINUOUS
 62
     7
100
AcDbCircle
 10
1484.352882207264
 20
916.9796733831931
 30
0.0
 40
63.52528368597783
210
0.0
220
0.0
230
-1.0
100
AcDbArc
 50
82.96673264811159
 51
91.66896266043464
  0
LINE
  5
513
330
1F
100
AcDbEntity
  8
0
  6
CONTINUOUS
 62
     7
100
AcDbLine
 10
-1482.503250073837
 20
987.4276441184127
 30
0.0
 11
-1489.248893681979
 21
987.4276441183843
 31
0.0
  0
LINE
  5
514
330
1F
100
AcDbEntity
  8
0
  6
CONTINUOUS
 62
     7
100
AcDbLine
 10
-1491.898401762608
 20
987.4276441183731
 30
0.0
 11
-1499.628031851765
 21
987.4276441183405
 31
0.0
  0
LINE
  5
515
330
1F
100
AcDbEntity
  8
0
  6
CONTINUOUS
 62
     7
100
AcDbLine
 10
-1500.142780224755
 20
-492.57327426187
 30
0.0
 11
-1500.136908889158
 21
-492.57327426187
 31
0.0
  0
LINE
  5
516
330
1F
100
AcDbEntity
  8
0
  6
CONTINUOUS
 62
     7
100
AcDbLine
 10
-1500.142780224755
 20
-493.794534987376
 30
0.0
 11
-1497.463069363447
 21
-493.794534987376
 31
0.0
  0
LINE
  5
517
330
1F
100
AcDbEntity
  8
0
  6
CONTINUOUS
 62
     7
100
AcDbLine
 10
-1500.142780224755
 20
-501.5505349873761
 30
0.0
 11
-1489.426780437735
 21
-501.5505349873759
 31
0.0
  0
LINE
  5
518
330
1F
100
AcDbEntity
  8
0
  6
CONTINUOUS
 62
     7
100
AcDbLine
 10
-1500.142780224755
 20
-496.4512742618701
 30
0.0
 11
-1493.655841379791
 21
-496.45127426187
 31
0.0
  0
LINE
  5
519
330
1F
100
AcDbEntity
  8
0
  6
CONTINUOUS
 62
     7
100
AcDbLine
 10
-1505.432659596356
 20
980.0269435374713
 30
0.0
 11
-1492.131274938918
 21
980.0269435375272
 31
0.0
  0
ARC
  5
51A
330
1F
100
AcDbEntity
  8
0
  6
CONTINUOUS
 62
     7
100
AcDbCircle
 10
-1484.343402220589
 20
918.6528707573162
 30
0.0
 40
61.37158881077338
100
AcDbArc
 50
88.28174957947131
 51
97.27465795264082
  0
LINE
  5
51B
330
1F
100
AcDbEntity
  8
0
  6
CONTINUOUS
 62
     7
100
AcDbLine
 10
-1500.142780224755
 20
-500.3292742618701
 30
0.0
 11
-1490.206987337894
 21
-500.3292742618699
 31
0.0
  0
LWPOLYLINE
  5
51C
330
1F
100
AcDbEntity
  8
0
  6
CONTINUOUS
 62
     7
100
AcDbPolyline
 90
        3
 70
     0
 43
0.0
 10
-1454.802957193154
 20
1082.568135521098
 10
-1454.902779693854
 20
1082.615166072588
 42
0.0637329238582038
 10
-1456.030275882145
 20
1082.758550020487
  0
LINE
  5
51D
330
1F
100
AcDbEntity
  8
0
  6
CONTINUOUS
 62
     7
100
AcDbLine
 10
-1501.909704460307
 20
986.4276441182589
 30
0.0
 11
-1501.909704460281
 21
980.2759780684194
 31
0.0
  0
LWPOLYLINE
  5
51E
330
1F
100
AcDbEntity
  8
0
  6
CONTINUOUS
 62
     7
100
AcDbPolyline
 90
        7
 70
     0
 43
0.0
 10
-1499.990133484306
 20
987.4276441182623
 42
0.2819276525283395
 10
-1500.037332922122
 20
987.3987324748825
 42
-0.0388449426090556
 10
-1500.066229236411
 20
987.3515236507734
 42
0.1209707721029129
 10
-1500.109019714751
 20
987.2462724705863
 42
-0.0234955138124208
 10
-1500.130740100068
 20
987.1347508994486
 42
0.0487003284478321
 10
-1500.181040680764
 20
986.782942008816
 42
0.0111731527631514
 10
-1500.188981267276
 20
986.4276441182619
  0
LINE
  5
51F
330
1F
100
AcDbEntity
  8
0
  6
CONTINUOUS
 62
     7
100
AcDbLine
 10
-1456.159110217002
 20
1082.760767744943
 30
0.0
 11
-1456.229638530551
 21
1082.761088689212
 31
0.0
  0
ARC
  5
520
330
1F
100
AcDbEntity
  8
0
  6
CONTINUOUS
 62
     7
100
AcDbCircle
 10
1499.604530808835
 20
986.3425015148641
 30
0.0
 40
1.085397055796189
210
0.0
220
0.0
230
-1.0
100
AcDbArc
 50
88.75933346356067
 51
175.5008825939157
  0
LINE
  5
521
330
1F
100
AcDbEntity
  8
0
  6
CONTINUOUS
 62
     7
100
AcDbLine
 10
-1456.229638530551
 20
1082.761088689212
 30
0.0
 11
-1456.229638530551
 21
1082.774400048288
 31
0.0
  0
LINE
  5
522
330
1F
100
AcDbEntity
  8
0
  6
CONTINUOUS
 62
     7
100
AcDbLine
 10
-1456.229638530551
 20
1082.774400048288
 30
0.0
 11
-1456.229638530551
 21
1083.051295293185
 31
0.0
  0
LINE
  5
523
330
1F
100
AcDbEntity
  8
0
  6
CONTINUOUS
 62
     7
100
AcDbLine
 10
-1520.503250073837
 20
1020.261095375424
 30
0.0
 11
-1532.491091931828
 21
1026.603473085833
 31
0.0
  0
ARC
  5
524
330
1F
100
AcDbEntity
  8
0
  6
CONTINUOUS
 62
     7
100
AcDbCircle
 10
1530.003250073837
 20
1032.106166932883
 30
0.0
 40
13.96824455926149
210
0.0
220
0.0
230
-1.0
100
AcDbArc
 50
79.68816555753715
 51
90.0
  0
LINE
  5
525
330
1F
100
AcDbEntity
  8
0
  6
CONTINUOUS
 62
     7
100
AcDbLine
 10
-1482.500058866836
 20
1026.611863045559
 30
0.0
 11
-1494.503250073837
 21
1020.261095375424
 31
0.0
  0
LINE
  5
526
330
1F
100
AcDbEntity
  8
0
  6
CONTINUOUS
 62
     7
100
AcDbLine
 10
-1454.698185850879
 20
1082.468409055869
 30
0.0
 11
-1454.530382941497
 21
1082.569152857784
 31
0.0
  0
LINE
  5
527
330
1F
100
AcDbEntity
  8
0
  6
CONTINUOUS
 62
     7
100
AcDbLine
 10
-1485.003250073837
 20
1047.761095375424
 30
0.0
 11
-1485.003250073837
 21
1046.074411492144
 31
0.0
  0
LINE
  5
528
330
1F
100
AcDbEntity
  8
0
  6
CONTINUOUS
 62
     7
100
AcDbLine
 10
-1500.188981267276
 20
986.4276441182537
 30
0.0
 11
-1500.18898126725
 21
980.407948309234
 31
0.0
  0
LINE
  5
529
330
1F
100
AcDbEntity
  8
0
  6
CONTINUOUS
 62
     7
100
AcDbLine
 10
-1558.776861645182
 20
1086.17522876454
 30
0.0
 11
-1560.596924160831
 21
1086.046088056211
 31
0.0
  0
LINE
  5
52A
330
1F
100
AcDbEntity
  8
0
  6
CONTINUOUS
 62
     7
100
AcDbLine
 10
-1456.030275882145
 20
1082.758550020487
 30
0.0
 11
-1456.159110217002
 21
1082.760767744943
 31
0.0
  0
LWPOLYLINE
  5
52B
330
1F
100
AcDbEntity
  8
0
  6
CONTINUOUS
 62
     7
100
AcDbPolyline
 90
        5
 70
     0
 43
0.0
 10
1456.229638530552
 20
1083.051295293185
 42
0.064659819788019
 10
1454.56336140118
 20
1082.881179098995
 10
1454.469053929399
 20
1082.826961304077
 10
1454.465534143485
 20
1082.823320919991
 10
1454.465534143485
 20
1082.823320919991
210
0.0
220
0.0
230
-1.0
  0
LINE
  5
52C
330
1F
100
AcDbEntity
  8
0
  6
CONTINUOUS
 62
     7
100
AcDbLine
 10
-1454.465534143485
 20
1082.823320919991
 30
0.0
 11
-1454.449457951727
 21
1082.784066984467
 31
0.0
  0
LINE
  5
52D
330
1F
100
AcDbEntity
  8
0
  6
CONTINUOUS
 62
     7
100
AcDbLine
 10
-1456.229638530551
 20
1084.178261644921
 30
0.0
 11
-1456.229638530551
 21
1083.051295293185
 31
0.0
  0
LINE
  5
52E
330
1F
100
AcDbEntity
  8
0
  6
CONTINUOUS
 62
     7
100
AcDbLine
 10
-1560.555511787148
 20
1082.79934222961
 30
0.0
 11
-1560.551830481606
 21
1082.80820441668
 31
0.0
  0
LWPOLYLINE
  5
52F
330
1F
100
AcDbEntity
  8
0
  6
CONTINUOUS
 62
     7
100
AcDbPolyline
 90
        3
 70
     0
 43
0.0
 10
-1530.003250073837
 20
1046.074411492144
 42
0.0722844665423998
 10
-1526.465492538872
 20
1034.528003620246
 42
0.0056105990691082
 10
-1520.503250073837
 20
1020.261095375424
  0
LINE
  5
530
330
1F
100
AcDbEntity
  8
0
  6
CONTINUOUS
 62
     7
100
AcDbLine
 10
-1492.52790132399
 20
986.4276441182446
 30
0.0
 11
-1492.527901323965
 21
980.4079483092249
 31
0.0
  0
LINE
  5
531
330
1F
100
AcDbEntity
  8
0
  6
CONTINUOUS
 62
     7
100
AcDbLine
 10
-1560.551830481606
 20
1082.80820441668
 30
0.0
 11
-1560.540964533228
 21
1082.823203383865
 31
0.0
  0
LINE
  5
532
330
1F
100
AcDbEntity
  8
0
  6
CONTINUOUS
 62
     7
100
AcDbLine
 10
-1501.214827473667
 20
987.4276441183338
 30
0.0
 11
-1503.003250073836
 21
987.4276441183263
 31
0.0
  0
LINE
  5
533
330
1F
100
AcDbEntity
  8
0
  6
CONTINUOUS
 62
     7
100
AcDbLine
 10
-1558.776861631681
 20
1082.761088689212
 30
0.0
 11
-1558.966271559514
 21
1082.758802383716
 31
0.0
  0
LINE
  5
534
330
1F
100
AcDbEntity
  8
0
  6
CONTINUOUS
 62
     7
100
AcDbLine
 10
-1530.003250073837
 20
1046.074411492144
 30
0.0
 11
-1530.003250073837
 21
1047.761095375424
 31
0.0
  0
LWPOLYLINE
  5
535
330
1F
100
AcDbEntity
  8
0
  6
CONTINUOUS
 62
     7
100
AcDbPolyline
 90
        3
 70
     0
 43
0.0
 10
-1494.503250073837
 20
1020.261095375424
 42
0.0229567370496103
 10
-1485.533845285828
 20
1043.031783385248
 42
0.0598032627271103
 10
-1485.003250073837
 20
1046.074411492144
  0
LINE
  5
536
330
1F
100
AcDbEntity
  8
0
  6
CONTINUOUS
 62
     7
100
AcDbLine
 10
-1489.004510018395
 20
986.4276441182537
 30
0.0
 11
-1489.00451001837
 21
980.407948309234
 31
0.0
  0
LINE
  5
537
330
1F
100
AcDbEntity
  8
0
  6
CONTINUOUS
 62
     7
100
AcDbLine
 10
-1494.503250073837
 20
1020.261095375424
 30
0.0
 11
-1520.503250073837
 21
1020.261095375424
 31
0.0
  0
LINE
  5
538
330
1F
100
AcDbEntity
  8
0
  6
CONTINUOUS
 62
     7
100
AcDbLine
 10
-1494.503250073837
 20
988.4276441182609
 30
0.0
 11
-1494.503250073837
 21
1020.261095375424
 31
0.0
  0
LWPOLYLINE
  5
539
330
1F
100
AcDbEntity
  8
0
  6
CONTINUOUS
 62
     7
100
AcDbPolyline
 90
        5
 70
     0
 43
0.0
 10
-1491.694308575898
 20
987.4276441182526
 42
0.1283319565495295
 10
-1492.019614506104
 20
987.3427517246873
 42
0.0784229904702005
 10
-1492.283747660815
 20
987.1347508994438
 42
0.1144646293700133
 10
-1492.472648033651
 20
986.8042707034754
 42
0.0729623864303297
 10
-1492.52790132399
 20
986.4276441182592
  0
ARC
  5
53A
330
1F
100
AcDbEntity
  8
0
  6
CONTINUOUS
 62
     7
100
AcDbCircle
 10
1485.003250073837
 20
1032.106166932886
 30
0.0
 40
13.96824455925794
210
0.0
220
0.0
230
-1.0
100
AcDbArc
 50
90.0
 51
100.3118344424654
  0
LINE
  5
53B
330
1F
100
AcDbEntity
  8
0
  6
CONTINUOUS
 62
     7
100
AcDbLine
 10
-1520.503250073837
 20
1020.261095375424
 30
0.0
 11
-1520.503250073837
 21
978.2628902733923
 31
0.0
  0
LWPOLYLINE
  5
53C
330
1F
100
AcDbEntity
  8
0
  6
CONTINUOUS
 62
     7
100
AcDbPolyline
 90
        5
 70
     0
 43
0.0
 10
-1454.446969257963
 20
1083.901795772175
 10
-1454.53364273999
 20
1083.965628983143
 10
-1454.648976690114
 20
1084.012076991705
 10
-1454.648976690114
 20
1084.012076991705
 42
0.0635837159778296
 10
-1456.229638530551
 20
1084.178261644921
  0
LWPOLYLINE
  5
53D
330
1F
100
AcDbEntity
  8
0
  6
CONTINUOUS
 62
     7
100
AcDbPolyline
 90
        3
 70
     0
 43
0.0
 10
-1558.776861645182
 20
1084.178261644921
 42
0.085703876626008
 10
-1560.502234828451
 20
1083.949334396048
 10
-1560.559494352707
 20
1083.901714901544
  0
LINE
  5
53E
330
1F
100
AcDbEntity
  8
0
  6
CONTINUOUS
 62
     7
100
AcDbLine
 10
-1492.115040204108
 20
979.5439806243828
 30
0.0
 11
-1505.803250073803
 21
979.5439806243251
 31
0.0
  0
LINE
  5
53F
330
1F
100
AcDbEntity
  8
0
  6
CONTINUOUS
 62
     7
100
AcDbLine
 10
-1456.229638530551
 20
1084.178261644921
 30
0.0
 11
-1456.229638530551
 21
1086.17522876454
 31
0.0
  0
LINE
  5
540
330
1F
100
AcDbEntity
  8
0
  6
CONTINUOUS
 62
     7
100
AcDbLine
 10
-1558.776861645182
 20
1086.17522876454
 30
0.0
 11
-1558.776861645182
 21
1084.178261644921
 31
0.0
  0
LINE
  5
541
330
1F
100
AcDbEntity
  8
0
  6
CONTINUOUS
 62
     7
100
AcDbLine
 10
-1454.77472478509
 20
1082.546378189296
 30
0.0
 11
-1454.802957193154
 21
1082.568135521098
 31
0.0
  0
LWPOLYLINE
  5
542
330
1F
100
AcDbEntity
  8
0
  6
CONTINUOUS
 62
     7
100
AcDbPolyline
 90
        5
 70
     0
 43
0.0
 38
0.0
 10
1489.556889534966
 20
987.4276441182581
 42
0.2092929529818392
 10
1489.327182490533
 20
987.3270872396862
 42
0.0244788977701661
 10
1489.166298233016
 20
987.1347508994484
 42
0.1311437471006037
 10
1489.027654725106
 20
986.7944107500053
 42
0.0315210118957842
 10
1489.004510018395
 20
986.4276441182634
210
1.135594624981689E-43
220
-1.232595164407903E-32
230
-1.0
  0
LWPOLYLINE
  5
543
330
1F
100
AcDbEntity
  8
0
  6
CONTINUOUS
 62
     7
100
AcDbPolyline
 90
        5
 70
     0
 43
0.0
 10
-1501.062265966989
 20
987.4276441182666
 42
0.1254621541629755
 10
-1501.392332128954
 20
987.3434979712273
 42
0.0803762203948509
 10
-1501.661495472246
 20
987.1347508994583
 42
0.1132161053689572
 10
-1501.852747021749
 20
986.804767503008
 42
0.0750898605881514
 10
-1501.909704460307
 20
986.4276441182739
  0
LINE
  5
544
330
1F
100
AcDbEntity
  8
0
  6
CONTINUOUS
 62
     7
100
AcDbLine
 10
-1454.409576851605
 20
1086.046088556406
 30
0.0
 11
-1456.229638530551
 21
1086.17522876454
 31
0.0
  0
LINE
  5
545
330
1F
100
AcDbEntity
  8
0
  6
CONTINUOUS
 62
     7
100
AcDbLine
 10
-1456.22963853059
 20
1087.185450408217
 30
0.0
 11
-1456.229638530599
 21
1086.17522876454
 31
0.0
  0
LINE
  5
546
330
1F
100
AcDbEntity
  8
0
  6
CONTINUOUS
 62
     7
100
AcDbLine
 10
-1558.776861645182
 20
1086.17522876454
 30
0.0
 11
-1558.776861645182
 21
1087.185450456923
 31
0.0
  0
LINE
  5
547
330
1F
100
AcDbEntity
  8
0
  6
CONTINUOUS
 62
     7
100
AcDbLine
 10
-1454.760028658503
 20
1082.529487656991
 30
0.0
 11
-1454.77472478509
 21
1082.546378189296
 31
0.0
  0
LINE
  5
548
330
1F
100
AcDbEntity
  8
0
  6
CONTINUOUS
 62
     7
100
AcDbLine
 10
-1456.235484107679
 20
-717.2389046245764
 30
0.0
 11
-1456.235484107679
 21
1082.761095375424
 31
0.0
  0
LINE
  5
549
330
1F
100
AcDbEntity
  8
0
  6
CONTINUOUS
 62
     7
100
AcDbLine
 10
-1501.369275477622
 20
-493.8373651453428
 30
0.0
 11
-1501.369275477622
 21
-492.5304441039022
 31
0.0
  0
LINE
  5
54A
330
1F
100
AcDbEntity
  8
0
  6
CONTINUOUS
 62
     7
100
AcDbLine
 10
-1558.771016039996
 20
1082.761088689212
 30
0.0
 11
-1558.776861631682
 21
1082.761088689212
 31
0.0
  0
LINE
  5
54B
330
1F
100
AcDbEntity
  8
0
  6
CONTINUOUS
 62
     7
100
AcDbLine
 10
-1558.776861645182
 20
1084.178261644921
 30
0.0
 11
-1558.776861645182
 21
1083.051295293184
 31
0.0
  0
LINE
  5
54C
330
1F
100
AcDbEntity
  8
0
  6
CONTINUOUS
 62
     7
100
AcDbLine
 10
-1515.224937910324
 20
-492.7100660273671
 30
0.0
 11
-1515.224937910324
 21
-522.7100660273671
 31
0.0
  0
LINE
  5
54D
330
1F
100
AcDbEntity
  8
0
  6
CONTINUOUS
 62
     7
100
AcDbLine
 10
-1558.776861631682
 20
1082.761088689212
 30
0.0
 11
-1558.776861645181
 21
1083.051295293184
 31
0.0
  0
LINE
  5
54E
330
1F
100
AcDbEntity
  8
0
  6
CONTINUOUS
 62
     7
100
AcDbLine
 10
-1501.369275477622
 20
-501.5933651453428
 30
0.0
 11
-1501.369275477622
 21
-500.2864441039023
 31
0.0
  0
LINE
  5
54F
330
1F
100
AcDbEntity
  8
0
  6
CONTINUOUS
 62
     7
100
AcDbLine
 10
-1456.229638530551
 20
1086.17522876454
 30
0.0
 11
-1558.776861645182
 21
1086.17522876454
 31
0.0
  0
LINE
  5
550
330
1F
100
AcDbEntity
  8
0
  6
CONTINUOUS
 62
     7
100
AcDbLine
 10
-1514.93626277573
 20
-522.5983770814194
 30
0.0
 11
-1514.93626277573
 21
-492.5983770814193
 31
0.0
  0
LINE
  5
551
330
1F
100
AcDbEntity
  8
0
  6
CONTINUOUS
 62
     7
100
AcDbLine
 10
-1558.776861645182
 20
1083.051295293184
 30
0.0
 11
-1456.229638530551
 21
1083.051295293185
 31
0.0
  0
LWPOLYLINE
  5
552
330
1F
100
AcDbEntity
  8
0
  6
CONTINUOUS
 62
     7
100
AcDbPolyline
 90
        3
 70
     0
 43
0.0
 10
1560.540964533228
 20
1082.823203383865
 10
1560.4405061033
 20
1082.882185384647
 42
0.0630140512614283
 10
1558.776861645181
 20
1083.051295293184
210
0.0
220
0.0
230
-1.0
  0
LINE
  5
553
330
1F
100
AcDbEntity
  8
0
  6
CONTINUOUS
 62
     7
100
AcDbLine
 10
-1501.369275477622
 20
-513.2273651453428
 30
0.0
 11
-1501.369275477622
 21
-511.9204441039024
 31
0.0
  0
LINE
  5
554
330
1F
100
AcDbEntity
  8
0
  6
CONTINUOUS
 62
     7
100
AcDbLine
 10
-1558.776861645182
 20
1084.178261644921
 30
0.0
 11
-1456.229638530551
 21
1084.178261644921
 31
0.0
  0
LINE
  5
555
330
1F
100
AcDbEntity
  8
0
  6
CONTINUOUS
 62
     7
100
AcDbLine
 10
-1501.369275477622
 20
-497.7153651453428
 30
0.0
 11
-1501.369275477622
 21
-496.4084441039023
 31
0.0
  0
LINE
  5
556
330
1F
100
AcDbEntity
  8
0
  6
CONTINUOUS
 62
     7
100
AcDbLine
 10
-1501.369275477622
 20
-505.4713651453429
 30
0.0
 11
-1501.369275477622
 21
-504.1644441039024
 31
0.0
  0
LINE
  5
557
330
1F
100
AcDbEntity
  8
0
  6
CONTINUOUS
 62
     7
100
AcDbLine
 10
-1516.523976016001
 20
-523.2750837153721
 30
0.0
 11
-1516.523976016001
 21
-493.2750837153721
 31
0.0
  0
LINE
  5
558
330
1F
100
AcDbEntity
  8
0
  6
CONTINUOUS
 62
     7
100
AcDbLine
 10
-1501.369275477622
 20
-517.1053651453427
 30
0.0
 11
-1501.369275477622
 21
-515.7984441039023
 31
0.0
  0
LINE
  5
559
330
1F
100
AcDbEntity
  8
0
  6
CONTINUOUS
 62
     7
100
AcDbLine
 10
-1456.229638530551
 20
1082.761088689212
 30
0.0
 11
-1456.235484107679
 21
1082.761088689212
 31
0.0
  0
LINE
  5
55A
330
1F
100
AcDbEntity
  8
0
  6
CONTINUOUS
 62
     7
100
AcDbLine
 10
-1501.369275477622
 20
-520.9833651453428
 30
0.0
 11
-1501.369275477622
 21
-519.6764441039023
 31
0.0
  0
LINE
  5
55B
330
1F
100
AcDbEntity
  8
0
  6
CONTINUOUS
 62
     7
100
AcDbLine
 10
-1560.596922909134
 20
1086.046030031858
 30
0.0
 11
-1560.559870611241
 21
1083.902238975189
 31
0.0
  0
LINE
  5
55C
330
1F
100
AcDbEntity
  8
0
  6
CONTINUOUS
 62
     7
100
AcDbLine
 10
-1501.369275477622
 20
-509.3493651453429
 30
0.0
 11
-1501.369275477622
 21
-508.0424441039023
 31
0.0
  0
LINE
  5
55D
330
1F
100
AcDbEntity
  8
0
  6
CONTINUOUS
 62
     7
100
AcDbLine
 10
-1456.235484107679
 20
1082.761088689212
 30
0.0
 11
-1558.771016039996
 21
1082.761088689212
 31
0.0
  0
LINE
  5
55E
330
1F
100
AcDbEntity
  8
0
  6
CONTINUOUS
 62
     7
100
AcDbLine
 10
-1558.771016039996
 20
1082.761095375424
 30
0.0
 11
-1558.771016039996
 21
-717.2389046245764
 31
0.0
  0
LINE
  5
55F
330
1F
100
AcDbEntity
  8
0
  6
CONTINUOUS
 62
     7
100
AcDbLine
 10
-1513.637224670053
 20
-492.154722897332
 30
0.0
 11
-1513.637224670053
 21
-522.1547228973319
 31
0.0
  0
MTEXT
  5
560
330
1F
100
AcDbEntity
  8
0
 62
     7
100
AcDbMText
 10
-1000.215909090909
 20
-1040.170454545455
 30
0.0
 40
15.00000000000001
 41
0.0
 71
     1
 72
     1
  1
{\fＭＳ ゴシック;ＭＲＰＤＬ－１}
  0
ENDSEC
  0
SECTION
  2
OBJECTS
  0
DICTIONARY
  5
C
330
0
100
AcDbDictionary
  3
ACAD_GROUP
350
D
  3
ACAD_LAYOUT
350
1A
  3
ACAD_MATERIAL
350
43
  3
ACAD_MLEADERSTYLE
350
6B
  3
ACAD_MLINESTYLE
350
17
  3
ACAD_PLOTSETTINGS
350
19
  3
ACAD_SCALELIST
350
47
  3
ACAD_VISUALSTYLE
350
2A
  3
ACDBHEADERROUNDTRIPXREC
350
561
  3
ACDBVARIABLEDICTIONARY
350
582
  0
DICTIONARY
  5
589
330
8
100
AcDbDictionary
280
     1
  3
ACAD_XREC_ROUNDTRIP
360
58A
  0
DICTIONARY
  5
D
102
{ACAD_REACTORS
330
C
102
}
330
C
100
AcDbDictionary
  0
DICTIONARY
  5
1A
102
{ACAD_REACTORS
330
C
102
}
330
C
100
AcDbDictionary
  0
DICTIONARY
  5
43
102
{ACAD_REACTORS
330
C
102
}
330
C
100
AcDbDictionary
  3
BYBLOCK
350
45
  3
BYLAYER
350
44
  3
GLOBAL
350
46
  0
DICTIONARY
  5
6B
102
{ACAD_REACTORS
330
C
102
}
330
C
100
AcDbDictionary
  3
STANDARD
350
6C
  0
DICTIONARY
  5
17
102
{ACAD_REACTORS
330
C
102
}
330
C
100
AcDbDictionary
  3
STANDARD
350
18
  0
DICTIONARY
  5
19
102
{ACAD_REACTORS
330
C
102
}
330
C
100
AcDbDictionary
  0
DICTIONARY
  5
47
102
{ACAD_REACTORS
330
C
102
}
330
C
100
AcDbDictionary
  3
A0
350
48
  3
A1
350
49
  3
A2
350
4A
  3
A3
350
4B
  3
A4
350
4C
  3
A5
350
4D
  3
A6
350
4E
  3
A7
350
4F
  3
A8
350
50
  3
A9
350
51
  3
B0
350
52
  3
B1
350
53
  3
B2
350
54
  3
B3
350
55
  3
B4
350
56
  3
B5
350
57
  3
B6
350
58
  3
B7
350
59
  3
B8
350
5A
  3
B9
350
5B
  3
C0
350
5C
  3
C1
350
5D
  3
C2
350
5E
  3
C3
350
5F
  3
C4
350
60
  3
C5
350
61
  3
C6
350
62
  3
C7
350
63
  3
C8
350
64
  3
C9
350
65
  3
D0
350
66
  3
D1
350
67
  3
D2
350
68
  0
DICTIONARY
  5
2A
102
{ACAD_REACTORS
330
C
102
}
330
C
100
AcDbDictionary
  3
2DWIREFRAME
350
2F
  3
BASIC
350
32
  3
BRIGHTEN
350
36
  3
COLORCHANGE
350
3A
  3
CONCEPTUAL
350
34
  3
DIM
350
35
  3
EDGECOLOROFF
350
3D
  3
FACEPATTERN
350
39
  3
FLAT
350
2B
  3
FLATWITHEDGES
350
2C
  3
GOURAUD
350
2D
  3
GOURAUDWITHEDGES
350
2E
  3
HIDDEN
350
31
  3
JITTEROFF
350
3B
  3
LINEPATTERN
350
38
  3
OVERHANGOFF
350
3C
  3
REALISTIC
350
33
  3
SHADED
350
42
  3
SHADED_WITH_EDGES
350
41
  3
SHADES_OF_GRAY
350
3E
  3
SKETCHY
350
3F
  3
THICKEN
350
37
  3
WIREFRAME
350
30
  3
X-RAY
350
40
  0
DICTIONARY
  5
561
102
{ACAD_REACTORS
330
C
102
}
330
C
100
AcDbDictionary
  3
CEPSNID
350
56B
  3
CEPSNTYPE
350
56A
  3
DIMSTYLEDATA
350
581
  3
FINGERPRINTGUID
350
56C
  3
HYPERLINKBASE
350
564
  3
INSUNITS
350
569
  3
LAYOUTDICT
350
566
  3
LWETCUNION
350
568
  3
PLOTSETDICT
350
567
  3
PSVPSCALE
350
56E
  3
PUCSBASE
350
571
  3
PUCSORGBACK
350
577
  3
PUCSORGBOTTOM
350
573
  3
PUCSORGFRONT
350
576
  3
PUCSORGLEFT
350
574
  3
PUCSORGRIGHT
350
575
  3
PUCSORGTOP
350
572
  3
PUCSORTHOREF
350
56F
  3
PUCSORTHOVIEW
350
570
  3
STYLESHEET
350
565
  3
TSTACKALIGN
350
562
  3
TSTACKSIZE
350
563
  3
UCSBASE
350
57A
  3
UCSORGBACK
350
580
  3
UCSORGBOTTOM
350
57C
  3
UCSORGFRONT
350
57F
  3
UCSORGLEFT
350
57D
  3
UCSORGRIGHT
350
57E
  3
UCSORGTOP
350
57B
  3
UCSORTHOREF
350
578
  3
UCSORTHOVIEW
350
579
  3
VERSIONGUID
350
56D
  0
DICTIONARY
  5
582
102
{ACAD_REACTORS
330
C
102
}
330
C
100
AcDbDictionary
  3
CANNOSCALE
350
58B
  3
CMLEADERSTYLE
350
584
  3
CTABLESTYLE
350
583
  3
DIMASSOC
350
587
  3
HIDETEXT
350
588
  3
MSLTSCALE
350
58C
  0
XRECORD
  5
58A
102
{ACAD_REACTORS
330
589
102
}
330
589
100
AcDbXrecord
102
VTR_0.000_0.000_1.000_1.000_VISUALSTYLE
340
2F
102
VTR_0.000_0.000_1.000_1.000_GRIDDISPLAY
 70
     3
102
VTR_0.000_0.000_1.000_1.000_GRIDMAJOR
 70
     5
102
VTR_0.000_0.000_1.000_1.000_DEFAULTLIGHTING
280
     1
102
VTR_0.000_0.000_1.000_1.000_DEFAULTLIGHTINGTYPE
 70
     1
102
VTR_0.000_0.000_1.000_1.000_BRIGHTNESS
141
0.0
102
VTR_0.000_0.000_1.000_1.000_CONTRAST
142
0.0
  0
MATERIAL
  5
45
102
{ACAD_REACTORS
330
43
102
}
102
{ACAD_XDICTIONARY
360
58F
102
}
330
43
100
AcDbMaterial
  1
BYBLOCK
  0
MATERIAL
  5
44
102
{ACAD_REACTORS
330
43
102
}
102
{ACAD_XDICTIONARY
360
58D
102
}
330
43
100
AcDbMaterial
  1
BYLAYER
  0
MATERIAL
  5
46
102
{ACAD_REACTORS
330
43
102
}
102
{ACAD_XDICTIONARY
360
591
102
}
330
43
100
AcDbMaterial
  1
GLOBAL
  0
ACAD_PROXY_OBJECT
  5
6C
102
{ACAD_REACTORS
330
6B
102
}
330
6B
100
AcDbProxyObject
 90
      499
 91
      505
 93
      610
310
40901902A4063FBFFFFFE056BD1B81E855B9FC0AD7A3703D0AD73F4214DD185B99185C9900AD7A3703D0AC73F90141901A02B5E8DC0F42B1CFC02B5E8DC0F42B1CFE5764000000000000300FC0
340
14
340
0
340
11
340
0
 94
        0
1001
ACAD_MLEADERVER
1070
     2
  0
MLINESTYLE
  5
18
102
{ACAD_REACTORS
330
17
102
}
330
17
100
AcDbMlineStyle
  2
Standard
 70
     0
  3

 62
   256
 51
90.0
 52
90.0
 71
     2
 49
0.5
 62
   256
  6
BYLAYER
 49
-0.5
 62
   256
  6
BYLAYER
  0
ACAD_PROXY_OBJECT
  5
48
102
{ACAD_REACTORS
330
47
102
}
330
47
100
AcDbProxyObject
 90
      499
 91
      503
 93
       41
310
903313A31580
  0
ACAD_PROXY_OBJECT
  5
49
102
{ACAD_REACTORS
330
47
102
}
330
47
100
AcDbProxyObject
 90
      499
 91
      503
 93
      105
310
903313A324000000000000004000
  0
ACAD_PROXY_OBJECT
  5
4A
102
{ACAD_REACTORS
330
47
102
}
330
47
100
AcDbProxyObject
 90
      499
 91
      503
 93
      105
310
903313A344000000000000104000
  0
ACAD_PROXY_OBJECT
  5
4B
102
{ACAD_REACTORS
330
47
102
}
330
47
100
AcDbProxyObject
 90
      499
 91
      503
 93
      105
310
903313A354000000000000144000
  0
ACAD_PROXY_OBJECT
  5
4C
102
{ACAD_REACTORS
330
47
102
}
330
47
100
AcDbProxyObject
 90
      499
 91
      503
 93
      105
310
903313A384000000000000204000
  0
ACAD_PROXY_OBJECT
  5
4D
102
{ACAD_REACTORS
330
47
102
}
330
47
100
AcDbProxyObject
 90
      499
 91
      503
 93
      113
310
904313A31304000000000000244000
  0
ACAD_PROXY_OBJECT
  5
4E
102
{ACAD_REACTORS
330
47
102
}
330
47
100
AcDbProxyObject
 90
      499
 91
      503
 93
      113
310
904313A31364000000000000304000
  0
ACAD_PROXY_OBJECT
  5
4F
102
{ACAD_REACTORS
330
47
102
}
330
47
100
AcDbProxyObject
 90
      499
 91
      503
 93
      113
310
904313A32304000000000000344000
  0
ACAD_PROXY_OBJECT
  5
50
102
{ACAD_REACTORS
330
47
102
}
330
47
100
AcDbProxyObject
 90
      499
 91
      503
 93
      113
310
904313A333040000000000003E4000
  0
ACAD_PROXY_OBJECT
  5
51
102
{ACAD_REACTORS
330
47
102
}
330
47
100
AcDbProxyObject
 90
      499
 91
      503
 93
      113
310
904313A34304000000000000444000
  0
ACAD_PROXY_OBJECT
  5
52
102
{ACAD_REACTORS
330
47
102
}
330
47
100
AcDbProxyObject
 90
      499
 91
      503
 93
      113
310
904313A35304000000000000494000
  0
ACAD_PROXY_OBJECT
  5
53
102
{ACAD_REACTORS
330
47
102
}
330
47
100
AcDbProxyObject
 90
      499
 91
      503
 93
      121
310
905313A3130304000000000000594000
  0
ACAD_PROXY_OBJECT
  5
54
102
{ACAD_REACTORS
330
47
102
}
330
47
100
AcDbProxyObject
 90
      499
 91
      503
 93
      105
310
903323A310000000000000010100
  0
ACAD_PROXY_OBJECT
  5
55
102
{ACAD_REACTORS
330
47
102
}
330
47
100
AcDbProxyObject
 90
      499
 91
      503
 93
      105
310
903343A310000000000000410100
  0
ACAD_PROXY_OBJECT
  5
56
102
{ACAD_REACTORS
330
47
102
}
330
47
100
AcDbProxyObject
 90
      499
 91
      503
 93
      105
310
903383A310000000000000810100
  0
ACAD_PROXY_OBJECT
  5
57
102
{ACAD_REACTORS
330
47
102
}
330
47
100
AcDbProxyObject
 90
      499
 91
      503
 93
      113
310
90431303A310000000000000910100
  0
ACAD_PROXY_OBJECT
  5
58
102
{ACAD_REACTORS
330
47
102
}
330
47
100
AcDbProxyObject
 90
      499
 91
      503
 93
      121
310
9053130303A310000000000001650100
  0
ACAD_PROXY_OBJECT
  5
59
102
{ACAD_REACTORS
330
47
102
}
330
47
100
AcDbProxyObject
 90
      499
 91
      503
 93
      257
310
90E312F31323822203D2031272D3022000000000000200FC000000000000284000
  0
ACAD_PROXY_OBJECT
  5
5A
102
{ACAD_REACTORS
330
47
102
}
330
47
100
AcDbProxyObject
 90
      499
 91
      503
 93
      249
310
90D312F363422203D2031272D3022000000000000240FC000000000000284000
  0
ACAD_PROXY_OBJECT
  5
5B
102
{ACAD_REACTORS
330
47
102
}
330
47
100
AcDbProxyObject
 90
      499
 91
      503
 93
      249
310
90D312F333222203D2031272D3022000000000000280FC000000000000284000
  0
ACAD_PROXY_OBJECT
  5
5C
102
{ACAD_REACTORS
330
47
102
}
330
47
100
AcDbProxyObject
 90
      499
 91
      503
 93
      249
310
90D312F313622203D2031272D30220000000000002C0FC000000000000284000
  0
ACAD_PROXY_OBJECT
  5
5D
102
{ACAD_REACTORS
330
47
102
}
330
47
100
AcDbProxyObject
 90
      499
 91
      503
 93
      249
310
90D332F333222203D2031272D30220000000000002E0FC000000000000284000
  0
ACAD_PROXY_OBJECT
  5
5E
102
{ACAD_REACTORS
330
47
102
}
330
47
100
AcDbProxyObject
 90
      499
 91
      503
 93
      241
310
90C312F3822203D2031272D3022000000000000300FC000000000000284000
  0
ACAD_PROXY_OBJECT
  5
5F
102
{ACAD_REACTORS
330
47
102
}
330
47
100
AcDbProxyObject
 90
      499
 91
      503
 93
      249
310
90D332F313622203D2031272D3022000000000000320FC000000000000284000
  0
ACAD_PROXY_OBJECT
  5
60
102
{ACAD_REACTORS
330
47
102
}
330
47
100
AcDbProxyObject
 90
      499
 91
      503
 93
      241
310
90C312F3422203D2031272D3022000000000000340FC000000000000284000
  0
ACAD_PROXY_OBJECT
  5
61
102
{ACAD_REACTORS
330
47
102
}
330
47
100
AcDbProxyObject
 90
      499
 91
      503
 93
      241
310
90C332F3822203D2031272D3022000000000000360FC000000000000284000
  0
ACAD_PROXY_OBJECT
  5
62
102
{ACAD_REACTORS
330
47
102
}
330
47
100
AcDbProxyObject
 90
      499
 91
      503
 93
      241
310
90C312F3222203D2031272D3022000000000000380FC000000000000284000
  0
ACAD_PROXY_OBJECT
  5
63
102
{ACAD_REACTORS
330
47
102
}
330
47
100
AcDbProxyObject
 90
      499
 91
      503
 93
      241
310
90C332F3422203D2031272D30220000000000003A0FC000000000000284000
  0
ACAD_PROXY_OBJECT
  5
64
102
{ACAD_REACTORS
330
47
102
}
330
47
100
AcDbProxyObject
 90
      499
 91
      503
 93
      161
310
90A3122203D2031272D30224000000000000284000
  0
ACAD_PROXY_OBJECT
  5
65
102
{ACAD_REACTORS
330
47
102
}
330
47
100
AcDbProxyObject
 90
      499
 91
      503
 93
      257
310
90E312D312F3222203D2031272D30220000000000003E0FC000000000000284000
  0
ACAD_PROXY_OBJECT
  5
66
102
{ACAD_REACTORS
330
47
102
}
330
47
100
AcDbProxyObject
 90
      499
 91
      503
 93
      225
310
90A3322203D2031272D302200000000000002100000000000000284000
  0
ACAD_PROXY_OBJECT
  5
67
102
{ACAD_REACTORS
330
47
102
}
330
47
100
AcDbProxyObject
 90
      499
 91
      503
 93
      225
310
90A3622203D2031272D302200000000000006100000000000000284000
  0
ACAD_PROXY_OBJECT
  5
68
102
{ACAD_REACTORS
330
47
102
}
330
47
100
AcDbProxyObject
 90
      499
 91
      503
 93
      249
310
90D31272D3022203D2031272D30220000000000000A100000000000000284000
  0
ACAD_PROXY_OBJECT
  5
2F
102
{ACAD_REACTORS
330
2A
102
}
330
2A
100
AcDbProxyObject
 90
      499
 91
      501
 93
      436
310
42CC9915DA5C99599C985B595049028333333333333E33F0000000000000F90107901411070040501600405405064090741402480A0340
1001
ACAD
1000
AcDbSavedByObjectVersion
1070
     0
  0
ACAD_PROXY_OBJECT
  5
32
102
{ACAD_REACTORS
330
2A
102
}
330
2A
100
AcDbProxyObject
 90
      499
 91
      501
 93
      388
310
4150985CDA58D07406404333333333333E33F0000000000000F90107A41107004050150841D405064090741402480A0350
1001
ACAD
1000
AcDbSavedByObjectVersion
1070
     0
  0
ACAD_PROXY_OBJECT
  5
36
102
{ACAD_REACTORS
330
2A
102
}
330
2A
100
AcDbProxyObject
 90
      499
 91
      501
 93
      428
310
42109C9A59DA1D195B90C409028333333333333E33F0000000000000F9010790141107004050150841D405064090741402480A029950
1001
ACAD
1000
AcDbSavedByObjectVersion
1070
     0
  0
ACAD_PROXY_OBJECT
  5
3A
102
{ACAD_REACTORS
330
2A
102
}
330
2A
100
AcDbProxyObject
 90
      499
 91
      501
 93
      452
310
42D0DBDB1BDC90DA185B99D95104090240C333333333333E33F0000000000000F90108901411070040501508421405064090741402480A0350
1001
ACAD
1000
AcDbSavedByObjectVersion
1070
     0
  0
ACAD_PROXY_OBJECT
  5
34
102
{ACAD_REACTORS
330
2A
102
}
330
2A
100
AcDbProxyObject
 90
      499
 91
      501
 93
      500
310
4290DBDB98D95C1D1D585B10940D028333333333333E33F0000000000000F90107902409070040501000000000018199010841D405064090740C02480A0340
1001
ACAD
1000
AcDbSavedByObjectVersion
1070
     0
  0
ACAD_PROXY_OBJECT
  5
35
102
{ACAD_REACTORS
330
2A
102
}
330
2A
100
AcDbProxyObject
 90
      499
 91
      501
 93
      412
310
40D11A5B50B409028333333333333E33F0000000000000F9010790141107004050150841D405064090741402480A02677FFFFFD0
1001
ACAD
1000
AcDbSavedByObjectVersion
1070
     0
  0
ACAD_PROXY_OBJECT
  5
3D
102
{ACAD_REACTORS
330
2A
102
}
330
2A
100
AcDbProxyObject
 90
      499
 91
      501
 93
      452
310
43115919D950DBDB1BDC93D999916409028333333333333E33F0000000000000F9010790141107004050150841D405064090741402480A0350
1001
ACAD
1000
AcDbSavedByObjectVersion
1070
     0
  0
ACAD_PROXY_OBJECT
  5
39
102
{ACAD_REACTORS
330
2A
102
}
330
2A
100
AcDbProxyObject
 90
      499
 91
      501
 93
      444
310
42D19858D95C185D1D195C9B90F409028333333333333E33F0000000000000F9010790141107004050150841D405064090741402480A0350
1001
ACAD
1000
AcDbSavedByObjectVersion
1070
     0
  0
ACAD_PROXY_OBJECT
  5
2B
102
{ACAD_REACTORS
330
2A
102
}
330
2A
100
AcDbProxyObject
 90
      499
 91
      501
 93
      380
310
41119B185D240901404333333333333E33F0000000000000F9010740A907004050150841D405064090741402480A1B50
1001
ACAD
1000
AcDbSavedByObjectVersion
1070
     0
  0
ACAD_PROXY_OBJECT
  5
2C
102
{ACAD_REACTORS
330
2A
102
}
330
2A
100
AcDbProxyObject
 90
      499
 91
      501
 93
      468
310
43519B185D15DA5D1A115919D95CD0140901404333333333333E33F0000000000000F90107409019070040501600405405064090741402480A1B50
1001
ACAD
1000
AcDbSavedByObjectVersion
1070
     0
  0
ACAD_PROXY_OBJECT
  5
2D
102
{ACAD_REACTORS
330
2A
102
}
330
2A
100
AcDbProxyObject
 90
      499
 91
      501
 93
      404
310
41D1DBDD5C985D5910240902404333333333333E33F0000000000000F9010740A9070040501641D405064090741402480A1B50
1001
ACAD
1000
AcDbSavedByObjectVersion
1070
     0
  0
ACAD_PROXY_OBJECT
  5
2E
102
{ACAD_REACTORS
330
2A
102
}
330
2A
100
AcDbProxyObject
 90
      499
 91
      501
 93
      492
310
4411DBDD5C985D5915DA5D1A115919D95CD0340902404333333333333E33F0000000000000F90107409019070040501600405405064090741402480A1B50
1001
ACAD
1000
AcDbSavedByObjectVersion
1070
     0
  0
ACAD_PROXY_OBJECT
  5
31
102
{ACAD_REACTORS
330
2A
102
}
330
2A
100
AcDbProxyObject
 90
      499
 91
      501
 93
      476
310
41921A5919195B90640502408333333333333E33F0000000000000F901079024090700405020000000000001110200405405064090740C02480A0340
1001
ACAD
1000
AcDbSavedByObjectVersion
1070
     0
  0
ACAD_PROXY_OBJECT
  5
3B
102
{ACAD_REACTORS
330
2A
102
}
330
2A
100
AcDbProxyObject
 90
      499
 91
      501
 93
      428
310
42529A5D1D195C93D999914409028333333333333E33F0000000000000F9010790141107004050150A41D405064090741402480A0350
1001
ACAD
1000
AcDbSavedByObjectVersion
1070
     0
  0
ACAD_PROXY_OBJECT
  5
38
102
{ACAD_REACTORS
330
2A
102
}
330
2A
100
AcDbProxyObject
 90
      499
 91
      501
 93
      444
310
42D31A5B995C185D1D195C9B90E409028333333333333E33F0000000000000F9010790141107004050750841D405064090741402483A0350
1001
ACAD
1000
AcDbSavedByObjectVersion
1070
     0
  0
ACAD_PROXY_OBJECT
  5
3C
102
{ACAD_REACTORS
330
2A
102
}
330
2A
100
AcDbProxyObject
 90
      499
 91
      501
 93
      444
310
42D3DD995C9A185B99D3D999915409028333333333333E33F0000000000000F9010790141107004050150941D405064090741402480A0350
1001
ACAD
1000
AcDbSavedByObjectVersion
1070
     0
  0
ACAD_PROXY_OBJECT
  5
33
102
{ACAD_REACTORS
330
2A
102
}
330
2A
100
AcDbProxyObject
 90
      499
 91
      501
 93
      428
310
425499585B1A5CDD1A58D08409038333333333333E33F0000000000000F9010740A907004050150800405405064090740C02480A1B40
1001
ACAD
1000
AcDbSavedByObjectVersion
1070
     0
  0
ACAD_PROXY_OBJECT
  5
42
102
{ACAD_REACTORS
330
2A
102
}
330
2A
100
AcDbProxyObject
 90
      499
 91
      501
 93
      420
310
4194DA1859195911B40902404333333333333E33F0000000000000F9010740A41107004050150800405405064090840C02480A0B40
1001
ACAD
1000
AcDbSavedByObjectVersion
1070
     0
  0
ACAD_PROXY_OBJECT
  5
41
102
{ACAD_REACTORS
330
2A
102
}
330
2A
100
AcDbProxyObject
 90
      499
 91
      501
 93
      516
310
4454DA18591959081DDA5D1A08195919D95CD1A40902404333333333333E33F0000000000000F901074090142907004050250800405405064090740C02480A0B40
1001
ACAD
1000
AcDbSavedByObjectVersion
1070
     0
  0
ACAD_PROXY_OBJECT
  5
3E
102
{ACAD_REACTORS
330
2A
102
}
330
2A
100
AcDbProxyObject
 90
      499
 91
      501
 93
      532
310
4394DA1859195CC81BD98811DC985E5174090240C333333333333E33F0000000000000F901079024090741D01000000000000111010841D405064090740C02480A0340
1001
ACAD
1000
AcDbSavedByObjectVersion
1070
     0
  0
ACAD_PROXY_OBJECT
  5
3F
102
{ACAD_REACTORS
330
2A
102
}
330
2A
100
AcDbProxyObject
 90
      499
 91
      501
 93
      476
310
41D4DAD95D18DA1E51840502408333333333333E33F0000000000000F901079024090741D01000000000000111010B41D405064090741802480A0340
1001
ACAD
1000
AcDbSavedByObjectVersion
1070
     0
  0
ACAD_PROXY_OBJECT
  5
37
102
{ACAD_REACTORS
330
2A
102
}
330
2A
100
AcDbProxyObject
 90
      499
 91
      501
 93
      412
310
41D51A1A58DAD95B90D409028333333333333E33F0000000000000F9010790141107004050150C41D405064090741402480A0350
1001
ACAD
1000
AcDbSavedByObjectVersion
1070
     0
  0
ACAD_PROXY_OBJECT
  5
30
102
{ACAD_REACTORS
330
2A
102
}
330
2A
100
AcDbProxyObject
 90
      499
 91
      501
 93
      420
310
4255DA5C99599C985B595059028333333333333E33F0000000000000F90107901411070040501600405405064090740C02480A0340
1001
ACAD
1000
AcDbSavedByObjectVersion
1070
     0
  0
ACAD_PROXY_OBJECT
  5
40
102
{ACAD_REACTORS
330
2A
102
}
330
2A
100
AcDbProxyObject
 90
      499
 91
      501
 93
      404
310
41560B54985E51940902404000000000000E03F0000000000000F9010740501907004050150841D405064090740C02480A1B40
1001
ACAD
1000
AcDbSavedByObjectVersion
1070
     0
  0
XRECORD
  5
56B
102
{ACAD_REACTORS
330
561
102
}
330
561
100
AcDbXrecord
340
0
  0
XRECORD
  5
56A
102
{ACAD_REACTORS
330
561
102
}
330
561
100
AcDbXrecord
 90
        0
  0
XRECORD
  5
581
102
{ACAD_REACTORS
330
561
102
}
330
561
100
AcDbXrecord
1000
DSTYLE
1002
{
1070
   179
 70
     2
1070
   171
 70
     2
1070
   143
 40
25.4
1070
   274
 70
     2
1070
    41
 40
3.0
1070
   141
 40
0.09
1070
    43
 40
0.38
1070
   278
 70
    46
1070
    44
 40
1.5
1070
    42
 40
0.0625
1070
   147
 40
1.5
1070
   272
 70
     4
1070
    73
 70
     1
1070
   172
 70
     0
1070
    74
 70
     1
1070
   283
 70
     1
1070
   340
340
6E
1070
   140
 40
3.0
1070
   284
 70
     0
1070
    78
 70
     0
1002
}
  0
XRECORD
  5
56C
102
{ACAD_REACTORS
330
561
102
}
330
561
100
AcDbXrecord
  1
{0B3DB73C-EC07-4167-9641-7D930FBC91DD}
  0
XRECORD
  5
564
102
{ACAD_REACTORS
330
561
102
}
330
561
100
AcDbXrecord
  1

  0
XRECORD
  5
569
102
{ACAD_REACTORS
330
561
102
}
330
561
100
AcDbXrecord
 90
        4
  0
XRECORD
  5
566
102
{ACAD_REACTORS
330
561
102
}
330
561
100
AcDbXrecord
340
1A
  0
XRECORD
  5
568
102
{ACAD_REACTORS
330
561
102
}
330
561
100
AcDbXrecord
 90
    10269
  0
XRECORD
  5
567
102
{ACAD_REACTORS
330
561
102
}
330
561
100
AcDbXrecord
340
19
  0
XRECORD
  5
56E
102
{ACAD_REACTORS
330
561
102
}
330
561
100
AcDbXrecord
 40
0.0
  0
XRECORD
  5
571
102
{ACAD_REACTORS
330
561
102
}
330
561
100
AcDbXrecord
340
0
  0
XRECORD
  5
577
102
{ACAD_REACTORS
330
561
102
}
330
561
100
AcDbXrecord
 10
0.0
 20
0.0
 30
0.0
  0
XRECORD
  5
573
102
{ACAD_REACTORS
330
561
102
}
330
561
100
AcDbXrecord
 10
0.0
 20
0.0
 30
0.0
  0
XRECORD
  5
576
102
{ACAD_REACTORS
330
561
102
}
330
561
100
AcDbXrecord
 10
0.0
 20
0.0
 30
0.0
  0
XRECORD
  5
574
102
{ACAD_REACTORS
330
561
102
}
330
561
100
AcDbXrecord
 10
0.0
 20
0.0
 30
0.0
  0
XRECORD
  5
575
102
{ACAD_REACTORS
330
561
102
}
330
561
100
AcDbXrecord
 10
0.0
 20
0.0
 30
0.0
  0
XRECORD
  5
572
102
{ACAD_REACTORS
330
561
102
}
330
561
100
AcDbXrecord
 10
0.0
 20
0.0
 30
0.0
  0
XRECORD
  5
56F
102
{ACAD_REACTORS
330
561
102
}
330
561
100
AcDbXrecord
340
0
  0
XRECORD
  5
570
102
{ACAD_REACTORS
330
561
102
}
330
561
100
AcDbXrecord
 70
     0
  0
XRECORD
  5
565
102
{ACAD_REACTORS
330
561
102
}
330
561
100
AcDbXrecord
  1

  0
XRECORD
  5
562
102
{ACAD_REACTORS
330
561
102
}
330
561
100
AcDbXrecord
 90
        1
  0
XRECORD
  5
563
102
{ACAD_REACTORS
330
561
102
}
330
561
100
AcDbXrecord
 90
       70
  0
XRECORD
  5
57A
102
{ACAD_REACTORS
330
561
102
}
330
561
100
AcDbXrecord
340
0
  0
XRECORD
  5
580
102
{ACAD_REACTORS
330
561
102
}
330
561
100
AcDbXrecord
 10
0.0
 20
0.0
 30
0.0
  0
XRECORD
  5
57C
102
{ACAD_REACTORS
330
561
102
}
330
561
100
AcDbXrecord
 10
0.0
 20
0.0
 30
0.0
  0
XRECORD
  5
57F
102
{ACAD_REACTORS
330
561
102
}
330
561
100
AcDbXrecord
 10
0.0
 20
0.0
 30
0.0
  0
XRECORD
  5
57D
102
{ACAD_REACTORS
330
561
102
}
330
561
100
AcDbXrecord
 10
0.0
 20
0.0
 30
0.0
  0
XRECORD
  5
57E
102
{ACAD_REACTORS
330
561
102
}
330
561
100
AcDbXrecord
 10
0.0
 20
0.0
 30
0.0
  0
XRECORD
  5
57B
102
{ACAD_REACTORS
330
561
102
}
330
561
100
AcDbXrecord
 10
0.0
 20
0.0
 30
0.0
  0
XRECORD
  5
578
102
{ACAD_REACTORS
330
561
102
}
330
561
100
AcDbXrecord
340
0
  0
XRECORD
  5
579
102
{ACAD_REACTORS
330
561
102
}
330
561
100
AcDbXrecord
 70
     0
  0
XRECORD
  5
56D
102
{ACAD_REACTORS
330
561
102
}
330
561
100
AcDbXrecord
  1
{FAEB1C32-E019-11D5-929B-00C0DF256EC4}
  0
DICTIONARYVAR
  5
58B
102
{ACAD_REACTORS
330
582
102
}
330
582
100
DictionaryVariables
280
     0
  1
1:1
  0
DICTIONARYVAR
  5
584
102
{ACAD_REACTORS
330
582
102
}
330
582
100
DictionaryVariables
280
     0
  1
Standard
  0
DICTIONARYVAR
  5
583
102
{ACAD_REACTORS
330
582
102
}
330
582
100
DictionaryVariables
280
     0
  1
Standard
  0
DICTIONARYVAR
  5
587
102
{ACAD_REACTORS
330
582
102
}
330
582
100
DictionaryVariables
280
     0
  1
2
  0
DICTIONARYVAR
  5
588
102
{ACAD_REACTORS
330
582
102
}
330
582
100
DictionaryVariables
280
     0
  1
1
  0
DICTIONARYVAR
  5
58C
102
{ACAD_REACTORS
330
582
102
}
330
582
100
DictionaryVariables
280
     0
  1
1
  0
DICTIONARY
  5
58F
330
45
100
AcDbDictionary
280
     1
  3
ACAD_XREC_ROUNDTRIP
360
590
  0
DICTIONARY
  5
58D
330
44
100
AcDbDictionary
280
     1
  3
ACAD_XREC_ROUNDTRIP
360
58E
  0
DICTIONARY
  5
591
330
46
100
AcDbDictionary
280
     1
  3
ACAD_XREC_ROUNDTRIP
360
592
  0
XRECORD
  5
590
102
{ACAD_REACTORS
330
58F
102
}
330
58F
100
AcDbXrecord
102
MATERIAL
148
0.0
149
0.0
149
0.0
 93
        0
 94
      127
282
     0
 72
     1
 77
     1
171
     1
175
     1
179
     1
273
     0
  0
XRECORD
  5
58E
102
{ACAD_REACTORS
330
58D
102
}
330
58D
100
AcDbXrecord
102
MATERIAL
148
0.0
149
0.0
149
0.0
 93
        0
 94
      127
282
     0
 72
     1
 77
     1
171
     1
175
     1
179
     1
273
     0
  0
XRECORD
  5
592
102
{ACAD_REACTORS
330
591
102
}
330
591
100
AcDbXrecord
102
MATERIAL
148
0.0
149
0.0
149
0.0
 93
        0
 94
      127
282
     0
 72
     1
 77
     1
171
     1
175
     1
179
     1
273
     0
  0
ENDSEC
  0
EOF
