  0
SECTION
  2
HEADER
  9
$ACADVER
  1
AC1006
  9
$DWGCODEPAGE
  3
ansi_932
  9
$INSBASE
 10
0.0
 20
0.0
 30
0.0
  9
$EXTMIN
 10
11.90957684913761
 20
56.70454545454546
  9
$EXTMAX
 10
693.1081408022901
 20
1368.387126117236
  9
$LIMMIN
 10
0.0
 20
0.0
  9
$LIMMAX
 10
12.0
 20
9.0
  9
$ORTHOMODE
 70
     0
  9
$REGENMODE
 70
     1
  9
$FILLMODE
 70
     1
  9
$QTEXTMODE
 70
     0
  9
$MIRRTEXT
 70
     1
  9
$DRAGMODE
 70
     2
  9
$LTSCALE
 40
1.0
  9
$OSMODE
 70
    37
  9
$ATTMODE
 70
     1
  9
$TEXTSIZE
 40
0.2
  9
$TRACEWID
 40
0.05
  9
$TEXTSTYLE
  7
STANDARD
  9
$CLAYER
  8
0
  9
$CELTYPE
  6
BYLAYER
  9
$CECOLOR
 62
   256
  9
$DIMSCALE
 40
1.0
  9
$DIMASZ
 40
3.0
  9
$DIMEXO
 40
0.0625
  9
$DIMDLI
 40
0.38
  9
$DIMRND
 40
0.0
  9
$DIMDLE
 40
0.0
  9
$DIMEXE
 40
1.5
  9
$DIMTP
 40
0.0
  9
$DIMTM
 40
0.0
  9
$DIMTXT
 40
3.0
  9
$DIMCEN
 40
0.09
  9
$DIMTSZ
 40
0.0
  9
$DIMTOL
 70
     0
  9
$DIMLIM
 70
     0
  9
$DIMTIH
 70
     1
  9
$DIMTOH
 70
     1
  9
$DIMSE1
 70
     0
  9
$DIMSE2
 70
     0
  9
$DIMTAD
 70
     1
  9
$DIMZIN
 70
     0
  9
$DIMBLK
  1

  9
$DIMASO
 70
     1
  9
$DIMSHO
 70
     1
  9
$DIMPOST
  1

  9
$DIMAPOST
  1

  9
$DIMALT
 70
     0
  9
$DIMALTD
 70
     2
  9
$DIMALTF
 40
25.4
  9
$DIMLFAC
 40
1.0
  9
$DIMTOFL
 70
     0
  9
$DIMTVP
 40
0.0
  9
$DIMTIX
 70
     0
  9
$DIMSOXD
 70
     0
  9
$DIMSAH
 70
     0
  9
$DIMBLK1
  1

  9
$DIMBLK2
  1

  9
$LUNITS
 70
     2
  9
$LUPREC
 70
     4
  9
$SKETCHINC
 40
0.1
  9
$FILLETRAD
 40
0.5
  9
$AUNITS
 70
     0
  9
$AUPREC
 70
     0
  9
$MENU
  1
.
  9
$ELEVATION
 40
0.0
  9
$THICKNESS
 40
0.0
  9
$LIMCHECK
 70
     0
  9
$CHAMFERA
 40
0.0
  9
$CHAMFERB
 40
0.0
  9
$SKPOLY
 70
     0
  9
$TDCREATE
 40
2458900.658586655
  9
$TDUPDATE
 40
2458900.658587419
  9
$TDINDWG
 40
0.0000000116
  9
$TDUSRTIMER
 40
0.0000000116
  9
$USRTIMER
 70
     1
  9
$ANGBASE
 50
0.0
  9
$ANGDIR
 70
     0
  9
$PDMODE
 70
     0
  9
$PDSIZE
 40
0.0
  9
$PLINEWID
 40
0.0
  9
$COORDS
 70
     1
  9
$SPLFRAME
 70
     0
  9
$SPLINETYPE
 70
     6
  9
$SPLINESEGS
 70
     8
  9
$ATTDIA
 70
     0
  9
$ATTREQ
 70
     1
  9
$HANDLING
 70
     1
  9
$HANDSEED
  5
564
  9
$SURFTAB1
 70
     6
  9
$SURFTAB2
 70
     6
  9
$SURFTYPE
 70
     6
  9
$SURFU
 70
     6
  9
$SURFV
 70
     6
  9
$UCSNAME
  2

  9
$UCSORG
 10
0.0
 20
0.0
 30
0.0
  9
$UCSXDIR
 10
1.0
 20
0.0
 30
0.0
  9
$UCSYDIR
 10
0.0
 20
1.0
 30
0.0
  9
$USERI1
 70
     0
  9
$USERI2
 70
     0
  9
$USERI3
 70
     0
  9
$USERI4
 70
     0
  9
$USERI5
 70
     0
  9
$USERR1
 40
0.0
  9
$USERR2
 40
0.0
  9
$USERR3
 40
0.0
  9
$USERR4
 40
0.0
  9
$USERR5
 40
0.0
  9
$WORLDVIEW
 70
     1
  0
ENDSEC
  0
SECTION
  2
TABLES
  0
TABLE
  2
VPORT
 70
     1
  0
VPORT
  2
*ACTIVE
 70
     0
 10
0.0
 20
0.0
 11
1.0
 21
1.0
 12
352.5088588257138
 22
712.545835785891
 13
0.0
 23
0.0
 14
0.5
 24
0.5
 15
0.5
 25
0.5
 16
0.0
 26
0.0
 36
1.0
 17
0.0
 27
0.0
 37
0.0
 40
1311.682580662691
 41
1.6
 42
50.0
 43
0.0
 44
0.0
 50
0.0
 51
0.0
 71
     0
 72
   100
 73
     1
 74
     3
 75
     0
 76
     0
 77
     0
 78
     0
  0
ENDTAB
  0
TABLE
  2
LTYPE
 70
     2
  0
LTYPE
  2
CONTINUOUS
 70
     0
  3
Solid line
 72
    65
 73
     0
 40
0.0
  0
LTYPE
  2
CENTER
 70
     0
  3

 72
    65
 73
     0
 40
0.0
  0
ENDTAB
  0
TABLE
  2
LAYER
 70
     1
  0
LAYER
  2
0
 70
     0
 62
     7
  6
CONTINUOUS
  0
ENDTAB
  0
TABLE
  2
STYLE
 70
     2
  0
STYLE
  2
STANDARD
 70
     0
 40
0.0
 41
1.0
 50
0.0
 71
     0
 42
0.2
  3
txt
  4

  0
STYLE
  2
ＭＳ_ゴシック
 70
     0
 40
0.0
 41
1.0
 50
0.0
 71
     0
 42
0.2
  3
ＭＳ ゴシック.shx
  4

  0
ENDTAB
  0
TABLE
  2
VIEW
 70
     0
  0
ENDTAB
  0
TABLE
  2
UCS
 70
     0
  0
ENDTAB
  0
ENDSEC
  0
SECTION
  2
BLOCKS
  0
ENDSEC
  0
SECTION
  2
ENTITIES
  0
POLYLINE
  5
6F
  8
0
  6
CONTINUOUS
 62
     7
 66
     1
 10
0.0
 20
0.0
 30
0.0
 70
     1
  0
VERTEX
  5
54D
  8
0
  6
CONTINUOUS
 62
     7
 10
30.00000000000014
 20
630.0000000000001
 30
0.0
  0
VERTEX
  5
54E
  8
0
  6
CONTINUOUS
 62
     7
 10
70.00000000000017
 20
630.0000000000001
 30
0.0
  0
VERTEX
  5
54F
  8
0
  6
CONTINUOUS
 62
     7
 10
70.00000000000017
 20
670.0000000000001
 30
0.0
  0
VERTEX
  5
550
  8
0
  6
CONTINUOUS
 62
     7
 10
30.00000000000014
 20
670.0000000000001
 30
0.0
  0
SEQEND
  5
55F
  8
0
  6
CONTINUOUS
 62
     7
  0
POLYLINE
  5
70
  8
0
  6
CONTINUOUS
 62
     7
 66
     1
 10
0.0
 20
0.0
 30
0.0
 70
     1
  0
VERTEX
  5
551
  8
0
  6
CONTINUOUS
 62
     7
 10
30.00000000000014
 20
530.0
 30
0.0
  0
VERTEX
  5
552
  8
0
  6
CONTINUOUS
 62
     7
 10
70.00000000000017
 20
530.0
 30
0.0
  0
VERTEX
  5
553
  8
0
  6
CONTINUOUS
 62
     7
 10
70.00000000000017
 20
570.0
 30
0.0
  0
VERTEX
  5
554
  8
0
  6
CONTINUOUS
 62
     7
 10
30.00000000000014
 20
570.0
 30
0.0
  0
SEQEND
  5
560
  8
0
  6
CONTINUOUS
 62
     7
  0
LINE
  5
71
  8
0
  6
CONTINUOUS
 62
     9
 10
107.4266699686856
 20
1132.865935645781
 30
0.0
 11
107.3888022143578
 21
1130.675269336616
 31
0.0
  0
LINE
  5
72
  8
0
  6
CONTINUOUS
 62
     9
 10
323.5880627402425
 20
1132.865935645781
 30
0.0
 11
323.5933726229341
 21
1130.675269336616
 31
0.0
  0
LINE
  5
73
  8
0
  6
CONTINUOUS
 62
     7
 10
309.3914820172994
 20
1128.171092846
 30
0.0
 11
309.4091918385611
 21
1127.156497864525
 31
0.0
  0
LINE
  5
74
  8
0
  6
CONTINUOUS
 62
     7
 10
399.8239508914377
 20
1142.746777039144
 30
0.0
 11
399.2215538675646
 21
1142.640558190746
 31
0.0
  0
LINE
  5
75
  8
0
  6
CONTINUOUS
 62
     7
 10
314.2341441476548
 20
1127.654984837963
 30
0.0
 11
309.9860018126733
 21
1126.905922726484
 31
0.0
  0
LINE
  5
76
  8
0
  6
CONTINUOUS
 62
     7
 10
310.1769024770044
 20
1131.509583664225
 30
0.0
 11
323.5532566330398
 21
1133.868195805231
 31
0.0
  0
LINE
  5
77
  8
0
  6
CONTINUOUS
 62
     7
 10
400.091482017548
 20
1144.163949994848
 30
0.0
 11
400.0718107466889
 21
1143.036983643113
 31
0.0
  0
LINE
  5
78
  8
0
  6
CONTINUOUS
 62
     7
 10
323.5959487301199
 20
1129.612460316379
 30
0.0
 11
323.6896958045502
 21
1129.322253712405
 31
0.0
  0
LINE
  5
79
  8
0
  6
CONTINUOUS
 62
     7
 10
323.5532566330398
 20
1133.868195805231
 30
0.0
 11
397.9959825285039
 21
1146.994456896894
 31
0.0
  0
LINE
  5
7A
  8
0
  6
CONTINUOUS
 62
     7
 10
399.2215538675646
 20
1142.640558190746
 30
0.0
 11
398.1724566730722
 21
1142.455574049989
 31
0.0
  0
POLYLINE
  5
7B
  8
0
  6
CONTINUOUS
 62
     7
 66
     1
 10
0.0
 20
0.0
 30
0.0
  0
VERTEX
  5
555
  8
0
  6
CONTINUOUS
 62
     7
 10
588.7231383548179
 20
1274.873660791689
 30
0.0
  0
VERTEX
  5
556
  8
0
  6
CONTINUOUS
 62
     7
 10
587.7129282065656
 20
1275.178212480199
 30
0.0
  0
VERTEX
  5
557
  8
0
  6
CONTINUOUS
 62
     7
 10
587.0325541087628
 20
1275.995603375411
 30
0.0
  0
VERTEX
  5
558
  8
0
  6
CONTINUOUS
 62
     7
 10
586.9034795722288
 20
1276.969211364239
 30
0.0
  0
SEQEND
  5
561
  8
0
  6
CONTINUOUS
 62
     7
  0
ARC
  5
7C
  8
0
  6
CONTINUOUS
 62
     7
 10
270.1482282414132
 20
1123.436021783261
 30
0.0
 40
54.26544734308867
 50
10.00730897227417
 51
10.37462150917242
  0
ARC
  5
7D
  8
0
  6
CONTINUOUS
 62
     7
 10
324.9210170575608
 20
1133.463633527958
 30
0.0
 40
1.417686476773719
 50
175.9973944796503
 51
190.3746215091169
  0
ARC
  5
7E
  8
0
  6
CONTINUOUS
 62
     7
 10
323.1779604239168
 20
1133.585599574569
 30
0.0
 40
0.3296320816513011
 50
355.9973944796786
 51
24.70977614282384
  0
ARC
  5
7F
  8
0
  6
CONTINUOUS
 62
     7
 10
323.5711809254348
 20
1133.766542091635
 30
0.0
 40
0.1032218859822461
 50
99.99999999926251
 51
204.7097761427674
  0
ARC
  5
80
  8
0
  6
CONTINUOUS
 62
     7
 10
399.1264915131553
 20
1146.17836952092
 30
0.0
 40
1.000000000000034
 50
358.9999999991051
 51
99.9999999991046
  0
LINE
  5
81
  8
0
  6
CONTINUOUS
 62
     7
 10
682.4201697929524
 20
1351.411937259758
 30
0.0
 11
693.0900202520381
 21
1276.969211364239
 31
0.0
  0
LINE
  5
82
  8
0
  6
CONTINUOUS
 62
     7
 10
399.8239508914377
 20
1142.746777039144
 30
0.0
 11
400.071810746689
 21
1143.036983643112
 31
0.0
  0
LINE
  5
83
  8
0
  6
CONTINUOUS
 62
     7
 10
323.6896958045502
 20
1129.322253712405
 30
0.0
 11
314.2341441476548
 21
1127.654984837963
 31
0.0
  0
ARC
  5
84
  8
0
  6
CONTINUOUS
 62
     7
 10
691.2700509658754
 20
1276.711750601878
 30
0.0
 40
1.838089836414712
 50
270.0096788220201
 51
8.051881720899756
  0
LINE
  5
85
  8
0
  6
CONTINUOUS
 62
     7
 10
586.9034795722288
 20
1276.969211364239
 30
0.0
 11
597.5733300313146
 21
1351.411937259757
 31
0.0
  0
LINE
  5
86
  8
0
  6
CONTINUOUS
 62
     9
 10
91.00622359340882
 20
1130.507323504788
 30
0.0
 11
91.00622359340035
 21
1131.509583664225
 31
0.0
  0
LINE
  5
87
  8
0
  6
CONTINUOUS
 62
     7
 10
613.9937764066017
 20
1365.649297040501
 30
0.0
 11
665.9997234176653
 21
1365.649297040501
 31
0.0
  0
ARC
  5
88
  8
0
  6
CONTINUOUS
 62
     9
 10
92.64248078432158
 20
1178.646950392904
 30
0.0
 40
47.16575749109514
 50
268.0119168782741
 51
285.9684136046211
  0
LINE
  5
89
  8
0
  6
CONTINUOUS
 62
     9
 10
105.6181289075538
 20
1133.30115416557
 30
0.0
 11
106.436509227703
 21
1133.868195805231
 31
0.0
  0
LINE
  5
8A
  8
0
  6
CONTINUOUS
 62
     7
 10
309.4091918385611
 20
1127.156497864525
 30
0.0
 11
309.7612406004036
 21
1126.866291260547
 31
0.0
  0
LINE
  5
8B
  8
0
  6
CONTINUOUS
 62
     9
 10
323.5933726229341
 20
1130.675269336616
 30
0.0
 11
323.59594873012
 21
1129.612460316392
 31
0.0
  0
ARC
  5
8C
  8
0
  6
CONTINUOUS
 62
     7
 10
106.421311180431
 20
1132.864056763179
 30
0.0
 40
1.004687015402476
 50
0.1070781090902528
 51
6.192405265296146
  0
ARC
  5
8D
  8
0
  6
CONTINUOUS
 62
     7
 10
106.4536510082358
 20
1132.867565655479
 30
0.0
 40
0.9721573860221476
 50
6.192405265291015
 51
29.25500961218901
  0
ARC
  5
8E
  8
0
  6
CONTINUOUS
 62
     7
 10
106.3985670424047
 20
1132.836710825341
 30
0.0
 40
1.035294251913075
 50
29.25500961222152
 51
50.89361935166286
  0
ARC
  5
8F
  8
0
  6
CONTINUOUS
 62
     7
 10
106.3985670424055
 20
1132.836710825341
 30
0.0
 40
1.035294251911792
 50
50.89361935165137
 51
72.53222909112206
  0
ARC
  5
90
  8
0
  6
CONTINUOUS
 62
     7
 10
106.4175187901447
 20
1132.896936194514
 30
0.0
 40
0.9721573860220625
 50
72.53222909110816
 51
88.87987383809917
  0
LINE
  5
91
  8
0
  6
CONTINUOUS
 62
     9
 10
22.61769796137558
 20
1130.675269336616
 30
0.0
 11
22.57983020704772
 21
1132.865935645782
 31
0.0
  0
LINE
  5
92
  8
0
  6
CONTINUOUS
 62
     7
 10
398.1324217000692
 20
1142.448514804077
 30
0.0
 11
323.6896958045502
 21
1129.322253712404
 31
0.0
  0
LINE
  5
93
  8
0
  6
CONTINUOUS
 62
     7
 10
398.1724566730722
 20
1142.455574049988
 30
0.0
 11
398.1324217000692
 21
1142.448514804077
 31
0.0
  0
LINE
  5
94
  8
0
  6
CONTINUOUS
 62
     9
 10
107.4266699686856
 20
1132.865935645781
 30
0.0
 11
106.3799566042097
 21
1132.223464241765
 31
0.0
  0
ARC
  5
95
  8
0
  6
CONTINUOUS
 62
     9
 10
92.89421280309284
 20
1183.313575852679
 30
0.0
 40
52.83999233804894
 50
267.9523682972078
 51
284.786532926579
  0
LINE
  5
96
  8
0
  6
CONTINUOUS
 62
     7
 10
397.9959825285038
 20
1146.994456896894
 30
0.0
 11
398.9528433355038
 21
1147.163177273935
 31
0.0
  0
LINE
  5
97
  8
0
  6
CONTINUOUS
 62
     7
 10
691.2703614694491
 20
1274.873660791689
 30
0.0
 11
588.7231383548178
 21
1274.873660791689
 31
0.0
  0
ARC
  5
98
  8
0
  6
CONTINUOUS
 62
     7
 10
310.3505506546559
 20
1130.52477591121
 30
0.0
 40
0.9999999999999358
 50
99.99999999911535
 51
180.9999999991136
  0
LINE
  5
99
  8
0
  6
CONTINUOUS
 62
     7
 10
309.3914820172994
 20
1128.171092846
 30
0.0
 11
309.3507029594993
 21
1130.507323504788
 31
0.0
  0
LINE
  5
9A
  8
0
  6
CONTINUOUS
 62
     9
 10
91.00622359339854
 20
1128.171092846
 30
0.0
 11
91.00622359339854
 21
1130.507323504788
 31
0.0
  0
LINE
  5
9B
  8
0
  6
CONTINUOUS
 62
     9
 10
39.00027658233479
 20
1131.509583664225
 30
0.0
 11
39.00027658233479
 21
1130.507323504788
 31
0.0
  0
LINE
  5
9C
  8
0
  6
CONTINUOUS
 62
     9
 10
116.2768616451823
 20
1147.163177273935
 30
0.0
 11
13.72963853059864
 21
1147.163177273935
 31
0.0
  0
LINE
  5
9D
  8
0
  6
CONTINUOUS
 62
     9
 10
22.61769796137558
 20
1130.675269336616
 30
0.0
 11
22.6360696278895
 21
1129.612460316389
 31
0.0
  0
LINE
  5
9E
  8
0
  6
CONTINUOUS
 62
     7
 10
22.6360696278895
 20
1129.612460316388
 30
0.0
 11
22.9331178501842
 21
1129.322253712405
 31
0.0
  0
LINE
  5
9F
  8
0
  6
CONTINUOUS
 62
     9
 10
106.436509227703
 20
1133.868195805231
 30
0.0
 11
117.1063596867811
 21
1146.994456896894
 31
0.0
  0
LINE
  5
A0
  8
0
  6
CONTINUOUS
 62
     7
 10
118.0586526734438
 20
1143.801530428288
 30
0.0
 11
118.0965204277716
 21
1145.992196737453
 31
0.0
  0
LINE
  5
A1
  8
0
  6
CONTINUOUS
 62
     9
 10
23.56999094802925
 20
1133.868195805233
 30
0.0
 11
24.60495098571058
 21
1133.203961058028
 31
0.0
  0
ARC
  5
A2
  8
0
  6
CONTINUOUS
 62
     9
 10
37.63813667241184
 20
1181.935014087071
 30
0.0
 40
50.44382478027933
 50
255.0266170726934
 51
271.5473520501495
  0
ARC
  5
A3
  8
0
  6
CONTINUOUS
 62
     7
 10
37.23267285151633
 20
1183.964940380328
 30
0.0
 40
53.48683225768008
 50
255.1613278380291
 51
271.8938245725107
  0
POLYLINE
  5
A4
  8
0
  6
CONTINUOUS
 62
     7
 10
0.0
 20
0.0
 30
0.0
 66
     1
 70
     8
  0
VERTEX
  5
A5
  8
0
  6
CONTINUOUS
 62
     7
 10
23.53478799106917
 20
1132.261853670625
 30
0.0
 70
    32
  0
VERTEX
  5
A6
  8
0
  6
CONTINUOUS
 62
     7
 10
22.57983859695761
 20
1132.865925940666
 30
0.0
 70
    32
  0
VERTEX
  5
A7
  8
0
  6
CONTINUOUS
 62
     7
 10
22.57983020704779
 20
1132.865935645783
 30
0.0
 70
    32
  0
SEQEND
  5
A8
  8
0
  6
CONTINUOUS
 62
     7
  0
LINE
  5
A9
  8
0
  6
CONTINUOUS
 62
     9
 10
13.72963853059045
 20
1147.163177273935
 30
0.0
 11
13.72963853059031
 21
1147.17836952092
 31
0.0
  0
LINE
  5
AA
  8
0
  6
CONTINUOUS
 62
     9
 10
116.2768616451823
 20
1147.17836952092
 30
0.0
 11
116.2768616451823
 21
1147.163177273935
 31
0.0
  0
LINE
  5
AB
  8
0
  6
CONTINUOUS
 62
     7
 10
107.3760599103932
 20
1129.514440952965
 30
0.0
 11
117.9842089635423
 21
1142.564795754557
 31
0.0
  0
LINE
  5
AC
  8
0
  6
CONTINUOUS
 62
     7
 10
116.2768616451823
 20
1147.17836952092
 30
0.0
 11
13.72963853059024
 21
1147.17836952092
 31
0.0
  0
LINE
  5
AD
  8
0
  6
CONTINUOUS
 62
     9
 10
587.2200933268452
 20
1146.098465006625
 30
0.0
 11
587.1934665452467
 21
1146.09536999365
 31
0.0
  0
LINE
  5
AE
  8
0
  6
CONTINUOUS
 62
     7
 10
586.9589438120097
 20
1142.814261678868
 30
0.0
 11
586.9590371449067
 21
1142.808879976502
 31
0.0
  0
LINE
  5
AF
  8
0
  6
CONTINUOUS
 62
     7
 10
597.5733300313146
 20
1351.411937259758
 30
0.0
 11
597.8338838661246
 21
1352.80335523131
 31
0.0
  0
ARC
  5
B0
  8
0
  6
CONTINUOUS
 62
     7
 10
613.9944658776519
 20
1349.061076504731
 30
0.0
 40
16.58822055009824
 50
90.00238143574154
 51
166.9619216656985
  0
LINE
  5
B1
  8
0
  6
CONTINUOUS
 62
     7
 10
39.00027658233479
 20
1127.156497864525
 30
0.0
 11
39.0002765824354
 21
1126.866291260547
 31
0.0
  0
LINE
  5
B2
  8
0
  6
CONTINUOUS
 62
     9
 10
117.1105471101945
 20
1146.993605172572
 30
0.0
 11
116.2768616451824
 21
1147.163177273935
 31
0.0
  0
LINE
  5
B3
  8
0
  6
CONTINUOUS
 62
     9
 10
118.0965204277716
 20
1145.992196737453
 30
0.0
 11
107.4266699686856
 21
1132.865935645781
 31
0.0
  0
LINE
  5
B4
  8
0
  6
CONTINUOUS
 62
     7
 10
11.94637827704947
 20
1143.886525757197
 30
0.0
 11
11.94784750228962
 21
1143.801530428288
 31
0.0
  0
LINE
  5
B5
  8
0
  6
CONTINUOUS
 62
     9
 10
118.0586526734438
 20
1143.801530428288
 30
0.0
 11
118.0402810068856
 21
1142.738721405502
 31
0.0
  0
LINE
  5
B6
  8
0
  6
CONTINUOUS
 62
     9
 10
91.00622359339854
 20
1128.171092846
 30
0.0
 11
91.00622359339854
 21
1127.156497864525
 31
0.0
  0
LINE
  5
B7
  8
0
  6
CONTINUOUS
 62
     7
 10
39.50028658230753
 20
1126.861733586452
 30
0.0
 11
91.01122359339912
 21
1126.861733586452
 31
0.0
  0
LINE
  5
B8
  8
0
  6
CONTINUOUS
 62
     9
 10
12.90014048894439
 20
1146.994456896904
 30
0.0
 11
23.56999094802917
 21
1133.868195805233
 31
0.0
  0
LINE
  5
B9
  8
0
  6
CONTINUOUS
 62
     9
 10
39.00027658233479
 20
1131.509583664225
 30
0.0
 11
91.00622359339856
 21
1131.509583664225
 31
0.0
  0
LINE
  5
BA
  8
0
  6
CONTINUOUS
 62
     9
 10
39.00027658233479
 20
1130.507323504788
 30
0.0
 11
39.00027658233479
 21
1128.171092846
 31
0.0
  0
LINE
  5
BB
  8
0
  6
CONTINUOUS
 62
     7
 10
117.9761158900852
 20
1142.554839552433
 30
0.0
 11
117.9969147196744
 21
1142.725964083999
 31
0.0
  0
ARC
  5
BC
  8
0
  6
CONTINUOUS
 62
     7
 10
37.30412916793912
 20
1174.896822716891
 30
0.0
 40
48.06047095098589
 50
253.3932990955552
 51
272.0224993929714
  0
LINE
  5
BD
  8
0
  6
CONTINUOUS
 62
     7
 10
23.56842523116281
 20
1128.840994579817
 30
0.0
 11
22.93311785018449
 21
1129.322253712405
 31
0.0
  0
LINE
  5
BE
  8
0
  6
CONTINUOUS
 62
     9
 10
91.00622359339854
 20
1130.507323504788
 30
0.0
 11
39.00027658233478
 21
1130.507323504788
 31
0.0
  0
LINE
  5
BF
  8
0
  6
CONTINUOUS
 62
     9
 10
11.94784750228967
 20
1143.801530428288
 30
0.0
 11
11.96621916884355
 21
1142.738721405751
 31
0.0
  0
LINE
  5
C0
  8
0
  6
CONTINUOUS
 62
     7
 10
118.0969238646284
 20
1146.03177658324
 30
0.0
 11
118.0965204277714
 21
1145.992196737444
 31
0.0
  0
ARC
  5
C1
  8
0
  6
CONTINUOUS
 62
     7
 10
23.58898138558785
 20
1132.896936194515
 30
0.0
 40
0.9721573860227197
 50
91.12012616192182
 51
107.4677709104438
  0
ARC
  5
C2
  8
0
  6
CONTINUOUS
 62
     7
 10
23.60793313333237
 20
1132.836710825338
 30
0.0
 40
1.035294251917779
 50
107.4677709105577
 51
129.1063806499074
  0
ARC
  5
C3
  8
0
  6
CONTINUOUS
 62
     7
 10
23.6079331333307
 20
1132.836710825341
 30
0.0
 40
1.035294251914788
 50
129.1063806499163
 51
150.7449903893084
  0
ARC
  5
C4
  8
0
  6
CONTINUOUS
 62
     7
 10
23.55284916749678
 20
1132.867565655479
 30
0.0
 40
0.9721573860216466
 50
150.7449903893353
 51
173.8075947362382
  0
ARC
  5
C5
  8
0
  6
CONTINUOUS
 62
     7
 10
23.58518899530265
 20
1132.864056763179
 30
0.0
 40
1.004687015402837
 50
173.8075947362231
 51
179.8929218909295
  0
LINE
  5
C6
  8
0
  6
CONTINUOUS
 62
     7
 10
107.0733823255489
 20
1129.322253712405
 30
0.0
 11
106.1847888088573
 21
1128.714716241383
 31
0.0
  0
ARC
  5
C7
  8
0
  6
CONTINUOUS
 62
     7
 10
92.67121963563879
 20
1176.438499164175
 30
0.0
 40
49.60016137333839
 50
268.0763132874818
 51
285.810114533585
  0
LINE
  5
C8
  8
0
  6
CONTINUOUS
 62
     9
 10
22.57983020704773
 20
1132.865935645781
 30
0.0
 11
11.90997974796198
 21
1145.992196737443
 31
0.0
  0
ARC
  5
C9
  8
0
  6
CONTINUOUS
 62
     7
 10
12.91913092650282
 20
1146.023197286186
 30
0.0
 40
0.9721573860225663
 50
91.12012616189132
 51
107.467770909215
  0
ARC
  5
CA
  8
0
  6
CONTINUOUS
 62
     7
 10
12.93808267424473
 20
1145.96297191701
 30
0.0
 40
1.035294251915657
 50
107.4677709092838
 51
129.106380648674
  0
ARC
  5
CB
  8
0
  6
CONTINUOUS
 62
     7
 10
12.93808267424268
 20
1145.962971917013
 30
0.0
 40
1.035294251912496
 50
129.1063806486693
 51
150.7449903881325
  0
ARC
  5
CC
  8
0
  6
CONTINUOUS
 62
     7
 10
12.88299870841153
 20
1145.99382674715
 30
0.0
 40
0.9721573860219722
 50
150.7449903881161
 51
173.8075947350091
  0
ARC
  5
CD
  8
0
  6
CONTINUOUS
 62
     7
 10
12.91533853621624
 20
1145.99031785485
 30
0.0
 40
1.004687015402108
 50
173.8075947350214
 51
179.8929218914165
  0
LINE
  5
CE
  8
0
  6
CONTINUOUS
 62
     9
 10
39.00027658233479
 20
1128.171092846
 30
0.0
 11
39.00027658233479
 21
1127.156497864525
 31
0.0
  0
LINE
  5
CF
  8
0
  6
CONTINUOUS
 62
     7
 10
13.72963853059867
 20
1147.163177273935
 30
0.0
 11
12.89289493810348
 21
1147.008651074139
 31
0.0
  0
LINE
  5
D0
  8
0
  6
CONTINUOUS
 62
     7
 10
11.90997974796199
 20
1145.992196737444
 30
0.0
 11
11.90957684913761
 21
1146.031776904883
 31
0.0
  0
LINE
  5
D1
  8
0
  6
CONTINUOUS
 62
     9
 10
372.2760962047538
 20
218.0235939116297
 30
0.0
 11
375.091190053879
 21
218.0235939117308
 31
0.0
  0
ARC
  5
D2
  8
0
  6
CONTINUOUS
 62
     7
 10
665.9997046062605
 20
1349.06145709871
 30
0.0
 40
16.5878399418018
 50
8.146171400718515
 51
89.99993502384217
  0
LINE
  5
D3
  8
0
  6
CONTINUOUS
 62
     9
 10
107.3888022143578
 20
1130.675269336616
 30
0.0
 11
107.3704305478439
 21
1129.612460316392
 31
0.0
  0
LINE
  5
D4
  8
0
  6
CONTINUOUS
 62
     7
 10
107.3704305478437
 20
1129.612460316379
 30
0.0
 11
107.0733823255489
 21
1129.322253712405
 31
0.0
  0
ARC
  5
D5
  8
0
  6
CONTINUOUS
 62
     7
 10
117.0911616395181
 20
1145.990317854844
 30
0.0
 40
1.004687015400704
 50
0.1070781094745712
 51
6.192405276631348
  0
ARC
  5
D6
  8
0
  6
CONTINUOUS
 62
     7
 10
117.1235014673122
 20
1145.993826747149
 30
0.0
 40
0.9721573860305276
 50
6.192405276636829
 51
29.2550096233605
  0
ARC
  5
D7
  8
0
  6
CONTINUOUS
 62
     7
 10
117.0684175015048
 20
1145.962971917011
 30
0.0
 40
1.035294251900957
 50
29.25500962335812
 51
50.89361936308701
  0
ARC
  5
D8
  8
0
  6
CONTINUOUS
 62
     7
 10
117.0684175015049
 20
1145.962971917011
 30
0.0
 40
1.035294251901025
 50
50.89361936309955
 51
72.53222910283007
  0
ARC
  5
D9
  8
0
  6
CONTINUOUS
 62
     7
 10
117.087369249226
 20
1146.02319728617
 30
0.0
 40
0.972157386029941
 50
72.53222910279901
 51
88.87987383829638
  0
LINE
  5
DA
  8
0
  6
CONTINUOUS
 62
     7
 10
118.0402810068855
 20
1142.738721405502
 30
0.0
 11
118.0409645104062
 21
1142.808891758675
 31
0.0
  0
LINE
  5
DB
  8
0
  6
CONTINUOUS
 62
     7
 10
11.90997974796199
 20
1145.992196737444
 30
0.0
 11
11.94637827704949
 21
1143.886525757198
 31
0.0
  0
LINE
  5
DC
  8
0
  6
CONTINUOUS
 62
     7
 10
12.10035927503583
 20
1142.468754879406
 30
0.0
 11
22.70701184580473
 21
1129.420241080039
 31
0.0
  0
LINE
  5
DD
  8
0
  6
CONTINUOUS
 62
     7
 10
11.9645788913692
 20
1142.807955043411
 30
0.0
 11
11.96621916884368
 21
1142.738721405752
 31
0.0
  0
LINE
  5
DE
  8
0
  6
CONTINUOUS
 62
     9
 10
375.0911900538796
 20
218.0235939117305
 30
0.0
 11
375.1363195801408
 21
218.0235939117322
 31
0.0
  0
LINE
  5
DF
  8
0
  6
CONTINUOUS
 62
     9
 10
370.8259078118245
 20
218.0235939115778
 30
0.0
 11
372.2760962047537
 21
218.0235939116297
 31
0.0
  0
LINE
  5
E0
  8
0
  6
CONTINUOUS
 62
     7
 10
309.9860018126733
 20
1126.905922726483
 30
0.0
 11
309.7612406004036
 21
1126.866291260547
 31
0.0
  0
CIRCLE
  5
E1
  8
0
  6
CONTINUOUS
 62
     7
 10
65.00325008786662
 20
1120.775407025479
 30
0.0
 40
5.000000000000004
  0
ARC
  5
E2
  8
0
  6
CONTINUOUS
 62
     7
 10
659.7467498825096
 20
255.1754070260039
 30
0.0
 40
14.99999999999993
 50
177.0151102022626
 51
180.0000000000004
  0
ARC
  5
E3
  8
0
  6
CONTINUOUS
 62
     7
 10
645.2664220004139
 20
246.664354426479
 30
0.0
 40
0.4999999999998768
 50
182.9841607580077
 51
268.0000001524357
  0
ARC
  5
E4
  8
0
  6
CONTINUOUS
 62
     7
 10
659.7467498825091
 20
282.3214070259943
 30
0.0
 40
14.99999999999992
 50
177.0151102022635
 51
182.9848654964152
  0
ARC
  5
E5
  8
0
  6
CONTINUOUS
 62
     7
 10
647.3467498825131
 20
238.035220140582
 30
0.0
 40
0.3000000000000224
 50
33.16378194959691
 51
88.00000000205563
  0
ARC
  5
E6
  8
0
  6
CONTINUOUS
 62
     7
 10
645.2664220004139
 20
240.418459625481
 30
0.0
 40
0.5000000000001829
 50
91.99999999866515
 51
177.0151102023811
  0
LINE
  5
E7
  8
0
  6
CONTINUOUS
 62
     7
 10
647.6467498825114
 20
253.5472201405764
 30
0.0
 11
647.6467498825114
 21
252.9255939112768
 31
0.0
  0
LINE
  5
E8
  8
0
  6
CONTINUOUS
 62
     7
 10
645.2489722520725
 20
250.0426590128757
 30
0.0
 11
647.3572197315133
 21
249.9690373886837
 31
0.0
  0
LINE
  5
E9
  8
0
  6
CONTINUOUS
 62
     7
 10
645.2489722520722
 20
253.9206590128744
 30
0.0
 11
647.3572197315132
 21
253.8470373886827
 31
0.0
  0
LINE
  5
EA
  8
0
  6
CONTINUOUS
 62
     7
 10
647.3572197315132
 20
244.8697766631798
 30
0.0
 11
645.2489722520755
 21
244.7961550389897
 31
0.0
  0
ARC
  5
EB
  8
0
  6
CONTINUOUS
 62
     7
 10
645.2664220004139
 20
238.9083544264818
 30
0.0
 40
0.4999999999998768
 50
182.9841607580077
 51
268.0000001524355
  0
ARC
  5
EC
  8
0
  6
CONTINUOUS
 62
     7
 10
645.2664220004139
 20
242.7863544264803
 30
0.0
 40
0.4999999999998768
 50
182.9841607580077
 51
268.0000001524357
  0
ARC
  5
ED
  8
0
  6
CONTINUOUS
 62
     7
 10
647.3467498825131
 20
241.291593911281
 30
0.0
 40
0.2999999999997449
 50
272.0000000145524
 51
0.0
  0
ARC
  5
EE
  8
0
  6
CONTINUOUS
 62
     7
 10
647.3467498825129
 20
253.5472201405764
 30
0.0
 40
0.3000000000000224
 50
0.0000000000129035
 51
88.00000000205563
  0
LINE
  5
EF
  8
0
  6
CONTINUOUS
 62
     7
 10
647.6467498825114
 20
245.7912201405794
 30
0.0
 11
647.6467498825114
 21
245.1695939112795
 31
0.0
  0
ARC
  5
F0
  8
0
  6
CONTINUOUS
 62
     7
 10
659.7467498825093
 20
262.9314070260011
 30
0.0
 40
14.99999999999993
 50
177.0151102022626
 51
182.9848654964144
  0
ARC
  5
F1
  8
0
  6
CONTINUOUS
 62
     7
 10
659.7467498825084
 20
239.6634070259815
 30
0.0
 40
14.99999999999637
 50
177.0151102022626
 51
182.9848654964151
  0
LINE
  5
F2
  8
0
  6
CONTINUOUS
 62
     7
 10
645.2489722520722
 20
242.2866590128785
 30
0.0
 11
647.3572197315132
 21
242.2130373886868
 31
0.0
  0
ARC
  5
F3
  8
0
  6
CONTINUOUS
 62
     7
 10
647.3467498825129
 20
245.7912201405794
 30
0.0
 40
0.2999999999998005
 50
359.9999999999925
 51
88.00000000205415
  0
ARC
  5
F4
  8
0
  6
CONTINUOUS
 62
     7
 10
659.7467498825091
 20
278.4434070259956
 30
0.0
 40
14.99999999999993
 50
177.0151102022626
 51
182.9848654964144
  0
ARC
  5
F5
  8
0
  6
CONTINUOUS
 62
     7
 10
645.2664220004139
 20
248.1744596254784
 30
0.0
 40
0.4999999999997392
 50
91.99999999866694
 51
177.015110202395
  0
ARC
  5
F6
  8
0
  6
CONTINUOUS
 62
     7
 10
659.7467498825089
 20
290.0774070259915
 30
0.0
 40
14.99999999999993
 50
177.0151102022626
 51
182.9848654964144
  0
ARC
  5
F7
  8
0
  6
CONTINUOUS
 62
     7
 10
659.7467498825089
 20
293.9554070259902
 30
0.0
 40
14.99999999999992
 50
177.0151102022635
 51
182.9848654964152
  0
ARC
  5
F8
  8
0
  6
CONTINUOUS
 62
     7
 10
659.7467498825089
 20
297.8334070259887
 30
0.0
 40
14.99999999999992
 50
177.0151102022635
 51
182.9848654964152
  0
ARC
  5
F9
  8
0
  6
CONTINUOUS
 62
     7
 10
659.7467498825087
 20
309.4674070259846
 30
0.0
 40
14.99999999999992
 50
177.0151102022635
 51
182.9848654964152
  0
ARC
  5
FA
  8
0
  6
CONTINUOUS
 62
     7
 10
645.2664220004136
 20
254.4203544264763
 30
0.0
 40
0.4999999999998768
 50
182.9841607580077
 51
268.0000001524349
  0
ARC
  5
FB
  8
0
  6
CONTINUOUS
 62
     7
 10
659.7467498825093
 20
274.565407025997
 30
0.0
 40
15.00000000000015
 50
177.0151102022627
 51
182.9848654964144
  0
ARC
  5
FC
  8
0
  6
CONTINUOUS
 62
     7
 10
647.3467498825129
 20
245.1695939112795
 30
0.0
 40
0.299999999999967
 50
272.0000000145524
 51
0.0
  0
ARC
  5
FD
  8
0
  6
CONTINUOUS
 62
     7
 10
659.7467498825093
 20
270.6874070259986
 30
0.0
 40
15.00000000000015
 50
177.0151102022633
 51
182.9848654964151
  0
ARC
  5
FE
  8
0
  6
CONTINUOUS
 62
     7
 10
645.2664220004139
 20
250.5423544264778
 30
0.0
 40
0.4999999999998768
 50
182.9841607580077
 51
268.0000001524252
  0
ARC
  5
FF
  8
0
  6
CONTINUOUS
 62
     7
 10
659.7467498825089
 20
301.7114070259872
 30
0.0
 40
15.00000000000015
 50
177.0151102022633
 51
182.984865496415
  0
ARC
  5
100
  8
0
  6
CONTINUOUS
 62
     7
 10
659.7467498825084
 20
317.2234070259816
 30
0.0
 40
14.99999999999971
 50
177.0151102022625
 51
182.9848654964143
  0
ARC
  5
101
  8
0
  6
CONTINUOUS
 62
     7
 10
659.7467498825084
 20
321.1014070259801
 30
0.0
 40
14.99999999999993
 50
177.0151102022626
 51
182.9848654964143
  0
ARC
  5
102
  8
0
  6
CONTINUOUS
 62
     7
 10
659.7467498825084
 20
328.8574070259775
 30
0.0
 40
15.00000000000015
 50
177.0151102022627
 51
182.9848654964145
  0
LINE
  5
103
  8
0
  6
CONTINUOUS
 62
     7
 10
645.2489722520727
 20
246.164659012877
 30
0.0
 11
647.3572197315132
 21
246.0910373886853
 31
0.0
  0
LINE
  5
104
  8
0
  6
CONTINUOUS
 62
     7
 10
647.3572197315132
 20
240.991776663181
 30
0.0
 11
645.2489722520758
 21
240.918155038991
 31
0.0
  0
ARC
  5
105
  8
0
  6
CONTINUOUS
 62
     7
 10
659.7467498825084
 20
332.735407025976
 30
0.0
 40
15.00000000000012
 50
180.0000000000009
 51
182.9848654964147
  0
ARC
  5
106
  8
0
  6
CONTINUOUS
 62
     7
 10
647.3467498825129
 20
249.0475939112784
 30
0.0
 40
0.299999999999967
 50
272.0000000145715
 51
0.0
  0
ARC
  5
107
  8
0
  6
CONTINUOUS
 62
     7
 10
659.7467498825084
 20
251.2974070259775
 30
0.0
 40
14.99999999999637
 50
177.0151102022626
 51
182.984865496415
  0
ARC
  5
108
  8
0
  6
CONTINUOUS
 62
     7
 10
647.3467498825129
 20
249.6692201405779
 30
0.0
 40
0.3000000000000224
 50
359.999999999994
 51
88.00000000205563
  0
ARC
  5
109
  8
0
  6
CONTINUOUS
 62
     7
 10
659.7467498825087
 20
313.3454070259831
 30
0.0
 40
14.99999999999992
 50
177.0151102022635
 51
182.9848654964152
  0
ARC
  5
10A
  8
0
  6
CONTINUOUS
 62
     7
 10
645.2664220004148
 20
258.2983544265025
 30
0.0
 40
0.5000000000000986
 50
182.9841607580064
 51
268.0000001528224
  0
LINE
  5
10B
  8
0
  6
CONTINUOUS
 62
     7
 10
647.6467498825114
 20
241.9132201405807
 30
0.0
 11
647.6467498825114
 21
241.2915939112808
 31
0.0
  0
ARC
  5
10C
  8
0
  6
CONTINUOUS
 62
     7
 10
659.7467498825089
 20
305.5894070259861
 30
0.0
 40
15.00000000000015
 50
177.0151102022633
 51
182.9848654964152
  0
ARC
  5
10D
  8
0
  6
CONTINUOUS
 62
     7
 10
659.7467498825084
 20
324.9794070259791
 30
0.0
 40
14.99999999999992
 50
177.0151102022635
 51
182.9848654964152
  0
LINE
  5
10E
  8
0
  6
CONTINUOUS
 62
     7
 10
647.3572197315129
 20
252.6257766631768
 30
0.0
 11
645.2489722520755
 21
252.552155038987
 31
0.0
  0
ARC
  5
10F
  8
0
  6
CONTINUOUS
 62
     7
 10
645.2664220004145
 20
262.1763544265012
 30
0.0
 40
0.4999999999998652
 50
182.9841607579822
 51
268.0000001527981
  0
ARC
  5
110
  8
0
  6
CONTINUOUS
 62
     7
 10
645.2664220004145
 20
266.0543544264999
 30
0.0
 40
0.4999999999998768
 50
182.9841607580077
 51
268.0000001528221
  0
ARC
  5
111
  8
0
  6
CONTINUOUS
 62
     7
 10
659.7467498825093
 20
259.0534070260027
 30
0.0
 40
14.99999999999992
 50
177.0151102022635
 51
182.9848654964152
  0
ARC
  5
112
  8
0
  6
CONTINUOUS
 62
     7
 10
645.2664220004145
 20
269.9323544264984
 30
0.0
 40
0.4999999999998768
 50
182.9841607580077
 51
268.0000001528221
  0
ARC
  5
113
  8
0
  6
CONTINUOUS
 62
     7
 10
659.7467498825091
 20
286.199407025993
 30
0.0
 40
14.99999999999993
 50
177.0151102022626
 51
182.9848654964145
  0
ARC
  5
114
  8
0
  6
CONTINUOUS
 62
     7
 10
645.2664220004145
 20
273.8103544264969
 30
0.0
 40
0.5000000000000986
 50
182.9841607580064
 51
268.0000001528206
  0
ARC
  5
115
  8
0
  6
CONTINUOUS
 62
     7
 10
645.2664220004139
 20
252.052459625477
 30
0.0
 40
0.4999999999997392
 50
91.99999999866694
 51
177.0151102024057
  0
ARC
  5
116
  8
0
  6
CONTINUOUS
 62
     7
 10
647.3467498825131
 20
241.9132201405807
 30
0.0
 40
0.2999999999998005
 50
0.0000000000110845
 51
88.00000000205415
  0
ARC
  5
117
  8
0
  6
CONTINUOUS
 62
     7
 10
659.7467498825093
 20
266.8094070259996
 30
0.0
 40
14.99999999999993
 50
177.0151102022626
 51
182.9848654964145
  0
ARC
  5
118
  8
0
  6
CONTINUOUS
 62
     7
 10
645.2664220004145
 20
277.6883544264958
 30
0.0
 40
0.5000000000000986
 50
182.9841607580064
 51
268.0000001528209
  0
ARC
  5
119
  8
0
  6
CONTINUOUS
 62
     7
 10
645.2664220004143
 20
281.5663544264943
 30
0.0
 40
0.5000000000000986
 50
182.9841607580064
 51
268.0000001528209
  0
ARC
  5
11A
  8
0
  6
CONTINUOUS
 62
     7
 10
659.7467498825084
 20
255.175407025976
 30
0.0
 40
14.99999999999635
 50
180.0000000000009
 51
182.9848654964152
  0
ARC
  5
11B
  8
0
  6
CONTINUOUS
 62
     7
 10
659.7467498825084
 20
247.419407025979
 30
0.0
 40
14.99999999999637
 50
177.0151102022626
 51
182.984865496415
  0
ARC
  5
11C
  8
0
  6
CONTINUOUS
 62
     7
 10
645.2664220004139
 20
244.29645962548
 30
0.0
 40
0.4999999999997468
 50
91.99999999869236
 51
177.0151102024091
  0
LINE
  5
11D
  8
0
  6
CONTINUOUS
 62
     7
 10
647.3572197315132
 20
248.7477766631783
 30
0.0
 11
645.2489722520756
 21
248.6741550389882
 31
0.0
  0
ARC
  5
11E
  8
0
  6
CONTINUOUS
 62
     7
 10
659.7467498825084
 20
243.5414070259805
 30
0.0
 40
14.99999999999637
 50
177.0151102022626
 51
182.984865496415
  0
LINE
  5
11F
  8
0
  6
CONTINUOUS
 62
     7
 10
645.2489722520727
 20
238.4086590128798
 30
0.0
 11
647.3572197315135
 21
238.3350373886881
 31
0.0
  0
ARC
  5
120
  8
0
  6
CONTINUOUS
 62
     7
 10
647.3467498825129
 20
252.9255939112769
 30
0.0
 40
0.299999999999967
 50
272.0000000145905
 51
0.0
  0
LINE
  5
121
  8
0
  6
CONTINUOUS
 62
     7
 10
647.6467498825114
 20
249.6692201405779
 30
0.0
 11
647.6467498825114
 21
249.047593911278
 31
0.0
  0
LINE
  5
122
  8
0
  6
CONTINUOUS
 62
     7
 10
647.3572197315102
 20
299.161776663188
 30
0.0
 11
645.2489722520725
 21
299.0881550389982
 31
0.0
  0
ARC
  5
123
  8
0
  6
CONTINUOUS
 62
     7
 10
645.2664220004148
 20
255.9304596255036
 30
0.0
 40
0.4999999999998447
 50
91.99999999828462
 51
177.015110202399
  0
ARC
  5
124
  8
0
  6
CONTINUOUS
 62
     7
 10
645.2664220004141
 20
290.832459625491
 30
0.0
 40
0.5000000000000667
 50
91.99999999828373
 51
177.0151102023981
  0
ARC
  5
125
  8
0
  6
CONTINUOUS
 62
     7
 10
645.2664220004139
 20
314.1004596254826
 30
0.0
 40
0.5000000000000667
 50
91.99999999828373
 51
177.0151102023981
  0
LINE
  5
126
  8
0
  6
CONTINUOUS
 62
     7
 10
647.3572197315109
 20
260.3817766632019
 30
0.0
 11
645.2489722520731
 21
260.3081550390119
 31
0.0
  0
LINE
  5
127
  8
0
  6
CONTINUOUS
 62
     7
 10
645.2489722520693
 20
300.4566590128854
 30
0.0
 11
647.3572197315107
 21
300.3830373886937
 31
0.0
  0
LINE
  5
128
  8
0
  6
CONTINUOUS
 62
     7
 10
645.2489722520693
 20
296.5786590128869
 30
0.0
 11
647.3572197315104
 21
296.5050373886949
 31
0.0
  0
LINE
  5
129
  8
0
  6
CONTINUOUS
 62
     7
 10
647.3572197315102
 20
303.0397766631867
 30
0.0
 11
645.2489722520725
 21
302.9661550389966
 31
0.0
  0
LINE
  5
12A
  8
0
  6
CONTINUOUS
 62
     7
 10
645.2489722520693
 20
304.3346590128841
 30
0.0
 11
647.3572197315104
 21
304.2610373886924
 31
0.0
  0
LINE
  5
12B
  8
0
  6
CONTINUOUS
 62
     7
 10
647.3572197315102
 20
306.9177766631854
 30
0.0
 11
645.2489722520725
 21
306.8441550389954
 31
0.0
  0
ARC
  5
12C
  8
0
  6
CONTINUOUS
 62
     7
 10
645.2664220004141
 20
302.4664596254867
 30
0.0
 40
0.5000000000002887
 50
91.99999999828283
 51
177.0151102023974
  0
ARC
  5
12D
  8
0
  6
CONTINUOUS
 62
     7
 10
645.2664220004139
 20
321.8564596254798
 30
0.0
 40
0.5000000000002964
 50
91.99999999830828
 51
177.0151102024211
  0
LINE
  5
12E
  8
0
  6
CONTINUOUS
 62
     7
 10
647.3572197315109
 20
256.5037766632034
 30
0.0
 11
645.2489722520731
 21
256.4301550390134
 31
0.0
  0
LINE
  5
12F
  8
0
  6
CONTINUOUS
 62
     7
 10
645.248972252069
 20
308.2126590128826
 30
0.0
 11
647.3572197315104
 21
308.1390373886909
 31
0.0
  0
ARC
  5
130
  8
0
  6
CONTINUOUS
 62
     7
 10
645.2664220004141
 20
300.9563544264875
 30
0.0
 40
0.5000000000000986
 50
182.9841607580064
 51
268.0000001528207
  0
ARC
  5
131
  8
0
  6
CONTINUOUS
 62
     7
 10
645.2664220004139
 20
312.5903544264834
 30
0.0
 40
0.4999999999998768
 50
182.9841607580077
 51
268.0000001528221
  0
ARC
  5
132
  8
0
  6
CONTINUOUS
 62
     7
 10
645.2664220004139
 20
316.4683544264819
 30
0.0
 40
0.4999999999998768
 50
182.9841607580077
 51
268.0000001528221
  0
ARC
  5
133
  8
0
  6
CONTINUOUS
 62
     7
 10
645.2664220004139
 20
325.7344596254785
 30
0.0
 40
0.5000000000000745
 50
91.99999999830915
 51
177.015110202425
  0
LINE
  5
134
  8
0
  6
CONTINUOUS
 62
     7
 10
645.2489722520697
 20
269.4326590128966
 30
0.0
 11
647.3572197315111
 21
269.3590373887048
 31
0.0
  0
ARC
  5
135
  8
0
  6
CONTINUOUS
 62
     7
 10
645.2664220004143
 20
289.3223544264916
 30
0.0
 40
0.5000000000000986
 50
182.9841607580064
 51
268.0000001528224
  0
ARC
  5
136
  8
0
  6
CONTINUOUS
 62
     7
 10
645.2664220004139
 20
329.6124596254772
 30
0.0
 40
0.4999999999998526
 50
91.99999999831003
 51
177.0151102024261
  0
LINE
  5
137
  8
0
  6
CONTINUOUS
 62
     7
 10
645.2489722520697
 20
273.3106590128951
 30
0.0
 11
647.3572197315109
 21
273.2370373887034
 31
0.0
  0
LINE
  5
138
  8
0
  6
CONTINUOUS
 62
     7
 10
647.3572197315104
 20
283.6497766631936
 30
0.0
 11
645.2489722520727
 21
283.5761550390038
 31
0.0
  0
LINE
  5
139
  8
0
  6
CONTINUOUS
 62
     7
 10
647.3572197315102
 20
310.7957766631839
 30
0.0
 11
645.2489722520725
 21
310.7221550389938
 31
0.0
  0
LINE
  5
13A
  8
0
  6
CONTINUOUS
 62
     7
 10
645.248972252069
 20
312.0906590128814
 30
0.0
 11
647.3572197315104
 21
312.0170373886893
 31
0.0
  0
LINE
  5
13B
  8
0
  6
CONTINUOUS
 62
     7
 10
647.3572197315104
 20
295.2837766631895
 30
0.0
 11
645.2489722520727
 21
295.2101550389995
 31
0.0
  0
LINE
  5
13C
  8
0
  6
CONTINUOUS
 62
     7
 10
647.3572197315102
 20
314.6737766631824
 30
0.0
 11
645.2489722520725
 21
314.6001550389926
 31
0.0
  0
LINE
  5
13D
  8
0
  6
CONTINUOUS
 62
     7
 10
645.2489722520695
 20
281.0666590128925
 30
0.0
 11
647.3572197315109
 21
280.9930373887005
 31
0.0
  0
ARC
  5
13E
  8
0
  6
CONTINUOUS
 62
     7
 10
645.2664220004145
 20
271.4424596254981
 30
0.0
 40
0.4999999999998447
 50
91.99999999828462
 51
177.0151102024006
  0
ARC
  5
13F
  8
0
  6
CONTINUOUS
 62
     7
 10
645.2664220004141
 20
293.2003544264903
 30
0.0
 40
0.4999999999998768
 50
182.9841607580077
 51
268.0000001528219
  0
LINE
  5
140
  8
0
  6
CONTINUOUS
 62
     7
 10
647.3572197315109
 20
264.2597766632005
 30
0.0
 11
645.2489722520731
 21
264.1861550390107
 31
0.0
  0
LINE
  5
141
  8
0
  6
CONTINUOUS
 62
     7
 10
645.2489722520695
 20
277.1886590128938
 30
0.0
 11
647.3572197315109
 21
277.1150373887018
 31
0.0
  0
ARC
  5
142
  8
0
  6
CONTINUOUS
 62
     7
 10
645.2664220004145
 20
267.5644596254991
 30
0.0
 40
0.5000000000000667
 50
91.99999999828373
 51
177.0151102023981
  0
ARC
  5
143
  8
0
  6
CONTINUOUS
 62
     7
 10
645.2664220004141
 20
304.834354426486
 30
0.0
 40
0.5000000000000986
 50
182.9841607580064
 51
268.0000001528209
  0
LINE
  5
144
  8
0
  6
CONTINUOUS
 62
     7
 10
645.2489722520695
 20
284.944659012891
 30
0.0
 11
647.3572197315107
 21
284.8710373886993
 31
0.0
  0
LINE
  5
145
  8
0
  6
CONTINUOUS
 62
     7
 10
647.3572197315104
 20
287.5277766631923
 30
0.0
 11
645.2489722520728
 21
287.4541550390022
 31
0.0
  0
ARC
  5
146
  8
0
  6
CONTINUOUS
 62
     7
 10
645.2664220004143
 20
285.4443544264929
 30
0.0
 40
0.5000000000000986
 50
182.9841607580064
 51
268.0000001528209
  0
ARC
  5
147
  8
0
  6
CONTINUOUS
 62
     7
 10
645.2664220004139
 20
324.2243544264789
 30
0.0
 40
0.500000000000087
 50
182.9841607579812
 51
268.0000001527957
  0
ARC
  5
148
  8
0
  6
CONTINUOUS
 62
     7
 10
645.2664220004145
 20
259.8084596255021
 30
0.0
 40
0.4999999999998447
 50
91.99999999828462
 51
177.015110202399
  0
ARC
  5
149
  8
0
  6
CONTINUOUS
 62
     7
 10
645.2664220004141
 20
294.7104596254897
 30
0.0
 40
0.4999999999998447
 50
91.99999999828462
 51
177.015110202399
  0
ARC
  5
14A
  8
0
  6
CONTINUOUS
 62
     7
 10
645.2664220004139
 20
310.2224596254841
 30
0.0
 40
0.5000000000000667
 50
91.99999999828373
 51
177.0151102023996
  0
LINE
  5
14B
  8
0
  6
CONTINUOUS
 62
     7
 10
645.2489722520693
 20
288.8226590128895
 30
0.0
 11
647.3572197315107
 21
288.7490373886978
 31
0.0
  0
ARC
  5
14C
  8
0
  6
CONTINUOUS
 62
     7
 10
645.2664220004139
 20
320.3463544264804
 30
0.0
 40
0.4999999999998768
 50
182.9841607580077
 51
268.0000001528221
  0
ARC
  5
14D
  8
0
  6
CONTINUOUS
 62
     7
 10
645.2664220004145
 20
275.3204596254965
 30
0.0
 40
0.5000000000000667
 50
91.99999999828373
 51
177.0151102023982
  0
ARC
  5
14E
  8
0
  6
CONTINUOUS
 62
     7
 10
645.2664220004143
 20
279.198459625495
 30
0.0
 40
0.5000000000000667
 50
91.99999999828373
 51
177.0151102023981
  0
ARC
  5
14F
  8
0
  6
CONTINUOUS
 62
     7
 10
645.2664220004141
 20
298.5884596254882
 30
0.0
 40
0.5000000000000667
 50
91.99999999828373
 51
177.0151102023997
  0
LINE
  5
150
  8
0
  6
CONTINUOUS
 62
     7
 10
647.3572197315104
 20
279.7717766631948
 30
0.0
 11
645.2489722520727
 21
279.6981550390051
 31
0.0
  0
LINE
  5
151
  8
0
  6
CONTINUOUS
 62
     7
 10
645.2489722520697
 20
261.6766590128994
 30
0.0
 11
647.3572197315111
 21
261.6030373887074
 31
0.0
  0
LINE
  5
152
  8
0
  6
CONTINUOUS
 62
     7
 10
647.3572197315104
 20
291.4057766631908
 30
0.0
 11
645.2489722520727
 21
291.3321550390007
 31
0.0
  0
LINE
  5
153
  8
0
  6
CONTINUOUS
 62
     7
 10
647.3572197315107
 20
268.1377766631994
 30
0.0
 11
645.248972252073
 21
268.0641550390093
 31
0.0
  0
LINE
  5
154
  8
0
  6
CONTINUOUS
 62
     7
 10
645.2489722520693
 20
292.7006590128882
 30
0.0
 11
647.3572197315107
 21
292.6270373886965
 31
0.0
  0
ARC
  5
155
  8
0
  6
CONTINUOUS
 62
     7
 10
645.2664220004139
 20
317.9784596254813
 30
0.0
 40
0.4999999999998447
 50
91.99999999828462
 51
177.0151102023975
  0
ARC
  5
156
  8
0
  6
CONTINUOUS
 62
     7
 10
645.2664220004141
 20
297.0783544264888
 30
0.0
 40
0.4999999999998768
 50
182.9841607580077
 51
268.0000001528221
  0
LINE
  5
157
  8
0
  6
CONTINUOUS
 62
     7
 10
645.2489722520697
 20
265.5546590128978
 30
0.0
 11
647.3572197315109
 21
265.4810373887062
 31
0.0
  0
ARC
  5
158
  8
0
  6
CONTINUOUS
 62
     7
 10
645.2664220004143
 20
286.9544596254922
 30
0.0
 40
0.5000000000002887
 50
91.99999999828283
 51
177.0151102023973
  0
LINE
  5
159
  8
0
  6
CONTINUOUS
 62
     7
 10
647.3572197315107
 20
272.0157766631979
 30
0.0
 11
645.2489722520729
 21
271.9421550390078
 31
0.0
  0
LINE
  5
15A
  8
0
  6
CONTINUOUS
 62
     7
 10
645.2489722520697
 20
257.7986590129007
 30
0.0
 11
647.3572197315111
 21
257.7250373887089
 31
0.0
  0
ARC
  5
15B
  8
0
  6
CONTINUOUS
 62
     7
 10
645.2664220004136
 20
331.9803544264763
 30
0.0
 40
0.5000000000000986
 50
182.9841607580064
 51
268.0000001528238
  0
ARC
  5
15C
  8
0
  6
CONTINUOUS
 62
     7
 10
645.2664220004143
 20
283.0764596254938
 30
0.0
 40
0.4999999999998447
 50
91.99999999828462
 51
177.0151102024006
  0
ARC
  5
15D
  8
0
  6
CONTINUOUS
 62
     7
 10
645.2664220004141
 20
306.3444596254856
 30
0.0
 40
0.4999999999998447
 50
91.99999999828462
 51
177.015110202399
  0
ARC
  5
15E
  8
0
  6
CONTINUOUS
 62
     7
 10
645.2664220004145
 20
263.6864596255006
 30
0.0
 40
0.5000000000000667
 50
91.99999999828373
 51
177.0151102023981
  0
LINE
  5
15F
  8
0
  6
CONTINUOUS
 62
     7
 10
647.3572197315107
 20
275.8937766631964
 30
0.0
 11
645.2489722520729
 21
275.8201550390063
 31
0.0
  0
ARC
  5
160
  8
0
  6
CONTINUOUS
 62
     7
 10
645.2664220004141
 20
308.7123544264845
 30
0.0
 40
0.5000000000000986
 50
182.9841607580064
 51
268.0000001528209
  0
ARC
  5
161
  8
0
  6
CONTINUOUS
 62
     7
 10
645.2664220004139
 20
328.1023544264779
 30
0.0
 40
0.5000000000000986
 50
182.9841607580064
 51
268.0000001528207
  0
LINE
  5
162
  8
0
  6
CONTINUOUS
 62
     7
 10
645.2489722520689
 20
323.7246590128771
 30
0.0
 11
647.3572197315101
 21
323.6510373886853
 31
0.0
  0
ARC
  5
163
  8
0
  6
CONTINUOUS
 62
     7
 10
647.3467498825138
 20
261.3032201406016
 30
0.0
 40
0.2999999999999527
 50
359.9999999999952
 51
88.00000000243705
  0
ARC
  5
164
  8
0
  6
CONTINUOUS
 62
     7
 10
647.3467498825138
 20
268.4375939112991
 30
0.0
 40
0.2999999999997449
 50
272.0000000141723
 51
0.0
  0
ARC
  5
165
  8
0
  6
CONTINUOUS
 62
     7
 10
647.3467498825131
 20
303.9612201405864
 30
0.0
 40
0.2999999999999527
 50
359.999999999995
 51
88.00000000243705
  0
LINE
  5
166
  8
0
  6
CONTINUOUS
 62
     7
 10
647.6467498825089
 20
296.2052201405891
 30
0.0
 11
647.6467498825089
 21
295.5835939112895
 31
0.0
  0
LINE
  5
167
  8
0
  6
CONTINUOUS
 62
     7
 10
645.2489722520689
 20
331.4806590128745
 30
0.0
 11
647.3572197315102
 21
331.4070373886825
 31
0.0
  0
ARC
  5
168
  8
0
  6
CONTINUOUS
 62
     7
 10
647.3467498825136
 20
283.9495939112935
 30
0.0
 40
0.299999999999967
 50
272.0000000141722
 51
0.0
  0
ARC
  5
169
  8
0
  6
CONTINUOUS
 62
     7
 10
647.3467498825136
 20
288.4492201405919
 30
0.0
 40
0.2999999999999449
 50
0.0000000000376872
 51
88.00000000247945
  0
ARC
  5
16A
  8
0
  6
CONTINUOUS
 62
     7
 10
647.3467498825133
 20
299.4615939112881
 30
0.0
 40
0.299999999999967
 50
272.0000000141726
 51
0.0
  0
ARC
  5
16B
  8
0
  6
CONTINUOUS
 62
     7
 10
647.3467498825131
 20
315.5952201405821
 30
0.0
 40
0.2999999999999449
 50
0.000000000040302
 51
88.00000000247945
  0
ARC
  5
16C
  8
0
  6
CONTINUOUS
 62
     7
 10
647.3467498825136
 20
272.3155939112975
 30
0.0
 40
0.299999999999967
 50
272.0000000141752
 51
0.0
  0
ARC
  5
16D
  8
0
  6
CONTINUOUS
 62
     7
 10
647.3467498825138
 20
257.4252201406031
 30
0.0
 40
0.2999999999999527
 50
359.9999999999948
 51
88.00000000243705
  0
ARC
  5
16E
  8
0
  6
CONTINUOUS
 62
     7
 10
647.3467498825136
 20
284.5712201405932
 30
0.0
 40
0.3000000000001668
 50
0.0000000000414389
 51
88.00000000248093
  0
LINE
  5
16F
  8
0
  6
CONTINUOUS
 62
     7
 10
645.2489722520689
 20
319.8466590128785
 30
0.0
 11
647.3572197315102
 21
319.7730373886868
 31
0.0
  0
ARC
  5
170
  8
0
  6
CONTINUOUS
 62
     7
 10
647.3467498825136
 20
287.8275939112922
 30
0.0
 40
0.299999999999967
 50
272.0000000141749
 51
0.0
  0
ARC
  5
171
  8
0
  6
CONTINUOUS
 62
     7
 10
647.3467498825129
 20
330.485593911277
 30
0.0
 40
0.299999999999967
 50
272.0000000141753
 51
0.0
  0
LINE
  5
172
  8
0
  6
CONTINUOUS
 62
     7
 10
647.6467498825093
 20
257.4252201406031
 30
0.0
 11
647.6467498825093
 21
256.8035939113032
 31
0.0
  0
LINE
  5
173
  8
0
  6
CONTINUOUS
 62
     7
 10
647.6467498825093
 20
261.3032201406016
 30
0.0
 11
647.6467498825093
 21
260.6815939113019
 31
0.0
  0
ARC
  5
174
  8
0
  6
CONTINUOUS
 62
     7
 10
647.3467498825131
 20
303.3395939112866
 30
0.0
 40
0.300000000000189
 50
272.0000000141749
 51
0.0
  0
LINE
  5
175
  8
0
  6
CONTINUOUS
 62
     7
 10
647.6467498825091
 20
265.1812201406001
 30
0.0
 11
647.6467498825091
 21
264.5595939113005
 31
0.0
  0
ARC
  5
176
  8
0
  6
CONTINUOUS
 62
     7
 10
647.3467498825131
 20
311.7172201405835
 30
0.0
 40
0.2999999999999449
 50
0.0000000000376872
 51
88.00000000247945
  0
ARC
  5
177
  8
0
  6
CONTINUOUS
 62
     7
 10
647.3467498825129
 20
326.607593911278
 30
0.0
 40
0.299999999999967
 50
272.0000000141748
 51
0.0
  0
LINE
  5
178
  8
0
  6
CONTINUOUS
 62
     7
 10
647.6467498825091
 20
269.0592201405986
 30
0.0
 11
647.6467498825091
 21
268.437593911299
 31
0.0
  0
LINE
  5
179
  8
0
  6
CONTINUOUS
 62
     7
 10
647.6467498825091
 20
272.9372201405975
 30
0.0
 11
647.6467498825091
 21
272.3155939112976
 31
0.0
  0
ARC
  5
17A
  8
0
  6
CONTINUOUS
 62
     7
 10
647.3467498825133
 20
295.5835939112892
 30
0.0
 40
0.299999999999967
 50
272.0000000141723
 51
0.0
  0
LINE
  5
17B
  8
0
  6
CONTINUOUS
 62
     7
 10
647.6467498825091
 20
280.6932201405945
 30
0.0
 11
647.6467498825091
 21
280.0715939112949
 31
0.0
  0
LINE
  5
17C
  8
0
  6
CONTINUOUS
 62
     7
 10
647.6467498825089
 20
300.0832201405876
 30
0.0
 11
647.6467498825089
 21
299.461593911288
 31
0.0
  0
LINE
  5
17D
  8
0
  6
CONTINUOUS
 62
     7
 10
647.6467498825086
 20
303.9612201405864
 30
0.0
 11
647.6467498825086
 21
303.3395939112864
 31
0.0
  0
ARC
  5
17E
  8
0
  6
CONTINUOUS
 62
     7
 10
647.3467498825136
 20
280.6932201405945
 30
0.0
 40
0.2999999999999449
 50
0.0000000000403588
 51
88.00000000247945
  0
LINE
  5
17F
  8
0
  6
CONTINUOUS
 62
     7
 10
647.6467498825091
 20
276.815220140596
 30
0.0
 11
647.6467498825091
 21
276.1935939112961
 31
0.0
  0
LINE
  5
180
  8
0
  6
CONTINUOUS
 62
     7
 10
647.6467498825086
 20
307.839220140585
 30
0.0
 11
647.6467498825086
 21
307.2175939112852
 31
0.0
  0
LINE
  5
181
  8
0
  6
CONTINUOUS
 62
     7
 10
647.6467498825086
 20
311.7172201405835
 30
0.0
 11
647.6467498825086
 21
311.0955939112839
 31
0.0
  0
ARC
  5
182
  8
0
  6
CONTINUOUS
 62
     7
 10
647.3467498825136
 20
280.071593911295
 30
0.0
 40
0.299999999999967
 50
272.0000000141723
 51
0.0
  0
ARC
  5
183
  8
0
  6
CONTINUOUS
 62
     7
 10
647.3467498825133
 20
296.2052201405891
 30
0.0
 40
0.2999999999999527
 50
359.9999999999976
 51
88.00000000243705
  0
ARC
  5
184
  8
0
  6
CONTINUOUS
 62
     7
 10
647.3467498825129
 20
323.3512201405795
 30
0.0
 40
0.2999999999999527
 50
359.999999999995
 51
88.00000000243705
  0
LINE
  5
185
  8
0
  6
CONTINUOUS
 62
     7
 10
647.6467498825089
 20
292.3272201405904
 30
0.0
 11
647.6467498825089
 21
291.7055939112905
 31
0.0
  0
ARC
  5
186
  8
0
  6
CONTINUOUS
 62
     7
 10
647.3467498825133
 20
291.7055939112907
 30
0.0
 40
0.299999999999967
 50
272.0000000141753
 51
0.0
  0
LINE
  5
187
  8
0
  6
CONTINUOUS
 62
     7
 10
647.3572197315101
 20
318.5517766631811
 30
0.0
 11
645.2489722520723
 21
318.4781550389914
 31
0.0
  0
ARC
  5
188
  8
0
  6
CONTINUOUS
 62
     7
 10
647.3467498825138
 20
264.5595939113006
 30
0.0
 40
0.299999999999967
 50
272.0000000141753
 51
0.0
  0
ARC
  5
189
  8
0
  6
CONTINUOUS
 62
     7
 10
647.3467498825133
 20
300.0832201405876
 30
0.0
 40
0.2999999999999527
 50
359.9999999999979
 51
88.00000000243705
  0
ARC
  5
18A
  8
0
  6
CONTINUOUS
 62
     7
 10
647.3467498825131
 20
307.2175939112851
 30
0.0
 40
0.300000000000189
 50
272.0000000141749
 51
0.0
  0
ARC
  5
18B
  8
0
  6
CONTINUOUS
 62
     7
 10
647.3467498825138
 20
269.0592201405986
 30
0.0
 40
0.3000000000003964
 50
0.0000000000009095
 51
88.00000000244006
  0
ARC
  5
18C
  8
0
  6
CONTINUOUS
 62
     7
 10
647.3467498825138
 20
265.1812201406001
 30
0.0
 40
0.2999999999999527
 50
359.9999999999948
 51
88.00000000243705
  0
ARC
  5
18D
  8
0
  6
CONTINUOUS
 62
     7
 10
647.3467498825138
 20
260.6815939113018
 30
0.0
 40
0.299999999999967
 50
272.0000000141749
 51
0.0
  0
ARC
  5
18E
  8
0
  6
CONTINUOUS
 62
     7
 10
647.3467498825136
 20
276.815220140596
 30
0.0
 40
0.2999999999999527
 50
359.999999999995
 51
88.00000000243705
  0
ARC
  5
18F
  8
0
  6
CONTINUOUS
 62
     7
 10
647.3467498825138
 20
256.8035939113032
 30
0.0
 40
0.300000000000189
 50
272.0000000141749
 51
0.0
  0
ARC
  5
190
  8
0
  6
CONTINUOUS
 62
     7
 10
647.3467498825133
 20
292.3272201405904
 30
0.0
 40
0.2999999999999527
 50
359.9999999999953
 51
88.00000000243705
  0
ARC
  5
191
  8
0
  6
CONTINUOUS
 62
     7
 10
647.3467498825131
 20
318.851593911281
 30
0.0
 40
0.299999999999967
 50
272.0000000141753
 51
0.0
  0
LINE
  5
192
  8
0
  6
CONTINUOUS
 62
     7
 10
647.3572197315101
 20
326.3077766631783
 30
0.0
 11
645.2489722520722
 21
326.2341550389883
 31
0.0
  0
ARC
  5
193
  8
0
  6
CONTINUOUS
 62
     7
 10
647.3467498825136
 20
276.1935939112963
 30
0.0
 40
0.299999999999967
 50
272.0000000141749
 51
0.0
  0
ARC
  5
194
  8
0
  6
CONTINUOUS
 62
     7
 10
647.3467498825131
 20
319.4732201405808
 30
0.0
 40
0.3000000000001668
 50
0.0000000000391651
 51
88.00000000248093
  0
ARC
  5
195
  8
0
  6
CONTINUOUS
 62
     7
 10
647.3467498825129
 20
327.229220140578
 30
0.0
 40
0.2999999999999527
 50
0.0000000000003979
 51
88.00000000243705
  0
ARC
  5
196
  8
0
  6
CONTINUOUS
 62
     7
 10
647.3467498825131
 20
314.9735939112825
 30
0.0
 40
0.299999999999967
 50
272.0000000141723
 51
0.0
  0
ARC
  5
197
  8
0
  6
CONTINUOUS
 62
     7
 10
647.3467498825129
 20
331.1072201405767
 30
0.0
 40
0.2999999999999527
 50
359.999999999995
 51
88.00000000243705
  0
LINE
  5
198
  8
0
  6
CONTINUOUS
 62
     7
 10
647.6467498825089
 20
284.5712201405932
 30
0.0
 11
647.6467498825089
 21
283.9495939112936
 31
0.0
  0
ARC
  5
199
  8
0
  6
CONTINUOUS
 62
     7
 10
647.3467498825131
 20
311.095593911284
 30
0.0
 40
0.299999999999967
 50
272.0000000141752
 51
0.0
  0
LINE
  5
19A
  8
0
  6
CONTINUOUS
 62
     7
 10
645.2489722520689
 20
327.602659012876
 30
0.0
 11
647.3572197315102
 21
327.529037388684
 31
0.0
  0
ARC
  5
19B
  8
0
  6
CONTINUOUS
 62
     7
 10
647.3467498825136
 20
272.9372201405975
 30
0.0
 40
0.2999999999999527
 50
359.9999999999953
 51
88.00000000243705
  0
ARC
  5
19C
  8
0
  6
CONTINUOUS
 62
     7
 10
647.3467498825131
 20
307.839220140585
 30
0.0
 40
0.2999999999999527
 50
359.9999999999953
 51
88.00000000243705
  0
ARC
  5
19D
  8
0
  6
CONTINUOUS
 62
     7
 10
647.3467498825129
 20
322.7295939112796
 30
0.0
 40
0.299999999999967
 50
272.0000000141749
 51
0.0
  0
LINE
  5
19E
  8
0
  6
CONTINUOUS
 62
     7
 10
647.6467498825089
 20
288.4492201405919
 30
0.0
 11
647.6467498825089
 21
287.827593911292
 31
0.0
  0
LINE
  5
19F
  8
0
  6
CONTINUOUS
 62
     7
 10
645.248972252069
 20
315.96865901288
 30
0.0
 11
647.3572197315102
 21
315.8950373886881
 31
0.0
  0
LINE
  5
1A0
  8
0
  6
CONTINUOUS
 62
     7
 10
647.3572197315101
 20
322.4297766631798
 30
0.0
 11
645.2489722520722
 21
322.3561550389898
 31
0.0
  0
LINE
  5
1A1
  8
0
  6
CONTINUOUS
 62
     7
 10
647.3572197315099
 20
330.185776663177
 30
0.0
 11
645.248972252072
 21
330.1121550389873
 31
0.0
  0
ARC
  5
1A2
  8
0
  6
CONTINUOUS
 62
     7
 10
645.2664220004139
 20
397.9063544264804
 30
0.0
 40
0.4999999999998652
 50
182.9841607579822
 51
268.0000001527966
  0
ARC
  5
1A3
  8
0
  6
CONTINUOUS
 62
     7
 10
645.2664220004139
 20
405.6623544264777
 30
0.0
 40
0.5000000000000986
 50
182.9841607580064
 51
268.0000001528207
  0
LINE
  5
1A4
  8
0
  6
CONTINUOUS
 62
     7
 10
647.6467498825085
 20
323.3512201405795
 30
0.0
 11
647.6467498825086
 21
322.7295939112796
 31
0.0
  0
ARC
  5
1A5
  8
0
  6
CONTINUOUS
 62
     7
 10
659.7467498825089
 20
371.5154070259898
 30
0.0
 40
14.99999999999993
 50
177.0151102022626
 51
182.9848654964143
  0
LINE
  5
1A6
  8
0
  6
CONTINUOUS
 62
     7
 10
647.6467498825085
 20
327.229220140578
 30
0.0
 11
647.6467498825085
 21
326.6075939112781
 31
0.0
  0
LINE
  5
1A7
  8
0
  6
CONTINUOUS
 62
     7
 10
647.6467498825085
 20
331.1072201405767
 30
0.0
 11
647.6467498825085
 21
330.4855939112771
 31
0.0
  0
ARC
  5
1A8
  8
0
  6
CONTINUOUS
 62
     7
 10
659.7467498825089
 20
383.1494070259857
 30
0.0
 40
15.00000000000015
 50
177.0151102022627
 51
182.9848654964145
  0
ARC
  5
1A9
  8
0
  6
CONTINUOUS
 62
     7
 10
645.2664220004139
 20
390.150354426483
 30
0.0
 40
0.4999999999998652
 50
182.9841607579822
 51
268.0000001527965
  0
ARC
  5
1AA
  8
0
  6
CONTINUOUS
 62
     7
 10
645.2664220004139
 20
401.784354426479
 30
0.0
 40
0.500000000000087
 50
182.9841607579812
 51
268.0000001527957
  0
ARC
  5
1AB
  8
0
  6
CONTINUOUS
 62
     7
 10
645.2664220004148
 20
335.8583544265026
 30
0.0
 40
0.5000000000000986
 50
182.9841607580064
 51
268.0000001528207
  0
ARC
  5
1AC
  8
0
  6
CONTINUOUS
 62
     7
 10
659.7467498825087
 20
390.905407025983
 30
0.0
 40
14.99999999999993
 50
177.0151102022626
 51
182.9848654964143
  0
ARC
  5
1AD
  8
0
  6
CONTINUOUS
 62
     7
 10
659.7467498825089
 20
375.3934070259888
 30
0.0
 40
14.99999999999992
 50
177.0151102022635
 51
182.9848654964152
  0
ARC
  5
1AE
  8
0
  6
CONTINUOUS
 62
     7
 10
645.2664220004145
 20
339.7363544265013
 30
0.0
 40
0.4999999999998768
 50
182.9841607580077
 51
268.0000001528222
  0
ARC
  5
1AF
  8
0
  6
CONTINUOUS
 62
     7
 10
645.2664220004148
 20
333.4904596255035
 30
0.0
 40
0.4999999999998447
 50
91.99999999828462
 51
177.0151102024006
  0
ARC
  5
1B0
  8
0
  6
CONTINUOUS
 62
     7
 10
659.7467498825093
 20
344.3694070259999
 30
0.0
 40
14.99999999999992
 50
177.0151102022635
 51
182.9848654964154
  0
ARC
  5
1B1
  8
0
  6
CONTINUOUS
 62
     7
 10
659.7467498825091
 20
359.8814070259943
 30
0.0
 40
14.99999999999992
 50
177.0151102022635
 51
182.9848654964152
  0
ARC
  5
1B2
  8
0
  6
CONTINUOUS
 62
     7
 10
659.7467498825093
 20
340.491407026001
 30
0.0
 40
14.99999999999992
 50
177.0151102022635
 51
182.9848654964152
  0
ARC
  5
1B3
  8
0
  6
CONTINUOUS
 62
     7
 10
659.7467498825093
 20
348.2474070259984
 30
0.0
 40
15.00000000000015
 50
177.0151102022633
 51
182.9848654964151
  0
ARC
  5
1B4
  8
0
  6
CONTINUOUS
 62
     7
 10
645.2664220004145
 20
337.368459625502
 30
0.0
 40
0.5000000000000667
 50
91.99999999828373
 51
177.0151102023998
  0
ARC
  5
1B5
  8
0
  6
CONTINUOUS
 62
     7
 10
645.2664220004145
 20
341.2464596255005
 30
0.0
 40
0.5000000000002887
 50
91.99999999828283
 51
177.0151102023989
  0
ARC
  5
1B6
  8
0
  6
CONTINUOUS
 62
     7
 10
645.2664220004145
 20
345.1244596254994
 30
0.0
 40
0.4999999999998447
 50
91.99999999828462
 51
177.0151102023975
  0
ARC
  5
1B7
  8
0
  6
CONTINUOUS
 62
     7
 10
645.2664220004145
 20
349.0024596254979
 30
0.0
 40
0.5000000000000667
 50
91.99999999828373
 51
177.0151102023996
  0
ARC
  5
1B8
  8
0
  6
CONTINUOUS
 62
     7
 10
645.2664220004139
 20
394.0283544264818
 30
0.0
 40
0.4999999999998768
 50
182.9841607580077
 51
268.0000001528221
  0
ARC
  5
1B9
  8
0
  6
CONTINUOUS
 62
     7
 10
645.2664220004136
 20
409.5403544264762
 30
0.0
 40
0.5000000000000986
 50
182.9841607580064
 51
268.0000001528238
  0
ARC
  5
1BA
  8
0
  6
CONTINUOUS
 62
     7
 10
645.2664220004145
 20
352.8804596254964
 30
0.0
 40
0.5000000000000667
 50
91.99999999828373
 51
177.0151102023966
  0
LINE
  5
1BB
  8
0
  6
CONTINUOUS
 62
     7
 10
647.6467498825085
 20
319.4732201405808
 30
0.0
 11
647.6467498825085
 21
318.8515939112812
 31
0.0
  0
ARC
  5
1BC
  8
0
  6
CONTINUOUS
 62
     7
 10
659.7467498825091
 20
363.7594070259929
 30
0.0
 40
14.99999999999992
 50
177.0151102022635
 51
182.9848654964152
  0
ARC
  5
1BD
  8
0
  6
CONTINUOUS
 62
     7
 10
645.2664220004143
 20
356.7584596254951
 30
0.0
 40
0.5000000000000667
 50
91.99999999828373
 51
177.0151102023996
  0
ARC
  5
1BE
  8
0
  6
CONTINUOUS
 62
     7
 10
645.2664220004143
 20
364.5144596254923
 30
0.0
 40
0.5000000000000667
 50
91.99999999828373
 51
177.0151102023998
  0
ARC
  5
1BF
  8
0
  6
CONTINUOUS
 62
     7
 10
645.2664220004141
 20
368.392459625491
 30
0.0
 40
0.4999999999998447
 50
91.99999999828462
 51
177.0151102023975
  0
ARC
  5
1C0
  8
0
  6
CONTINUOUS
 62
     7
 10
645.2664220004143
 20
366.8823544264916
 30
0.0
 40
0.5000000000000986
 50
182.9841607580064
 51
268.0000001528209
  0
ARC
  5
1C1
  8
0
  6
CONTINUOUS
 62
     7
 10
645.2664220004141
 20
374.6383544264886
 30
0.0
 40
0.4999999999998652
 50
182.9841607579822
 51
268.0000001527966
  0
ARC
  5
1C2
  8
0
  6
CONTINUOUS
 62
     7
 10
659.7467498825084
 20
398.6614070259804
 30
0.0
 40
14.99999999999992
 50
177.0151102022635
 51
182.9848654964152
  0
ARC
  5
1C3
  8
0
  6
CONTINUOUS
 62
     7
 10
645.2664220004143
 20
360.6364596254938
 30
0.0
 40
0.5000000000000667
 50
91.99999999828373
 51
177.0151102023996
  0
ARC
  5
1C4
  8
0
  6
CONTINUOUS
 62
     7
 10
659.7467498825093
 20
336.6134070260025
 30
0.0
 40
14.99999999999992
 50
177.0151102022635
 51
182.9848654964152
  0
ARC
  5
1C5
  8
0
  6
CONTINUOUS
 62
     7
 10
659.7467498825084
 20
406.4174070259776
 30
0.0
 40
15.00000000000015
 50
177.0151102022627
 51
182.9848654964145
  0
ARC
  5
1C6
  8
0
  6
CONTINUOUS
 62
     7
 10
645.2664220004141
 20
372.2704596254895
 30
0.0
 40
0.4999999999998447
 50
91.99999999828462
 51
177.0151102023975
  0
ARC
  5
1C7
  8
0
  6
CONTINUOUS
 62
     7
 10
645.2664220004143
 20
359.1263544264942
 30
0.0
 40
0.5000000000000986
 50
182.9841607580064
 51
268.0000001528209
  0
ARC
  5
1C8
  8
0
  6
CONTINUOUS
 62
     7
 10
645.2664220004141
 20
378.5163544264871
 30
0.0
 40
0.500000000000087
 50
182.9841607579812
 51
268.0000001527955
  0
ARC
  5
1C9
  8
0
  6
CONTINUOUS
 62
     7
 10
659.7467498825089
 20
379.2714070259873
 30
0.0
 40
15.00000000000015
 50
177.0151102022627
 51
182.9848654964146
  0
ARC
  5
1CA
  8
0
  6
CONTINUOUS
 62
     7
 10
659.7467498825093
 20
352.1254070259969
 30
0.0
 40
15.00000000000015
 50
177.0151102022633
 51
182.984865496415
  0
ARC
  5
1CB
  8
0
  6
CONTINUOUS
 62
     7
 10
645.2664220004141
 20
386.2723544264845
 30
0.0
 40
0.500000000000087
 50
182.9841607579812
 51
268.0000001527957
  0
ARC
  5
1CC
  8
0
  6
CONTINUOUS
 62
     7
 10
659.7467498825091
 20
356.0034070259954
 30
0.0
 40
14.99999999999993
 50
177.0151102022626
 51
182.9848654964144
  0
ARC
  5
1CD
  8
0
  6
CONTINUOUS
 62
     7
 10
659.7467498825089
 20
367.6374070259914
 30
0.0
 40
14.99999999999993
 50
177.0151102022626
 51
182.9848654964144
  0
ARC
  5
1CE
  8
0
  6
CONTINUOUS
 62
     7
 10
645.2664220004145
 20
347.4923544264985
 30
0.0
 40
0.4999999999998768
 50
182.9841607580077
 51
268.0000001528222
  0
LINE
  5
1CF
  8
0
  6
CONTINUOUS
 62
     7
 10
647.6467498825085
 20
315.5952201405821
 30
0.0
 11
647.6467498825085
 21
314.9735939112824
 31
0.0
  0
ARC
  5
1D0
  8
0
  6
CONTINUOUS
 62
     7
 10
645.2664220004145
 20
355.2483544264957
 30
0.0
 40
0.5000000000000986
 50
182.9841607580064
 51
268.0000001528209
  0
ARC
  5
1D1
  8
0
  6
CONTINUOUS
 62
     7
 10
659.7467498825087
 20
387.0274070259845
 30
0.0
 40
14.99999999999992
 50
177.0151102022635
 51
182.9848654964151
  0
ARC
  5
1D2
  8
0
  6
CONTINUOUS
 62
     7
 10
645.2664220004143
 20
363.0043544264931
 30
0.0
 40
0.5000000000000986
 50
182.9841607580064
 51
268.0000001528207
  0
ARC
  5
1D3
  8
0
  6
CONTINUOUS
 62
     7
 10
645.2664220004141
 20
382.3943544264861
 30
0.0
 40
0.5000000000000986
 50
182.9841607580064
 51
268.0000001528238
  0
ARC
  5
1D4
  8
0
  6
CONTINUOUS
 62
     7
 10
659.7467498825084
 20
402.5394070259789
 30
0.0
 40
14.99999999999993
 50
177.0151102022626
 51
182.9848654964144
  0
ARC
  5
1D5
  8
0
  6
CONTINUOUS
 62
     7
 10
659.7467498825084
 20
410.2954070259763
 30
0.0
 40
15.00000000000012
 50
180.0000000000009
 51
182.9848654964147
  0
ARC
  5
1D6
  8
0
  6
CONTINUOUS
 62
     7
 10
659.7467498825084
 20
394.7834070259817
 30
0.0
 40
14.99999999999971
 50
177.0151102022625
 51
182.9848654964143
  0
ARC
  5
1D7
  8
0
  6
CONTINUOUS
 62
     7
 10
659.7467498825096
 20
332.735407026004
 30
0.0
 40
14.99999999999992
 50
177.0151102022635
 51
180.0000000000011
  0
ARC
  5
1D8
  8
0
  6
CONTINUOUS
 62
     7
 10
645.2664220004145
 20
343.6143544264998
 30
0.0
 40
0.4999999999998884
 50
182.9841607580334
 51
268.0000001528447
  0
ARC
  5
1D9
  8
0
  6
CONTINUOUS
 62
     7
 10
645.2664220004145
 20
351.3703544264972
 30
0.0
 40
0.5000000000000986
 50
182.9841607580064
 51
268.0000001528237
  0
ARC
  5
1DA
  8
0
  6
CONTINUOUS
 62
     7
 10
645.2664220004141
 20
370.7603544264902
 30
0.0
 40
0.4999999999998768
 50
182.9841607580077
 51
268.0000001528219
  0
ARC
  5
1DB
  8
0
  6
CONTINUOUS
 62
     7
 10
647.3467498825138
 20
345.9975939112989
 30
0.0
 40
0.2999999999997449
 50
272.0000000141749
 51
0.0
  0
ARC
  5
1DC
  8
0
  6
CONTINUOUS
 62
     7
 10
647.3467498825136
 20
349.8755939112979
 30
0.0
 40
0.299999999999967
 50
272.0000000141753
 51
0.0
  0
LINE
  5
1DD
  8
0
  6
CONTINUOUS
 62
     7
 10
647.3572197315109
 20
337.9417766632018
 30
0.0
 11
645.2489722520731
 21
337.868155039012
 31
0.0
  0
LINE
  5
1DE
  8
0
  6
CONTINUOUS
 62
     7
 10
645.2489722520697
 20
346.9926590128964
 30
0.0
 11
647.3572197315111
 21
346.9190373887047
 31
0.0
  0
ARC
  5
1DF
  8
0
  6
CONTINUOUS
 62
     7
 10
645.2664220004139
 20
387.782459625484
 30
0.0
 40
0.4999999999998447
 50
91.99999999828462
 51
177.0151102024006
  0
ARC
  5
1E0
  8
0
  6
CONTINUOUS
 62
     7
 10
645.2664220004141
 20
380.026459625487
 30
0.0
 40
0.4999999999998447
 50
91.99999999828462
 51
177.0151102023976
  0
LINE
  5
1E1
  8
0
  6
CONTINUOUS
 62
     7
 10
647.3572197315104
 20
361.2097766631936
 30
0.0
 11
645.2489722520727
 21
361.1361550390036
 31
0.0
  0
LINE
  5
1E2
  8
0
  6
CONTINUOUS
 62
     7
 10
645.2489722520689
 20
405.1626590128756
 30
0.0
 11
647.3572197315102
 21
405.0890373886839
 31
0.0
  0
ARC
  5
1E3
  8
0
  6
CONTINUOUS
 62
     7
 10
645.2664220004139
 20
403.2944596254784
 30
0.0
 40
0.5000000000000745
 50
91.99999999830915
 51
177.015110202425
  0
ARC
  5
1E4
  8
0
  6
CONTINUOUS
 62
     7
 10
645.2664220004139
 20
395.5384596254814
 30
0.0
 40
0.4999999999998447
 50
91.99999999828462
 51
177.0151102023975
  0
LINE
  5
1E5
  8
0
  6
CONTINUOUS
 62
     7
 10
645.2489722520697
 20
335.3586590129007
 30
0.0
 11
647.3572197315111
 21
335.2850373887088
 31
0.0
  0
LINE
  5
1E6
  8
0
  6
CONTINUOUS
 62
     7
 10
645.2489722520695
 20
358.6266590128923
 30
0.0
 11
647.3572197315109
 21
358.5530373887007
 31
0.0
  0
LINE
  5
1E7
  8
0
  6
CONTINUOUS
 62
     7
 10
647.3572197315104
 20
368.9657766631909
 30
0.0
 11
645.2489722520727
 21
368.8921550390011
 31
0.0
  0
LINE
  5
1E8
  8
0
  6
CONTINUOUS
 62
     7
 10
645.2489722520693
 20
370.2606590128883
 30
0.0
 11
647.3572197315107
 21
370.1870373886966
 31
0.0
  0
LINE
  5
1E9
  8
0
  6
CONTINUOUS
 62
     7
 10
647.3572197315101
 20
403.8677766631782
 30
0.0
 11
645.2489722520722
 21
403.7941550389884
 31
0.0
  0
LINE
  5
1EA
  8
0
  6
CONTINUOUS
 62
     7
 10
645.2489722520693
 20
378.0166590128853
 30
0.0
 11
647.3572197315107
 21
377.9430373886935
 31
0.0
  0
ARC
  5
1EB
  8
0
  6
CONTINUOUS
 62
     7
 10
645.2664220004139
 20
391.6604596254829
 30
0.0
 40
0.4999999999998447
 50
91.99999999828462
 51
177.0151102024006
  0
LINE
  5
1EC
  8
0
  6
CONTINUOUS
 62
     7
 10
645.2489722520697
 20
350.8706590128951
 30
0.0
 11
647.3572197315109
 21
350.7970373887031
 31
0.0
  0
LINE
  5
1ED
  8
0
  6
CONTINUOUS
 62
     7
 10
647.3572197315102
 20
384.4777766631853
 30
0.0
 11
645.2489722520725
 21
384.4041550389952
 31
0.0
  0
LINE
  5
1EE
  8
0
  6
CONTINUOUS
 62
     7
 10
647.3572197315109
 20
334.0637766632033
 30
0.0
 11
645.2489722520731
 21
333.9901550390132
 31
0.0
  0
LINE
  5
1EF
  8
0
  6
CONTINUOUS
 62
     7
 10
645.2489722520689
 20
409.0406590128744
 30
0.0
 11
647.3572197315102
 21
408.9670373886826
 31
0.0
  0
ARC
  5
1F0
  8
0
  6
CONTINUOUS
 62
     7
 10
647.3467498825138
 20
334.985220140603
 30
0.0
 40
0.2999999999999527
 50
359.999999999995
 51
88.00000000243705
  0
ARC
  5
1F1
  8
0
  6
CONTINUOUS
 62
     7
 10
647.3467498825138
 20
338.2415939113019
 30
0.0
 40
0.299999999999967
 50
272.0000000141749
 51
0.0
  0
ARC
  5
1F2
  8
0
  6
CONTINUOUS
 62
     7
 10
647.3467498825138
 20
342.7412201406001
 30
0.0
 40
0.2999999999999527
 50
359.9999999999948
 51
88.00000000243705
  0
ARC
  5
1F3
  8
0
  6
CONTINUOUS
 62
     7
 10
645.2664220004141
 20
383.9044596254855
 30
0.0
 40
0.4999999999998447
 50
91.99999999828462
 51
177.0151102023975
  0
LINE
  5
1F4
  8
0
  6
CONTINUOUS
 62
     7
 10
647.3572197315104
 20
357.3317766631952
 30
0.0
 11
645.2489722520727
 21
357.2581550390051
 31
0.0
  0
LINE
  5
1F5
  8
0
  6
CONTINUOUS
 62
     7
 10
647.3572197315102
 20
380.5997766631868
 30
0.0
 11
645.2489722520725
 21
380.5261550389967
 31
0.0
  0
LINE
  5
1F6
  8
0
  6
CONTINUOUS
 62
     7
 10
645.2489722520695
 20
354.7486590128939
 30
0.0
 11
647.3572197315109
 21
354.6750373887022
 31
0.0
  0
LINE
  5
1F7
  8
0
  6
CONTINUOUS
 62
     7
 10
645.2489722520689
 20
397.4066590128786
 30
0.0
 11
647.3572197315102
 21
397.3330373886866
 31
0.0
  0
LINE
  5
1F8
  8
0
  6
CONTINUOUS
 62
     7
 10
647.3572197315099
 20
407.7457766631771
 30
0.0
 11
645.248972252072
 21
407.6721550389871
 31
0.0
  0
ARC
  5
1F9
  8
0
  6
CONTINUOUS
 62
     7
 10
645.2664220004139
 20
399.4164596254799
 30
0.0
 40
0.4999999999998526
 50
91.99999999831003
 51
177.0151102024229
  0
ARC
  5
1FA
  8
0
  6
CONTINUOUS
 62
     7
 10
647.3467498825136
 20
353.7535939112963
 30
0.0
 40
0.299999999999967
 50
272.0000000141749
 51
0.0
  0
ARC
  5
1FB
  8
0
  6
CONTINUOUS
 62
     7
 10
647.3467498825136
 20
354.3752201405958
 30
0.0
 40
0.3000000000001746
 50
359.9999999999964
 51
88.0000000024386
  0
ARC
  5
1FC
  8
0
  6
CONTINUOUS
 62
     7
 10
647.3467498825136
 20
357.6315939112948
 30
0.0
 40
0.299999999999967
 50
272.0000000141749
 51
0.0
  0
ARC
  5
1FD
  8
0
  6
CONTINUOUS
 62
     7
 10
647.3467498825136
 20
350.4972201405973
 30
0.0
 40
0.2999999999999527
 50
359.9999999999953
 51
88.00000000243705
  0
ARC
  5
1FE
  8
0
  6
CONTINUOUS
 62
     7
 10
647.3467498825136
 20
358.2532201405946
 30
0.0
 40
0.3000000000001668
 50
0.0000000000445084
 51
88.00000000248093
  0
ARC
  5
1FF
  8
0
  6
CONTINUOUS
 62
     7
 10
647.3467498825136
 20
361.5095939112933
 30
0.0
 40
0.299999999999967
 50
272.0000000141696
 51
0.0
  0
LINE
  5
200
  8
0
  6
CONTINUOUS
 62
     7
 10
645.2489722520693
 20
374.1386590128868
 30
0.0
 11
647.3572197315104
 21
374.065037388695
 31
0.0
  0
LINE
  5
201
  8
0
  6
CONTINUOUS
 62
     7
 10
647.3572197315102
 20
376.7217766631881
 30
0.0
 11
645.2489722520725
 21
376.648155038998
 31
0.0
  0
LINE
  5
202
  8
0
  6
CONTINUOUS
 62
     7
 10
645.2489722520693
 20
381.8946590128838
 30
0.0
 11
647.3572197315104
 21
381.821037388692
 31
0.0
  0
LINE
  5
203
  8
0
  6
CONTINUOUS
 62
     7
 10
645.2489722520689
 20
401.2846590128771
 30
0.0
 11
647.3572197315101
 21
401.2110373886851
 31
0.0
  0
ARC
  5
204
  8
0
  6
CONTINUOUS
 62
     7
 10
647.3467498825138
 20
338.8632201406014
 30
0.0
 40
0.3000000000001746
 50
359.9999999999966
 51
88.0000000024386
  0
ARC
  5
205
  8
0
  6
CONTINUOUS
 62
     7
 10
645.2664220004139
 20
407.1724596254768
 30
0.0
 40
0.5000000000000745
 50
91.99999999830915
 51
177.0151102024252
  0
LINE
  5
206
  8
0
  6
CONTINUOUS
 62
     7
 10
647.3572197315107
 20
349.5757766631977
 30
0.0
 11
645.2489722520729
 21
349.5021550390077
 31
0.0
  0
LINE
  5
207
  8
0
  6
CONTINUOUS
 62
     7
 10
647.3572197315104
 20
372.8437766631895
 30
0.0
 11
645.2489722520727
 21
372.7701550389995
 31
0.0
  0
LINE
  5
208
  8
0
  6
CONTINUOUS
 62
     7
 10
645.248972252069
 20
389.6506590128812
 30
0.0
 11
647.3572197315104
 21
389.5770373886895
 31
0.0
  0
ARC
  5
209
  8
0
  6
CONTINUOUS
 62
     7
 10
647.3467498825138
 20
346.6192201405989
 30
0.0
 40
0.2999999999999527
 50
0.0000000000003979
 51
88.00000000243705
  0
LINE
  5
20A
  8
0
  6
CONTINUOUS
 62
     7
 10
647.3572197315107
 20
345.6977766631992
 30
0.0
 11
645.248972252073
 21
345.6241550390092
 31
0.0
  0
LINE
  5
20B
  8
0
  6
CONTINUOUS
 62
     7
 10
647.3572197315104
 20
365.0877766631921
 30
0.0
 11
645.2489722520728
 21
365.0141550390021
 31
0.0
  0
LINE
  5
20C
  8
0
  6
CONTINUOUS
 62
     7
 10
647.3572197315102
 20
388.3557766631837
 30
0.0
 11
645.2489722520725
 21
388.282155038994
 31
0.0
  0
LINE
  5
20D
  8
0
  6
CONTINUOUS
 62
     7
 10
647.3572197315101
 20
396.1117766631812
 30
0.0
 11
645.2489722520723
 21
396.0381550389911
 31
0.0
  0
ARC
  5
20E
  8
0
  6
CONTINUOUS
 62
     7
 10
647.3467498825138
 20
334.3635939113032
 30
0.0
 40
0.300000000000189
 50
272.0000000141749
 51
0.0
  0
LINE
  5
20F
  8
0
  6
CONTINUOUS
 62
     7
 10
645.2489722520697
 20
339.2366590128992
 30
0.0
 11
647.3572197315111
 21
339.1630373887075
 31
0.0
  0
LINE
  5
210
  8
0
  6
CONTINUOUS
 62
     7
 10
645.2489722520695
 20
362.5046590128908
 30
0.0
 11
647.3572197315107
 21
362.4310373886991
 31
0.0
  0
LINE
  5
211
  8
0
  6
CONTINUOUS
 62
     7
 10
647.3572197315101
 20
399.9897766631797
 30
0.0
 11
645.2489722520722
 21
399.9161550389899
 31
0.0
  0
ARC
  5
212
  8
0
  6
CONTINUOUS
 62
     7
 10
645.2664220004141
 20
376.148459625488
 30
0.0
 40
0.5000000000002887
 50
91.99999999828283
 51
177.0151102023987
  0
LINE
  5
213
  8
0
  6
CONTINUOUS
 62
     7
 10
647.3572197315109
 20
341.8197766632005
 30
0.0
 11
645.2489722520731
 21
341.7461550390104
 31
0.0
  0
LINE
  5
214
  8
0
  6
CONTINUOUS
 62
     7
 10
647.3572197315107
 20
353.4537766631962
 30
0.0
 11
645.2489722520729
 21
353.3801550390064
 31
0.0
  0
LINE
  5
215
  8
0
  6
CONTINUOUS
 62
     7
 10
645.2489722520693
 20
366.3826590128898
 30
0.0
 11
647.3572197315107
 21
366.3090373886978
 31
0.0
  0
LINE
  5
216
  8
0
  6
CONTINUOUS
 62
     7
 10
645.248972252069
 20
385.7726590128827
 30
0.0
 11
647.3572197315104
 21
385.6990373886907
 31
0.0
  0
LINE
  5
217
  8
0
  6
CONTINUOUS
 62
     7
 10
647.3572197315102
 20
392.2337766631827
 30
0.0
 11
645.2489722520725
 21
392.1601550389926
 31
0.0
  0
ARC
  5
218
  8
0
  6
CONTINUOUS
 62
     7
 10
647.3467498825138
 20
342.1195939113004
 30
0.0
 40
0.299999999999967
 50
272.0000000141753
 51
0.0
  0
LINE
  5
219
  8
0
  6
CONTINUOUS
 62
     7
 10
645.2489722520697
 20
343.114659012898
 30
0.0
 11
647.3572197315109
 21
343.0410373887062
 31
0.0
  0
LINE
  5
21A
  8
0
  6
CONTINUOUS
 62
     7
 10
645.248972252069
 20
393.5286590128797
 30
0.0
 11
647.3572197315102
 21
393.455037388688
 31
0.0
  0
LINE
  5
21B
  8
0
  6
CONTINUOUS
 62
     7
 10
647.6467498825085
 20
393.1552201405823
 30
0.0
 11
647.6467498825085
 21
392.5335939112824
 31
0.0
  0
LINE
  5
21C
  8
0
  6
CONTINUOUS
 62
     7
 10
647.6467498825085
 20
404.7892201405778
 30
0.0
 11
647.6467498825085
 21
404.1675939112782
 31
0.0
  0
ARC
  5
21D
  8
0
  6
CONTINUOUS
 62
     7
 10
647.3467498825136
 20
365.3875939112918
 30
0.0
 40
0.299999999999967
 50
272.0000000141749
 51
0.0
  0
ARC
  5
21E
  8
0
  6
CONTINUOUS
 62
     7
 10
647.3467498825131
 20
397.0332201405809
 30
0.0
 40
0.2999999999999449
 50
0.0000000000376872
 51
88.00000000247945
  0
ARC
  5
21F
  8
0
  6
CONTINUOUS
 62
     7
 10
647.3467498825129
 20
400.2895939112796
 30
0.0
 40
0.299999999999967
 50
272.0000000141749
 51
0.0
  0
ARC
  5
220
  8
0
  6
CONTINUOUS
 62
     7
 10
647.3467498825129
 20
400.9112201405793
 30
0.0
 40
0.2999999999999527
 50
359.999999999995
 51
88.00000000243705
  0
ARC
  5
221
  8
0
  6
CONTINUOUS
 62
     7
 10
647.3467498825129
 20
404.1675939112783
 30
0.0
 40
0.299999999999967
 50
272.0000000141748
 51
0.0
  0
LINE
  5
222
  8
0
  6
CONTINUOUS
 62
     7
 10
647.6467498825089
 20
369.8872201405905
 30
0.0
 11
647.6467498825089
 21
369.2655939112909
 31
0.0
  0
ARC
  5
223
  8
0
  6
CONTINUOUS
 62
     7
 10
647.3467498825131
 20
388.6555939112837
 30
0.0
 40
0.299999999999967
 50
272.0000000141753
 51
0.0
  0
ARC
  5
224
  8
0
  6
CONTINUOUS
 62
     7
 10
659.7467498825096
 20
410.2954070260037
 30
0.0
 40
14.99999999999993
 50
177.0151102022626
 51
180.0000000000002
  0
LINE
  5
225
  8
0
  6
CONTINUOUS
 62
     7
 10
647.6467498825085
 20
397.0332201405809
 30
0.0
 11
647.6467498825085
 21
396.4115939112809
 31
0.0
  0
LINE
  5
226
  8
0
  6
CONTINUOUS
 62
     7
 10
647.6467498825085
 20
408.6672201405763
 30
0.0
 11
647.6467498825085
 21
408.0455939112767
 31
0.0
  0
LINE
  5
227
  8
0
  6
CONTINUOUS
 62
     7
 10
647.6467498825089
 20
366.0092201405918
 30
0.0
 11
647.6467498825089
 21
365.3875939112919
 31
0.0
  0
ARC
  5
228
  8
0
  6
CONTINUOUS
 62
     7
 10
647.3467498825131
 20
392.5335939112824
 30
0.0
 40
0.299999999999967
 50
272.0000000141748
 51
0.0
  0
ARC
  5
229
  8
0
  6
CONTINUOUS
 62
     7
 10
659.7467498825093
 20
414.1734070260026
 30
0.0
 40
14.99999999999992
 50
177.0151102022635
 51
182.9848654964152
  0
ARC
  5
22A
  8
0
  6
CONTINUOUS
 62
     7
 10
659.7467498825093
 20
418.0514070260011
 30
0.0
 40
14.99999999999992
 50
179.3143613278474
 51
182.9848654964145
  0
ARC
  5
22B
  8
0
  6
CONTINUOUS
 62
     7
 10
647.3467498825133
 20
377.0215939112878
 30
0.0
 40
0.299999999999967
 50
272.0000000141753
 51
0.0
  0
ARC
  5
22C
  8
0
  6
CONTINUOUS
 62
     7
 10
645.2664220004148
 20
413.4183544265024
 30
0.0
 40
0.500000000000087
 50
182.9841607579812
 51
268.0000001527955
  0
ARC
  5
22D
  8
0
  6
CONTINUOUS
 62
     7
 10
645.2664220004145
 20
417.2963544265014
 30
0.0
 40
0.4999999999998768
 50
182.9841607580077
 51
268.0000001528222
  0
ARC
  5
22E
  8
0
  6
CONTINUOUS
 62
     7
 10
645.2664220004145
 20
414.9284596255021
 30
0.0
 40
0.5000000000000667
 50
91.99999999828373
 51
177.0151102023998
  0
ARC
  5
22F
  8
0
  6
CONTINUOUS
 62
     7
 10
647.3467498825133
 20
373.1435939112893
 30
0.0
 40
0.299999999999967
 50
272.0000000141696
 51
0.0
  0
LINE
  5
230
  8
0
  6
CONTINUOUS
 62
     7
 10
645.2489722520697
 20
416.7966590128995
 30
0.0
 11
647.3572197315111
 21
416.7230373887075
 31
0.0
  0
ARC
  5
231
  8
0
  6
CONTINUOUS
 62
     7
 10
647.3467498825138
 20
411.923593911303
 30
0.0
 40
0.300000000000189
 50
272.0000000141749
 51
0.0
  0
ARC
  5
232
  8
0
  6
CONTINUOUS
 62
     7
 10
647.3467498825138
 20
415.8015939113016
 30
0.0
 40
0.299999999999967
 50
272.0000000141749
 51
0.0
  0
ARC
  5
233
  8
0
  6
CONTINUOUS
 62
     7
 10
647.3467498825129
 20
408.6672201405763
 30
0.0
 40
0.3000000000003964
 50
359.999999999998
 51
88.00000000244006
  0
LINE
  5
234
  8
0
  6
CONTINUOUS
 62
     7
 10
647.6467498825089
 20
362.1312201405933
 30
0.0
 11
647.6467498825089
 21
361.5095939112934
 31
0.0
  0
LINE
  5
235
  8
0
  6
CONTINUOUS
 62
     7
 10
647.6467498825093
 20
334.985220140603
 30
0.0
 11
647.6467498825093
 21
334.3635939113033
 31
0.0
  0
LINE
  5
236
  8
0
  6
CONTINUOUS
 62
     7
 10
647.6467498825091
 20
342.7412201406001
 30
0.0
 11
647.6467498825091
 21
342.1195939113002
 31
0.0
  0
LINE
  5
237
  8
0
  6
CONTINUOUS
 62
     7
 10
647.6467498825091
 20
354.3752201405958
 30
0.0
 11
647.6467498825091
 21
353.7535939112962
 31
0.0
  0
LINE
  5
238
  8
0
  6
CONTINUOUS
 62
     7
 10
647.6467498825085
 20
400.9112201405793
 30
0.0
 11
647.6467498825086
 21
400.2895939112797
 31
0.0
  0
ARC
  5
239
  8
0
  6
CONTINUOUS
 62
     7
 10
647.3467498825131
 20
385.3992201405849
 30
0.0
 40
0.2999999999999527
 50
359.9999999999953
 51
88.00000000243705
  0
LINE
  5
23A
  8
0
  6
CONTINUOUS
 62
     7
 10
647.6467498825093
 20
412.545220140603
 30
0.0
 11
647.6467498825093
 21
411.9235939113031
 31
0.0
  0
ARC
  5
23B
  8
0
  6
CONTINUOUS
 62
     7
 10
647.3467498825138
 20
412.545220140603
 30
0.0
 40
0.2999999999999527
 50
359.999999999995
 51
88.00000000243705
  0
LINE
  5
23C
  8
0
  6
CONTINUOUS
 62
     7
 10
647.3572197315109
 20
411.6237766632034
 30
0.0
 11
645.2489722520731
 21
411.5501550390133
 31
0.0
  0
LINE
  5
23D
  8
0
  6
CONTINUOUS
 62
     7
 10
647.6467498825086
 20
389.2772201405834
 30
0.0
 11
647.6467498825086
 21
388.6555939112838
 31
0.0
  0
LINE
  5
23E
  8
0
  6
CONTINUOUS
 62
     7
 10
645.2489722520697
 20
412.9186590129006
 30
0.0
 11
647.3572197315111
 21
412.8450373887089
 31
0.0
  0
LINE
  5
23F
  8
0
  6
CONTINUOUS
 62
     7
 10
647.3572197315109
 20
415.5017766632018
 30
0.0
 11
645.2489722520731
 21
415.4281550390118
 31
0.0
  0
ARC
  5
240
  8
0
  6
CONTINUOUS
 62
     7
 10
647.3467498825136
 20
362.1312201405933
 30
0.0
 40
0.2999999999999449
 50
0.0000000000426894
 51
88.00000000247945
  0
ARC
  5
241
  8
0
  6
CONTINUOUS
 62
     7
 10
647.3467498825131
 20
380.8995939112867
 30
0.0
 40
0.300000000000189
 50
272.0000000141749
 51
0.0
  0
ARC
  5
242
  8
0
  6
CONTINUOUS
 62
     7
 10
647.3467498825131
 20
381.5212201405864
 30
0.0
 40
0.2999999999999527
 50
359.999999999995
 51
88.00000000243705
  0
LINE
  5
243
  8
0
  6
CONTINUOUS
 62
     7
 10
647.6467498825086
 20
381.5212201405864
 30
0.0
 11
647.6467498825086
 21
380.8995939112868
 31
0.0
  0
LINE
  5
244
  8
0
  6
CONTINUOUS
 62
     7
 10
647.6467498825093
 20
416.4232201406015
 30
0.0
 11
647.6467498825093
 21
415.8015939113016
 31
0.0
  0
LINE
  5
245
  8
0
  6
CONTINUOUS
 62
     7
 10
647.6467498825089
 20
373.765220140589
 30
0.0
 11
647.6467498825089
 21
373.1435939112894
 31
0.0
  0
LINE
  5
246
  8
0
  6
CONTINUOUS
 62
     7
 10
647.6467498825089
 20
377.6432201405877
 30
0.0
 11
647.6467498825089
 21
377.0215939112878
 31
0.0
  0
LINE
  5
247
  8
0
  6
CONTINUOUS
 62
     7
 10
647.6467498825093
 20
338.8632201406014
 30
0.0
 11
647.6467498825093
 21
338.2415939113018
 31
0.0
  0
ARC
  5
248
  8
0
  6
CONTINUOUS
 62
     7
 10
644.7439133126946
 20
1045.828483317258
 30
0.0
 40
0.9999999999998899
 50
90.00000000206099
 51
180.0000000020592
  0
ARC
  5
249
  8
0
  6
CONTINUOUS
 62
     7
 10
645.2664220004148
 20
411.0504596255035
 30
0.0
 40
0.5000000000000667
 50
91.99999999828373
 51
177.0151102023996
  0
LINE
  5
24A
  8
0
  6
CONTINUOUS
 62
     7
 10
643.7439133126948
 20
1045.828483317222
 30
0.0
 11
643.7439133129151
 21
1039.676817267383
 31
0.0
  0
ARC
  5
24B
  8
0
  6
CONTINUOUS
 62
     7
 10
647.3467498825138
 20
416.4232201406015
 30
0.0
 40
0.2999999999999527
 50
359.9999999999951
 51
88.00000000243705
  0
LINE
  5
24C
  8
0
  6
CONTINUOUS
 62
     7
 10
647.6467498825091
 20
346.6192201405989
 30
0.0
 11
647.6467498825091
 21
345.997593911299
 31
0.0
  0
LINE
  5
24D
  8
0
  6
CONTINUOUS
 62
     7
 10
647.6467498825091
 20
358.2532201405948
 30
0.0
 11
647.6467498825091
 21
357.6315939112949
 31
0.0
  0
ARC
  5
24E
  8
0
  6
CONTINUOUS
 62
     7
 10
647.3467498825131
 20
384.7775939112852
 30
0.0
 40
0.300000000000189
 50
272.0000000141749
 51
0.0
  0
ARC
  5
24F
  8
0
  6
CONTINUOUS
 62
     7
 10
647.3467498825131
 20
396.4115939112809
 30
0.0
 40
0.299999999999967
 50
272.0000000141753
 51
0.0
  0
ARC
  5
250
  8
0
  6
CONTINUOUS
 62
     7
 10
647.3467498825131
 20
393.1552201405823
 30
0.0
 40
0.2999999999999449
 50
0.0000000000376872
 51
88.00000000247945
  0
ARC
  5
251
  8
0
  6
CONTINUOUS
 62
     7
 10
647.3467498825136
 20
366.0092201405918
 30
0.0
 40
0.2999999999999449
 50
0.0000000000376872
 51
88.00000000247945
  0
ARC
  5
252
  8
0
  6
CONTINUOUS
 62
     7
 10
647.3467498825133
 20
369.8872201405905
 30
0.0
 40
0.2999999999999527
 50
359.9999999999953
 51
88.00000000243705
  0
ARC
  5
253
  8
0
  6
CONTINUOUS
 62
     7
 10
647.3467498825133
 20
373.765220140589
 30
0.0
 40
0.3000000000001746
 50
359.9999999999964
 51
88.0000000024386
  0
ARC
  5
254
  8
0
  6
CONTINUOUS
 62
     7
 10
647.3467498825129
 20
404.7892201405778
 30
0.0
 40
0.3000000000003964
 50
0.0000000000034106
 51
88.00000000244006
  0
LINE
  5
255
  8
0
  6
CONTINUOUS
 62
     7
 10
647.6467498825091
 20
350.4972201405973
 30
0.0
 11
647.6467498825091
 21
349.8755939112978
 31
0.0
  0
ARC
  5
256
  8
0
  6
CONTINUOUS
 62
     7
 10
647.3467498825129
 20
408.0455939112768
 30
0.0
 40
0.299999999999967
 50
272.0000000141753
 51
0.0
  0
ARC
  5
257
  8
0
  6
CONTINUOUS
 62
     7
 10
647.3467498825133
 20
369.2655939112908
 30
0.0
 40
0.299999999999967
 50
272.0000000141753
 51
0.0
  0
ARC
  5
258
  8
0
  6
CONTINUOUS
 62
     7
 10
647.3467498825133
 20
377.6432201405877
 30
0.0
 40
0.2999999999999527
 50
359.9999999999953
 51
88.00000000243705
  0
ARC
  5
259
  8
0
  6
CONTINUOUS
 62
     7
 10
647.3467498825131
 20
389.2772201405834
 30
0.0
 40
0.2999999999999449
 50
0.0000000000430305
 51
88.00000000247945
  0
LINE
  5
25A
  8
0
  6
CONTINUOUS
 62
     7
 10
647.6467498825086
 20
385.3992201405849
 30
0.0
 11
647.6467498825086
 21
384.7775939112853
 31
0.0
  0
LINE
  5
25B
  8
0
  6
CONTINUOUS
 62
     7
 10
348.038541949397
 20
226.7746590123554
 30
0.0
 11
350.1467894288402
 21
226.7010373882391
 31
0.0
  0
LINE
  5
25C
  8
0
  6
CONTINUOUS
 62
     7
 10
375.1363195801437
 20
218.0235939117323
 30
0.0
 11
375.1363195801214
 21
218.6452201410322
 31
0.0
  0
LINE
  5
25D
  8
0
  6
CONTINUOUS
 62
     9
 10
350.4363195801526
 20
218.0235939108466
 30
0.0
 11
352.819663176087
 21
218.023593910932
 31
0.0
  0
ARC
  5
25E
  8
0
  6
CONTINUOUS
 62
     7
 10
350.1363195801289
 20
218.6452201401356
 30
0.0
 40
0.2999999999996737
 50
0.000000002044203
 51
88.00000000396278
  0
ARC
  5
25F
  8
0
  6
CONTINUOUS
 62
     7
 10
348.055991697527
 20
232.662459624956
 30
0.0
 40
0.499999999999892
 50
92.00000000062676
 51
177.0151102044393
  0
LINE
  5
260
  8
0
  6
CONTINUOUS
 62
     7
 10
348.0385419495358
 20
222.8966590123567
 30
0.0
 11
350.1467894289793
 21
222.8230373882404
 31
0.0
  0
LINE
  5
261
  8
0
  6
CONTINUOUS
 62
     9
 10
362.6312344031439
 20
218.0235939112838
 30
0.0
 11
366.8750553099861
 21
218.0235939114362
 31
0.0
  0
ARC
  5
262
  8
0
  6
CONTINUOUS
 62
     7
 10
362.536319579649
 20
231.9074070259757
 30
0.0
 40
14.99999999999645
 50
177.0151102043172
 51
182.98486549847
  0
LINE
  5
263
  8
0
  6
CONTINUOUS
 62
     9
 10
366.8750553099867
 20
218.0235939114361
 30
0.0
 11
368.821088582372
 21
218.0235939115058
 31
0.0
  0
ARC
  5
264
  8
0
  6
CONTINUOUS
 62
     7
 10
348.0559916978052
 20
224.9064596249588
 30
0.0
 40
0.4999999999996662
 50
92.0000000006149
 51
177.0151102044481
  0
LINE
  5
265
  8
0
  6
CONTINUOUS
 62
     7
 10
350.1467894287447
 20
229.3577766627322
 30
0.0
 11
348.0385419493101
 21
229.2841550384666
 31
0.0
  0
LINE
  5
266
  8
0
  6
CONTINUOUS
 62
     9
 10
358.610133739975
 20
218.0235939111397
 30
0.0
 11
362.6312344031434
 21
218.0235939112837
 31
0.0
  0
LINE
  5
267
  8
0
  6
CONTINUOUS
 62
     7
 10
350.1467894288835
 20
225.4797766627334
 30
0.0
 11
348.038541949449
 21
225.4061550384679
 31
0.0
  0
ARC
  5
268
  8
0
  6
CONTINUOUS
 62
     7
 10
350.1363195798731
 20
225.7795939108329
 30
0.0
 40
0.299999999999967
 50
272.000000016757
 51
0.000000002077968
  0
ARC
  5
269
  8
0
  6
CONTINUOUS
 62
     7
 10
350.1363195795726
 20
234.1572201401299
 30
0.0
 40
0.2999999999999554
 50
0.0000000021008191
 51
22.39759901758453
  0
LINE
  5
26A
  8
0
  6
CONTINUOUS
 62
     9
 10
352.819663176087
 20
218.023593910932
 30
0.0
 11
353.422591220433
 21
218.0235939109537
 31
0.0
  0
ARC
  5
26B
  8
0
  6
CONTINUOUS
 62
     7
 10
348.0559916978592
 20
223.3963544259594
 30
0.0
 40
0.4999999999998154
 50
182.9841607600721
 51
268.0000001545833
  0
ARC
  5
26C
  8
0
  6
CONTINUOUS
 62
     7
 10
362.536319579788
 20
228.029407025977
 30
0.0
 40
14.99999999999647
 50
177.0151102043162
 51
182.984865498469
  0
LINE
  5
26D
  8
0
  6
CONTINUOUS
 62
     7
 10
350.436319579571
 20
234.1572201401407
 30
0.0
 11
350.4363195795934
 21
233.5355939108411
 31
0.0
  0
LINE
  5
26E
  8
0
  6
CONTINUOUS
 62
     7
 10
350.4363195798492
 20
226.4012201401435
 30
0.0
 11
350.4363195798715
 21
225.7795939108436
 31
0.0
  0
LINE
  5
26F
  8
0
  6
CONTINUOUS
 62
     9
 10
370.0454666278888
 20
218.0235939115498
 30
0.0
 11
370.8259078118243
 21
218.0235939115778
 31
0.0
  0
LINE
  5
270
  8
0
  6
CONTINUOUS
 62
     7
 10
350.4363195797101
 20
230.2792201401422
 30
0.0
 11
350.4363195797324
 21
229.6575939108423
 31
0.0
  0
LINE
  5
271
  8
0
  6
CONTINUOUS
 62
     7
 10
350.1467894286056
 20
233.2357766627309
 30
0.0
 11
348.038541949171
 21
233.1621550384653
 31
0.0
  0
LINE
  5
272
  8
0
  6
CONTINUOUS
 62
     9
 10
368.8210885823722
 20
218.0235939115058
 30
0.0
 11
369.781436636387
 21
218.0235939115402
 31
0.0
  0
LINE
  5
273
  8
0
  6
CONTINUOUS
 62
     9
 10
354.3156050911303
 20
218.0235939109858
 30
0.0
 11
358.6101337399747
 21
218.0235939111398
 31
0.0
  0
LINE
  5
274
  8
0
  6
CONTINUOUS
 62
     7
 10
348.038541949258
 20
230.6526590123541
 30
0.0
 11
350.1467894287012
 21
230.5790373882379
 31
0.0
  0
LINE
  5
275
  8
0
  6
CONTINUOUS
 62
     7
 10
350.4363195799883
 20
222.523220140145
 30
0.0
 11
350.4363195800107
 21
221.9015939108451
 31
0.0
  0
LINE
  5
276
  8
0
  6
CONTINUOUS
 62
     7
 10
350.4363195801272
 20
218.6452201401463
 30
0.0
 11
350.4363195801496
 21
218.0235939108467
 31
0.0
  0
ARC
  5
277
  8
0
  6
CONTINUOUS
 62
     7
 10
348.0559916979441
 20
221.0284596249601
 30
0.0
 40
0.4999999999998881
 50
92.00000000061402
 51
177.0151102044302
  0
ARC
  5
278
  8
0
  6
CONTINUOUS
 62
     7
 10
348.0559916979983
 20
219.5183544259609
 30
0.0
 40
0.4999999999998154
 50
182.9841607600721
 51
268.0000001545894
  0
ARC
  5
279
  8
0
  6
CONTINUOUS
 62
     7
 10
348.0559916975811
 20
231.1523544259564
 30
0.0
 40
0.4999999999998154
 50
182.9841607600721
 51
268.0000001545953
  0
ARC
  5
27A
  8
0
  6
CONTINUOUS
 62
     7
 10
350.1363195797118
 20
230.2792201401313
 30
0.0
 40
0.2999999999998956
 50
0.0000000020451125
 51
88.00000000396426
  0
LINE
  5
27B
  8
0
  6
CONTINUOUS
 62
     7
 10
350.1467894290229
 20
221.6017766627349
 30
0.0
 11
348.0385419495883
 21
221.5281550384694
 31
0.0
  0
ARC
  5
27C
  8
0
  6
CONTINUOUS
 62
     7
 10
350.1363195797339
 20
229.6575939108316
 30
0.0
 40
0.300000000000078
 50
272.0000000167756
 51
0.000000002077968
  0
ARC
  5
27D
  8
0
  6
CONTINUOUS
 62
     7
 10
350.1363195800121
 20
221.9015939108344
 30
0.0
 40
0.299999999999967
 50
272.0000000167842
 51
0.000000002077968
  0
LINE
  5
27E
  8
0
  6
CONTINUOUS
 62
     7
 10
348.0385419496751
 20
219.0186590123582
 30
0.0
 11
350.1467894291183
 21
218.945037388242
 31
0.0
  0
LINE
  5
27F
  8
0
  6
CONTINUOUS
 62
     7
 10
644.4967498818621
 20
1046.828483317082
 30
0.0
 11
644.4967498818633
 21
1046.797457124159
 31
0.0
  0
ARC
  5
280
  8
0
  6
CONTINUOUS
 62
     7
 10
350.1363195798509
 20
226.4012201401329
 30
0.0
 40
0.2999999999998956
 50
0.0000000020451125
 51
88.00000000396426
  0
LINE
  5
281
  8
0
  6
CONTINUOUS
 62
     9
 10
369.7814366363871
 20
218.0235939115402
 30
0.0
 11
370.0454666278886
 21
218.0235939115497
 31
0.0
  0
ARC
  5
282
  8
0
  6
CONTINUOUS
 62
     7
 10
375.4363195801199
 20
218.6452201410427
 30
0.0
 40
0.299999999999967
 50
107.9763964427314
 51
180.0000000020356
  0
ARC
  5
283
  8
0
  6
CONTINUOUS
 62
     7
 10
362.536319579927
 20
224.1514070259782
 30
0.0
 40
14.99999999999636
 50
177.0151102043163
 51
182.984865498469
  0
ARC
  5
284
  8
0
  6
CONTINUOUS
 62
     7
 10
348.0559916977202
 20
227.2743544259579
 30
0.0
 40
0.4999999999999262
 50
182.9841607600712
 51
268.0000001546048
  0
ARC
  5
285
  8
0
  6
CONTINUOUS
 62
     7
 10
362.5363195800661
 20
220.2734070259797
 30
0.0
 40
14.99999999999645
 50
177.0151102043172
 51
182.98486549847
  0
ARC
  5
286
  8
0
  6
CONTINUOUS
 62
     7
 10
350.1363195795948
 20
233.5355939108303
 30
0.0
 40
0.300000000000078
 50
272.0000000167942
 51
0.000000002077968
  0
ARC
  5
287
  8
0
  6
CONTINUOUS
 62
     7
 10
348.0559916976661
 20
228.7844596249573
 30
0.0
 40
0.4999999999996701
 50
92.00000000062761
 51
177.0151102044505
  0
LINE
  5
288
  8
0
  6
CONTINUOUS
 62
     9
 10
353.422591220433
 20
218.0235939109538
 30
0.0
 11
354.3156050911301
 21
218.0235939109857
 31
0.0
  0
ARC
  5
289
  8
0
  6
CONTINUOUS
 62
     7
 10
350.1363195799898
 20
222.5232201401344
 30
0.0
 40
0.2999999999998956
 50
0.0000000020655762
 51
88.00000000396426
  0
LINE
  5
28A
  8
0
  6
CONTINUOUS
 62
     9
 10
57.06146008939955
 20
238.3350373886881
 30
0.0
 11
57.64278026848361
 21
238.3350373886881
 31
0.0
  0
ARC
  5
28B
  8
0
  6
CONTINUOUS
 62
     7
 10
59.7335779995859
 20
285.4443544264929
 30
0.0
 40
0.5000000000000082
 50
271.9999998471728
 51
357.0158392419872
  0
ARC
  5
28C
  8
0
  6
CONTINUOUS
 62
     7
 10
59.73357799958562
 20
263.6864596255006
 30
0.0
 40
0.4999999999999424
 50
2.984889797599352
 51
88.00000000171373
  0
LINE
  5
28D
  8
0
  6
CONTINUOUS
 62
     7
 10
57.64278026848974
 20
315.895037388688
 30
0.0
 11
59.75102774793109
 21
315.9686590128799
 31
0.0
  0
LINE
  5
28E
  8
0
  6
CONTINUOUS
 62
     7
 10
59.75102774792735
 20
279.6981550390052
 30
0.0
 11
57.64278026848945
 21
279.7717766631949
 31
0.0
  0
ARC
  5
28F
  8
0
  6
CONTINUOUS
 62
     7
 10
59.73357799958595
 20
290.832459625491
 30
0.0
 40
0.5000000000000094
 50
2.984889797624517
 51
88.0000000017389
  0
ARC
  5
290
  8
0
  6
CONTINUOUS
 62
     7
 10
59.73357799958573
 20
275.3204596254965
 30
0.0
 40
0.4999999999999978
 50
2.984889797598985
 51
88.00000000171343
  0
ARC
  5
291
  8
0
  6
CONTINUOUS
 62
     7
 10
59.73357799958567
 20
271.4424596254981
 30
0.0
 40
0.5000000000000532
 50
2.984889797598619
 51
88.00000000171458
  0
LINE
  5
292
  8
0
  6
CONTINUOUS
 62
     7
 10
59.75102774792801
 20
326.2341550389882
 30
0.0
 11
57.64278026849019
 21
326.3077766631783
 31
0.0
  0
ARC
  5
293
  8
0
  6
CONTINUOUS
 62
     7
 10
59.73357799958573
 20
273.8103544264969
 30
0.0
 40
0.4999999999997863
 50
271.9999998471737
 51
357.0158392419879
  0
ARC
  5
294
  8
0
  6
CONTINUOUS
 62
     7
 10
59.73357799958584
 20
281.5663544264943
 30
0.0
 40
0.5000000000000063
 50
271.9999998471665
 51
357.0158392419809
  0
ARC
  5
295
  8
0
  6
CONTINUOUS
 62
     7
 10
59.73357799958551
 20
258.2983544265025
 30
0.0
 40
0.4999999999997863
 50
271.9999998471737
 51
357.0158392419896
  0
ARC
  5
296
  8
0
  6
CONTINUOUS
 62
     7
 10
59.73357799958639
 20
317.9784596254813
 30
0.0
 40
0.4999999999999308
 50
2.98488979757382
 51
88.00000000168666
  0
ARC
  5
297
  8
0
  6
CONTINUOUS
 62
     7
 10
59.73357799958562
 20
266.0543544264999
 30
0.0
 40
0.5000000000000063
 50
271.9999998471665
 51
357.0158392419809
  0
ARC
  5
298
  8
0
  6
CONTINUOUS
 62
     7
 10
59.73357799958628
 20
314.1004596254826
 30
0.0
 40
0.4999999999999978
 50
2.984889797598985
 51
88.00000000171336
  0
ARC
  5
299
  8
0
  6
CONTINUOUS
 62
     7
 10
59.733577999586
 20
294.7104596254897
 30
0.0
 40
0.4999999999999978
 50
2.984889797598985
 51
88.00000000171336
  0
ARC
  5
29A
  8
0
  6
CONTINUOUS
 62
     7
 10
59.73357799958545
 20
255.9304596255036
 30
0.0
 40
0.5000000000000532
 50
2.984889797598619
 51
88.000000001713
  0
LINE
  5
29B
  8
0
  6
CONTINUOUS
 62
     7
 10
57.64278026848974
 20
312.0170373886895
 30
0.0
 11
59.75102774793102
 21
312.0906590128815
 31
0.0
  0
LINE
  5
29C
  8
0
  6
CONTINUOUS
 62
     7
 10
59.75102774792779
 20
310.7221550389938
 30
0.0
 11
57.64278026848997
 21
310.7957766631839
 31
0.0
  0
LINE
  5
29D
  8
0
  6
CONTINUOUS
 62
     7
 10
59.75102774792779
 20
306.8441550389953
 30
0.0
 11
57.6427802684899
 21
306.9177766631854
 31
0.0
  0
LINE
  5
29E
  8
0
  6
CONTINUOUS
 62
     7
 10
57.64278026848962
 20
304.2610373886923
 30
0.0
 11
59.75102774793091
 21
304.3346590128839
 31
0.0
  0
LINE
  5
29F
  8
0
  6
CONTINUOUS
 62
     7
 10
57.64278026848957
 20
300.3830373886938
 30
0.0
 11
59.75102774793092
 21
300.4566590128855
 31
0.0
  0
LINE
  5
2A0
  8
0
  6
CONTINUOUS
 62
     7
 10
59.75102774792767
 20
299.0881550389983
 30
0.0
 11
57.64278026848979
 21
299.1617766631881
 31
0.0
  0
LINE
  5
2A1
  8
0
  6
CONTINUOUS
 62
     7
 10
59.75102774792751
 20
287.4541550390024
 30
0.0
 11
57.64278026848962
 21
287.5277766631925
 31
0.0
  0
LINE
  5
2A2
  8
0
  6
CONTINUOUS
 62
     7
 10
59.75102774792745
 20
283.5761550390037
 30
0.0
 11
57.64278026848957
 21
283.6497766631934
 31
0.0
  0
LINE
  5
2A3
  8
0
  6
CONTINUOUS
 62
     7
 10
59.75102774792729
 20
275.8201550390065
 30
0.0
 11
57.64278026848947
 21
275.8937766631965
 31
0.0
  0
LINE
  5
2A4
  8
0
  6
CONTINUOUS
 62
     7
 10
57.64278026849006
 20
331.4070373886824
 30
0.0
 11
59.75102774793135
 21
331.4806590128744
 31
0.0
  0
ARC
  5
2A5
  8
0
  6
CONTINUOUS
 62
     7
 10
59.73357799958551
 20
259.8084596255021
 30
0.0
 40
0.4999999999999978
 50
2.984889797598985
 51
88.00000000171336
  0
LINE
  5
2A6
  8
0
  6
CONTINUOUS
 62
     7
 10
57.64278026848935
 20
284.8710373886993
 30
0.0
 11
59.7510277479307
 21
284.9446590128911
 31
0.0
  0
ARC
  5
2A7
  8
0
  6
CONTINUOUS
 62
     7
 10
59.73357799958617
 20
306.3444596254856
 30
0.0
 40
0.4999999999999424
 50
2.984889797599352
 51
88.00000000171373
  0
LINE
  5
2A8
  8
0
  6
CONTINUOUS
 62
     7
 10
59.75102774792729
 20
271.9421550390077
 30
0.0
 11
57.6427802684894
 21
272.0157766631978
 31
0.0
  0
LINE
  5
2A9
  8
0
  6
CONTINUOUS
 62
     7
 10
57.64278026848913
 20
269.3590373887047
 30
0.0
 11
59.75102774793041
 21
269.4326590128964
 31
0.0
  0
LINE
  5
2AA
  8
0
  6
CONTINUOUS
 62
     7
 10
59.75102774792751
 20
291.3321550390009
 30
0.0
 11
57.64278026848969
 21
291.4057766631909
 31
0.0
  0
LINE
  5
2AB
  8
0
  6
CONTINUOUS
 62
     7
 10
59.75102774792801
 20
322.3561550389898
 30
0.0
 11
57.64278026849012
 21
322.4297766631798
 31
0.0
  0
LINE
  5
2AC
  8
0
  6
CONTINUOUS
 62
     7
 10
57.64278026848929
 20
277.1150373887019
 30
0.0
 11
59.75102774793058
 21
277.1886590128939
 31
0.0
  0
LINE
  5
2AD
  8
0
  6
CONTINUOUS
 62
     7
 10
59.75102774792723
 20
268.0641550390093
 30
0.0
 11
57.64278026848935
 21
268.1377766631993
 31
0.0
  0
LINE
  5
2AE
  8
0
  6
CONTINUOUS
 62
     7
 10
57.64278026848907
 20
265.4810373887062
 30
0.0
 11
59.75102774793042
 21
265.5546590128979
 31
0.0
  0
LINE
  5
2AF
  8
0
  6
CONTINUOUS
 62
     7
 10
59.75102774792717
 20
264.1861550390108
 30
0.0
 11
57.64278026848929
 21
264.2597766632006
 31
0.0
  0
ARC
  5
2B0
  8
0
  6
CONTINUOUS
 62
     7
 10
59.73357799958584
 20
277.6883544264958
 30
0.0
 40
0.5000000000000063
 50
271.9999998471665
 51
357.0158392419809
  0
ARC
  5
2B1
  8
0
  6
CONTINUOUS
 62
     7
 10
59.73357799958567
 20
269.9323544264984
 30
0.0
 40
0.5000000000000082
 50
271.9999998471728
 51
357.0158392419872
  0
ARC
  5
2B2
  8
0
  6
CONTINUOUS
 62
     7
 10
59.73357799958645
 20
325.7344596254785
 30
0.0
 40
0.4999999999999978
 50
2.984889797598985
 51
88.00000000171488
  0
ARC
  5
2B3
  8
0
  6
CONTINUOUS
 62
     7
 10
59.73357799958617
 20
302.4664596254867
 30
0.0
 40
0.4999999999999424
 50
2.984889797599352
 51
88.00000000171394
  0
ARC
  5
2B4
  8
0
  6
CONTINUOUS
 62
     7
 10
59.73357799958606
 20
298.5884596254882
 30
0.0
 40
0.4999999999999978
 50
2.984889797598985
 51
88.00000000171497
  0
ARC
  5
2B5
  8
0
  6
CONTINUOUS
 62
     7
 10
59.7335779995859
 20
283.0764596254938
 30
0.0
 40
0.4999999999999978
 50
2.984889797598985
 51
88.00000000171488
  0
ARC
  5
2B6
  8
0
  6
CONTINUOUS
 62
     7
 10
59.73357799958584
 20
279.198459625495
 30
0.0
 40
0.4999999999999539
 50
2.98488979762476
 51
88.00000000173914
  0
ARC
  5
2B7
  8
0
  6
CONTINUOUS
 62
     7
 10
59.73357799958567
 20
267.5644596254991
 30
0.0
 40
0.5000000000000094
 50
2.984889797624517
 51
88.0000000017389
  0
LINE
  5
2B8
  8
0
  6
CONTINUOUS
 62
     7
 10
57.64278026848996
 20
327.5290373886839
 30
0.0
 11
59.75102774793124
 21
327.6026590128759
 31
0.0
  0
ARC
  5
2B9
  8
0
  6
CONTINUOUS
 62
     7
 10
59.73357799958651
 20
329.6124596254772
 30
0.0
 40
0.4999999999999862
 50
2.984889797573577
 51
88.0000000016896
  0
LINE
  5
2BA
  8
0
  6
CONTINUOUS
 62
     7
 10
57.64278026848984
 20
319.7730373886869
 30
0.0
 11
59.75102774793113
 21
319.8466590128786
 31
0.0
  0
LINE
  5
2BB
  8
0
  6
CONTINUOUS
 62
     7
 10
59.7510277479279
 20
318.4781550389912
 30
0.0
 11
57.64278026849001
 21
318.551776663181
 31
0.0
  0
LINE
  5
2BC
  8
0
  6
CONTINUOUS
 62
     7
 10
59.75102774792773
 20
302.9661550389968
 30
0.0
 11
57.64278026848984
 21
303.0397766631869
 31
0.0
  0
ARC
  5
2BD
  8
0
  6
CONTINUOUS
 62
     7
 10
59.73357799958562
 20
262.1763544265012
 30
0.0
 40
0.5000000000000063
 50
271.9999998471665
 51
357.0158392419825
  0
ARC
  5
2BE
  8
0
  6
CONTINUOUS
 62
     7
 10
59.73357799958639
 20
321.8564596254798
 30
0.0
 40
0.5000000000000532
 50
2.984889797598619
 51
88.00000000171147
  0
LINE
  5
2BF
  8
0
  6
CONTINUOUS
 62
     7
 10
57.64278026848957
 20
296.505037388695
 30
0.0
 11
59.75102774793086
 21
296.578659012887
 31
0.0
  0
LINE
  5
2C0
  8
0
  6
CONTINUOUS
 62
     7
 10
59.75102774792757
 20
295.2101550389994
 30
0.0
 11
57.64278026848974
 21
295.2837766631894
 31
0.0
  0
LINE
  5
2C1
  8
0
  6
CONTINUOUS
 62
     7
 10
57.64278026848951
 20
292.6270373886964
 30
0.0
 11
59.7510277479308
 21
292.700659012888
 31
0.0
  0
ARC
  5
2C2
  8
0
  6
CONTINUOUS
 62
     7
 10
59.73357799958623
 20
310.2224596254841
 30
0.0
 40
0.4999999999999978
 50
2.984889797598985
 51
88.00000000171488
  0
ARC
  5
2C3
  8
0
  6
CONTINUOUS
 62
     7
 10
59.7335779995859
 20
286.9544596254922
 30
0.0
 40
0.5000000000000532
 50
2.984889797598619
 51
88.00000000171306
  0
LINE
  5
2C4
  8
0
  6
CONTINUOUS
 62
     7
 10
59.75102774792806
 20
330.1121550389872
 30
0.0
 11
57.64278026849018
 21
330.1857766631769
 31
0.0
  0
LINE
  5
2C5
  8
0
  6
CONTINUOUS
 62
     7
 10
57.64278026848968
 20
308.139037388691
 30
0.0
 11
59.75102774793096
 21
308.2126590128827
 31
0.0
  0
LINE
  5
2C6
  8
0
  6
CONTINUOUS
 62
     7
 10
59.75102774792784
 20
314.6001550389927
 30
0.0
 11
57.64278026848996
 21
314.6737766631825
 31
0.0
  0
LINE
  5
2C7
  8
0
  6
CONTINUOUS
 62
     7
 10
57.6427802684899
 20
323.6510373886854
 30
0.0
 11
59.75102774793119
 21
323.7246590128771
 31
0.0
  0
LINE
  5
2C8
  8
0
  6
CONTINUOUS
 62
     7
 10
57.64278026848935
 20
280.9930373887004
 30
0.0
 11
59.75102774793063
 21
281.0666590128924
 31
0.0
  0
LINE
  5
2C9
  8
0
  6
CONTINUOUS
 62
     7
 10
57.6427802684894
 20
288.7490373886978
 30
0.0
 11
59.75102774793069
 21
288.8226590128896
 31
0.0
  0
LINE
  5
2CA
  8
0
  6
CONTINUOUS
 62
     7
 10
57.64278026848918
 20
273.2370373887034
 30
0.0
 11
59.75102774793046
 21
273.3106590128951
 31
0.0
  0
ARC
  5
2CB
  8
0
  6
CONTINUOUS
 62
     7
 10
57.6532501174869
 20
307.2175939112851
 30
0.0
 40
0.2999999999998798
 50
179.9999999999989
 51
267.9999999858239
  0
ARC
  5
2CC
  8
0
  6
CONTINUOUS
 62
     7
 10
57.6532501174864
 20
272.9372201405975
 30
0.0
 40
0.2999999999999114
 50
91.99999999755825
 51
180.0
  0
ARC
  5
2CD
  8
0
  6
CONTINUOUS
 62
     7
 10
57.65325011748729
 20
330.485593911277
 30
0.0
 40
0.3000000000003236
 50
180.0000000000022
 51
267.9999999858269
  0
ARC
  5
2CE
  8
0
  6
CONTINUOUS
 62
     7
 10
57.6532501174864
 20
269.0592201405986
 30
0.0
 40
0.299999999999967
 50
91.9999999975609
 51
180.0
  0
ARC
  5
2CF
  8
0
  6
CONTINUOUS
 62
     7
 10
57.65325011748706
 20
314.9735939112825
 30
0.0
 40
0.2999999999998798
 50
179.9999999999962
 51
267.9999999858239
  0
ARC
  5
2D0
  8
0
  6
CONTINUOUS
 62
     7
 10
57.6532501174864
 20
268.4375939112991
 30
0.0
 40
0.2999999999998798
 50
179.9999999999962
 51
267.9999999858239
  0
ARC
  5
2D1
  8
0
  6
CONTINUOUS
 62
     7
 10
57.65325011748684
 20
299.4615939112881
 30
0.0
 40
0.3000000000001017
 50
179.999999999998
 51
267.9999999858254
  0
ARC
  5
2D2
  8
0
  6
CONTINUOUS
 62
     7
 10
57.65325011748634
 20
265.1812201406001
 30
0.0
 40
0.3000000000000225
 50
91.99999999755782
 51
180.0
  0
LINE
  5
2D3
  8
0
  6
CONTINUOUS
 62
     7
 10
57.35325011749176
 20
330.485593911277
 30
0.0
 11
57.35325011749183
 21
331.1072201405766
 31
0.0
  0
LINE
  5
2D4
  8
0
  6
CONTINUOUS
 62
     7
 10
57.35325011749176
 20
326.607593911278
 30
0.0
 11
57.35325011749176
 21
327.2292201405779
 31
0.0
  0
LINE
  5
2D5
  8
0
  6
CONTINUOUS
 62
     7
 10
57.35325011749143
 20
303.3395939112866
 30
0.0
 11
57.35325011749143
 21
303.9612201405865
 31
0.0
  0
LINE
  5
2D6
  8
0
  6
CONTINUOUS
 62
     7
 10
57.35325011749154
 20
311.095593911284
 30
0.0
 11
57.35325011749154
 21
311.7172201405837
 31
0.0
  0
LINE
  5
2D7
  8
0
  6
CONTINUOUS
 62
     7
 10
57.35325011749154
 20
314.9735939112825
 30
0.0
 11
57.35325011749154
 21
315.5952201405822
 31
0.0
  0
LINE
  5
2D8
  8
0
  6
CONTINUOUS
 62
     7
 10
57.35325011749131
 20
299.4615939112881
 30
0.0
 11
57.35325011749131
 21
300.0832201405877
 31
0.0
  0
LINE
  5
2D9
  8
0
  6
CONTINUOUS
 62
     7
 10
57.35325011749148
 20
307.2175939112851
 30
0.0
 11
57.35325011749148
 21
307.839220140585
 31
0.0
  0
LINE
  5
2DA
  8
0
  6
CONTINUOUS
 62
     7
 10
57.35325011749131
 20
295.5835939112894
 30
0.0
 11
57.35325011749131
 21
296.205220140589
 31
0.0
  0
ARC
  5
2DB
  8
0
  6
CONTINUOUS
 62
     7
 10
57.65325011748718
 20
327.229220140578
 30
0.0
 40
0.3000000000000225
 50
91.99999999756336
 51
180.0
  0
LINE
  5
2DC
  8
0
  6
CONTINUOUS
 62
     7
 10
57.35325011749126
 20
291.7055939112907
 30
0.0
 11
57.35325011749126
 21
292.3272201405906
 31
0.0
  0
ARC
  5
2DD
  8
0
  6
CONTINUOUS
 62
     7
 10
57.65325011748706
 20
315.5952201405821
 30
0.0
 40
0.3000000000000225
 50
91.99999999756086
 51
180.0
  0
ARC
  5
2DE
  8
0
  6
CONTINUOUS
 62
     7
 10
57.65325011748684
 20
303.3395939112866
 30
0.0
 40
0.2999999999998798
 50
179.9999999999989
 51
267.9999999858239
  0
ARC
  5
2DF
  8
0
  6
CONTINUOUS
 62
     7
 10
57.65325011748673
 20
291.7055939112907
 30
0.0
 40
0.2999999999998798
 50
179.9999999999992
 51
267.9999999858239
  0
ARC
  5
2E0
  8
0
  6
CONTINUOUS
 62
     7
 10
57.65325011748651
 20
276.815220140596
 30
0.0
 40
0.299999999999967
 50
91.99999999755795
 51
180.0
  0
LINE
  5
2E1
  8
0
  6
CONTINUOUS
 62
     7
 10
57.35325011749109
 20
283.9495939112935
 30
0.0
 11
57.35325011749109
 21
284.5712201405931
 31
0.0
  0
LINE
  5
2E2
  8
0
  6
CONTINUOUS
 62
     7
 10
57.35325011749093
 20
268.4375939112991
 30
0.0
 11
57.35325011749093
 21
269.0592201405987
 31
0.0
  0
LINE
  5
2E3
  8
0
  6
CONTINUOUS
 62
     7
 10
59.75102774792712
 20
256.4301550390134
 30
0.0
 11
57.64278026848923
 21
256.5037766632034
 31
0.0
  0
ARC
  5
2E4
  8
0
  6
CONTINUOUS
 62
     7
 10
57.65325011748634
 20
264.5595939113006
 30
0.0
 40
0.3000000000001017
 50
180.0000000000007
 51
267.9999999858254
  0
LINE
  5
2E5
  8
0
  6
CONTINUOUS
 62
     7
 10
57.35325011749076
 20
256.8035939113032
 30
0.0
 11
57.35325011749076
 21
257.425220140603
 31
0.0
  0
ARC
  5
2E6
  8
0
  6
CONTINUOUS
 62
     7
 10
57.65325011748712
 20
322.7295939112796
 30
0.0
 40
0.2999999999998798
 50
179.9999999999989
 51
267.9999999858239
  0
ARC
  5
2E7
  8
0
  6
CONTINUOUS
 62
     7
 10
57.6532501174869
 20
303.9612201405864
 30
0.0
 40
0.3000000000000225
 50
91.99999999755795
 51
180.0
  0
ARC
  5
2E8
  8
0
  6
CONTINUOUS
 62
     7
 10
57.65325011748662
 20
284.5712201405932
 30
0.0
 40
0.3000000000000225
 50
91.99999999756052
 51
180.0
  0
ARC
  5
2E9
  8
0
  6
CONTINUOUS
 62
     7
 10
57.65325011748656
 20
280.6932201405945
 30
0.0
 40
0.3000000000000225
 50
91.9999999975609
 51
180.0
  0
ARC
  5
2EA
  8
0
  6
CONTINUOUS
 62
     7
 10
57.65325011748662
 20
287.8275939112922
 30
0.0
 40
0.3000000000001017
 50
180.0000000000003
 51
267.9999999858254
  0
ARC
  5
2EB
  8
0
  6
CONTINUOUS
 62
     7
 10
57.6532501174864
 20
272.3155939112975
 30
0.0
 40
0.2999999999998798
 50
179.9999999999991
 51
267.9999999858239
  0
LINE
  5
2EC
  8
0
  6
CONTINUOUS
 62
     7
 10
57.35325011749159
 20
318.851593911281
 30
0.0
 11
57.35325011749159
 21
319.4732201405807
 31
0.0
  0
ARC
  5
2ED
  8
0
  6
CONTINUOUS
 62
     7
 10
57.65325011748651
 20
276.1935939112963
 30
0.0
 40
0.3000000000001017
 50
180.0000000000003
 51
267.9999999858254
  0
ARC
  5
2EE
  8
0
  6
CONTINUOUS
 62
     7
 10
57.65325011748673
 20
292.3272201405904
 30
0.0
 40
0.299999999999967
 50
91.99999999755825
 51
180.0
  0
ARC
  5
2EF
  8
0
  6
CONTINUOUS
 62
     7
 10
57.65325011748629
 20
260.6815939113018
 30
0.0
 40
0.3000000000001017
 50
180.0000000000003
 51
267.9999999858254
  0
ARC
  5
2F0
  8
0
  6
CONTINUOUS
 62
     7
 10
57.65325011748729
 20
331.1072201405767
 30
0.0
 40
0.300000000000078
 50
91.99999999755795
 51
180.0
  0
ARC
  5
2F1
  8
0
  6
CONTINUOUS
 62
     7
 10
57.6532501174869
 20
307.839220140585
 30
0.0
 40
0.2999999999999114
 50
91.99999999755825
 51
180.0
  0
LINE
  5
2F2
  8
0
  6
CONTINUOUS
 62
     7
 10
57.35325011749165
 20
322.7295939112796
 30
0.0
 11
57.35325011749165
 21
323.3512201405794
 31
0.0
  0
LINE
  5
2F3
  8
0
  6
CONTINUOUS
 62
     7
 10
57.35325011749121
 20
287.8275939112922
 30
0.0
 11
57.35325011749121
 21
288.4492201405921
 31
0.0
  0
LINE
  5
2F4
  8
0
  6
CONTINUOUS
 62
     7
 10
57.35325011749104
 20
280.071593911295
 30
0.0
 11
57.35325011749111
 21
280.6932201405946
 31
0.0
  0
ARC
  5
2F5
  8
0
  6
CONTINUOUS
 62
     7
 10
57.65325011748718
 20
326.607593911278
 30
0.0
 40
0.2999999999998798
 50
179.9999999999986
 51
267.9999999858239
  0
ARC
  5
2F6
  8
0
  6
CONTINUOUS
 62
     7
 10
57.65325011748706
 20
318.851593911281
 30
0.0
 40
0.2999999999998798
 50
179.9999999999992
 51
267.9999999858239
  0
ARC
  5
2F7
  8
0
  6
CONTINUOUS
 62
     7
 10
57.65325011748662
 20
288.4492201405919
 30
0.0
 40
0.299999999999967
 50
91.99999999755825
 51
180.0
  0
ARC
  5
2F8
  8
0
  6
CONTINUOUS
 62
     7
 10
57.65325011748712
 20
323.3512201405795
 30
0.0
 40
0.299999999999967
 50
91.99999999755795
 51
180.0
  0
ARC
  5
2F9
  8
0
  6
CONTINUOUS
 62
     7
 10
57.65325011748662
 20
283.9495939112935
 30
0.0
 40
0.2999999999998798
 50
179.9999999999961
 51
267.9999999858239
  0
ARC
  5
2FA
  8
0
  6
CONTINUOUS
 62
     7
 10
57.65325011748629
 20
261.3032201406016
 30
0.0
 40
0.3000000000000225
 50
91.99999999755819
 51
180.0
  0
LINE
  5
2FB
  8
0
  6
CONTINUOUS
 62
     7
 10
57.35325011749098
 20
272.3155939112975
 30
0.0
 11
57.35325011749098
 21
272.9372201405974
 31
0.0
  0
LINE
  5
2FC
  8
0
  6
CONTINUOUS
 62
     7
 10
57.64278026848907
 20
261.6030373887075
 30
0.0
 11
59.75102774793035
 21
261.6766590128995
 31
0.0
  0
ARC
  5
2FD
  8
0
  6
CONTINUOUS
 62
     7
 10
57.65325011748678
 20
295.5835939112892
 30
0.0
 40
0.2999999999998798
 50
179.9999999999962
 51
267.9999999858239
  0
ARC
  5
2FE
  8
0
  6
CONTINUOUS
 62
     7
 10
57.65325011748656
 20
280.071593911295
 30
0.0
 40
0.3000000000001017
 50
179.9999999999978
 51
267.9999999858254
  0
LINE
  5
2FF
  8
0
  6
CONTINUOUS
 62
     7
 10
59.75102774792712
 20
260.3081550390118
 30
0.0
 11
57.6427802684893
 21
260.3817766632019
 31
0.0
  0
ARC
  5
300
  8
0
  6
CONTINUOUS
 62
     7
 10
57.65325011748678
 20
296.2052201405891
 30
0.0
 40
0.3000000000000225
 50
91.99999999756052
 51
180.0
  0
ARC
  5
301
  8
0
  6
CONTINUOUS
 62
     7
 10
57.65325011748623
 20
256.8035939113032
 30
0.0
 40
0.2999999999998798
 50
179.9999999999989
 51
267.9999999858239
  0
LINE
  5
302
  8
0
  6
CONTINUOUS
 62
     7
 10
57.35325011749087
 20
264.5595939113006
 30
0.0
 11
57.35325011749094
 21
265.1812201406002
 31
0.0
  0
ARC
  5
303
  8
0
  6
CONTINUOUS
 62
     7
 10
57.65325011748696
 20
311.095593911284
 30
0.0
 40
0.3000000000003236
 50
180.000000000002
 51
267.9999999858269
  0
LINE
  5
304
  8
0
  6
CONTINUOUS
 62
     7
 10
57.35325011749104
 20
276.1935939112963
 30
0.0
 11
57.35325011749104
 21
276.8152201405962
 31
0.0
  0
LINE
  5
305
  8
0
  6
CONTINUOUS
 62
     7
 10
57.35325011749087
 20
260.6815939113018
 30
0.0
 11
57.35325011749087
 21
261.3032201406015
 31
0.0
  0
ARC
  5
306
  8
0
  6
CONTINUOUS
 62
     7
 10
57.65325011748623
 20
257.4252201406031
 30
0.0
 40
0.299999999999967
 50
91.99999999755782
 51
180.0
  0
ARC
  5
307
  8
0
  6
CONTINUOUS
 62
     7
 10
57.65325011748684
 20
300.0832201405876
 30
0.0
 40
0.3000000000000225
 50
91.99999999756086
 51
180.0
  0
ARC
  5
308
  8
0
  6
CONTINUOUS
 62
     7
 10
57.65325011748712
 20
319.4732201405808
 30
0.0
 40
0.3000000000000225
 50
91.99999999755825
 51
180.0
  0
LINE
  5
309
  8
0
  6
CONTINUOUS
 62
     7
 10
57.64278026848901
 20
257.7250373887088
 30
0.0
 11
59.7510277479303
 21
257.7986590129005
 31
0.0
  0
ARC
  5
30A
  8
0
  6
CONTINUOUS
 62
     7
 10
57.65325011748696
 20
311.7172201405835
 30
0.0
 40
0.299999999999967
 50
91.99999999755825
 51
180.0
  0
ARC
  5
30B
  8
0
  6
CONTINUOUS
 62
     7
 10
59.733577999586
 20
372.2704596254895
 30
0.0
 40
0.4999999999999978
 50
2.984889797598985
 51
88.00000000171185
  0
ARC
  5
30C
  8
0
  6
CONTINUOUS
 62
     7
 10
59.73357799958551
 20
337.368459625502
 30
0.0
 40
0.4999999999999978
 50
2.984889797598985
 51
88.00000000171501
  0
ARC
  5
30D
  8
0
  6
CONTINUOUS
 62
     7
 10
45.25325011749081
 20
344.3694070259999
 30
0.0
 40
15.0
 50
357.015134503585
 51
2.984889797736912
  0
ARC
  5
30E
  8
0
  6
CONTINUOUS
 62
     7
 10
59.73357799958617
 20
382.3943544264861
 30
0.0
 40
0.5000000000000063
 50
271.9999998471665
 51
357.015839241984
  0
ARC
  5
30F
  8
0
  6
CONTINUOUS
 62
     7
 10
59.73357799958623
 20
386.2723544264845
 30
0.0
 40
0.5000000000000082
 50
271.9999998471728
 51
357.0158392419872
  0
ARC
  5
310
  8
0
  6
CONTINUOUS
 62
     7
 10
45.25325011749065
 20
332.735407026004
 30
0.0
 40
14.99999999999996
 50
359.9999999999983
 51
2.984889797735946
  0
ARC
  5
311
  8
0
  6
CONTINUOUS
 62
     7
 10
59.73357799958617
 20
380.026459625487
 30
0.0
 40
0.4999999999999308
 50
2.98488979757382
 51
88.00000000168686
  0
ARC
  5
312
  8
0
  6
CONTINUOUS
 62
     7
 10
59.7335779995859
 20
364.5144596254923
 30
0.0
 40
0.5000000000000532
 50
2.984889797598619
 51
88.00000000171464
  0
ARC
  5
313
  8
0
  6
CONTINUOUS
 62
     7
 10
59.73357799958623
 20
387.782459625484
 30
0.0
 40
0.4999999999999978
 50
2.984889797598985
 51
52.61816350445646
  0
ARC
  5
314
  8
0
  6
CONTINUOUS
 62
     7
 10
45.25325011749109
 20
363.7594070259929
 30
0.0
 40
14.99999999999999
 50
357.0151345035857
 51
2.98488979773748
  0
ARC
  5
315
  8
0
  6
CONTINUOUS
 62
     7
 10
59.7335779995859
 20
360.6364596254938
 30
0.0
 40
0.4999999999999978
 50
2.984889797598985
 51
88.00000000171488
  0
ARC
  5
316
  8
0
  6
CONTINUOUS
 62
     7
 10
45.25325011749065
 20
336.6134070260025
 30
0.0
 40
15.00000000000006
 50
357.0151345035852
 51
2.984889797736856
  0
ARC
  5
317
  8
0
  6
CONTINUOUS
 62
     7
 10
45.25325011749132
 20
379.2714070259873
 30
0.0
 40
14.99999999999999
 50
357.0151345035857
 51
2.984889797737594
  0
ARC
  5
318
  8
0
  6
CONTINUOUS
 62
     7
 10
59.7335779995859
 20
363.0043544264931
 30
0.0
 40
0.5000000000000082
 50
271.9999998471728
 51
357.0158392419871
  0
ARC
  5
319
  8
0
  6
CONTINUOUS
 62
     7
 10
59.73357799958606
 20
376.148459625488
 30
0.0
 40
0.4999999999999978
 50
2.984889797598985
 51
88.00000000171488
  0
ARC
  5
31A
  8
0
  6
CONTINUOUS
 62
     7
 10
59.73357799958567
 20
349.0024596254979
 30
0.0
 40
0.5000000000000532
 50
2.984889797598619
 51
88.00000000171451
  0
LINE
  5
31B
  8
0
  6
CONTINUOUS
 62
     7
 10
57.64278026848962
 20
381.8210373886921
 30
0.0
 11
59.75102774793091
 21
381.8946590128838
 31
0.0
  0
LINE
  5
31C
  8
0
  6
CONTINUOUS
 62
     7
 10
59.75102774792773
 20
380.5261550389966
 30
0.0
 11
57.64278026848984
 21
380.5997766631867
 31
0.0
  0
ARC
  5
31D
  8
0
  6
CONTINUOUS
 62
     7
 10
45.25325011749087
 20
348.2474070259984
 30
0.0
 40
15.0
 50
357.015134503585
 51
2.984889797736742
  0
ARC
  5
31E
  8
0
  6
CONTINUOUS
 62
     7
 10
45.25325011749104
 20
359.8814070259943
 30
0.0
 40
15.0
 50
357.015134503585
 51
2.984889797736685
  0
LINE
  5
31F
  8
0
  6
CONTINUOUS
 62
     7
 10
59.75102774792767
 20
376.648155038998
 30
0.0
 11
57.64278026848979
 21
376.721776663188
 31
0.0
  0
LINE
  5
320
  8
0
  6
CONTINUOUS
 62
     7
 10
57.64278026848957
 20
374.0650373886951
 30
0.0
 11
59.75102774793086
 21
374.1386590128868
 31
0.0
  0
LINE
  5
321
  8
0
  6
CONTINUOUS
 62
     7
 10
57.64278026848968
 20
385.6990373886906
 30
0.0
 11
59.75102774793096
 21
385.7726590128826
 31
0.0
  0
ARC
  5
322
  8
0
  6
CONTINUOUS
 62
     7
 10
45.25325011749115
 20
367.6374070259914
 30
0.0
 40
14.99999999999999
 50
357.0151345035857
 51
2.98488979773748
  0
LINE
  5
323
  8
0
  6
CONTINUOUS
 62
     7
 10
59.75102774792779
 20
384.4041550389952
 30
0.0
 11
57.6427802684899
 21
384.4777766631852
 31
0.0
  0
LINE
  5
324
  8
0
  6
CONTINUOUS
 62
     7
 10
59.75102774792757
 20
372.7701550389995
 30
0.0
 11
57.64278026848974
 21
372.8437766631895
 31
0.0
  0
LINE
  5
325
  8
0
  6
CONTINUOUS
 62
     7
 10
57.64278026848951
 20
370.1870373886966
 30
0.0
 11
59.7510277479308
 21
370.2606590128884
 31
0.0
  0
ARC
  5
326
  8
0
  6
CONTINUOUS
 62
     7
 10
59.73357799958584
 20
359.1263544264942
 30
0.0
 40
0.5000000000000063
 50
271.9999998471665
 51
357.0158392419809
  0
ARC
  5
327
  8
0
  6
CONTINUOUS
 62
     7
 10
45.25325011749076
 20
340.491407026001
 30
0.0
 40
14.99999999999999
 50
357.0151345035857
 51
2.984889797737424
  0
ARC
  5
328
  8
0
  6
CONTINUOUS
 62
     7
 10
59.73357799958606
 20
378.5163544264871
 30
0.0
 40
0.5000000000000082
 50
271.9999998471728
 51
357.0158392419871
  0
ARC
  5
329
  8
0
  6
CONTINUOUS
 62
     7
 10
59.73357799958567
 20
347.4923544264985
 30
0.0
 40
0.5000000000000082
 50
271.9999998471728
 51
357.0158392419872
  0
LINE
  5
32A
  8
0
  6
CONTINUOUS
 62
     7
 10
59.75102774792751
 20
368.892155039001
 30
0.0
 11
57.64278026848969
 21
368.9657766631908
 31
0.0
  0
ARC
  5
32B
  8
0
  6
CONTINUOUS
 62
     7
 10
59.733577999586
 20
370.7603544264902
 30
0.0
 40
0.5000000000000082
 50
271.9999998471728
 51
357.0158392419871
  0
LINE
  5
32C
  8
0
  6
CONTINUOUS
 62
     7
 10
57.6427802684894
 20
366.3090373886977
 30
0.0
 11
59.75102774793069
 21
366.3826590128897
 31
0.0
  0
ARC
  5
32D
  8
0
  6
CONTINUOUS
 62
     7
 10
45.25325011749121
 20
375.3934070259888
 30
0.0
 40
15.00000000000005
 50
357.0151345035861
 51
2.984889797737821
  0
LINE
  5
32E
  8
0
  6
CONTINUOUS
 62
     7
 10
59.75102774792751
 20
365.014155039002
 30
0.0
 11
57.64278026848962
 21
365.0877766631921
 31
0.0
  0
LINE
  5
32F
  8
0
  6
CONTINUOUS
 62
     7
 10
59.75102774792745
 20
361.1361550390035
 30
0.0
 11
57.64278026848957
 21
361.2097766631936
 31
0.0
  0
ARC
  5
330
  8
0
  6
CONTINUOUS
 62
     7
 10
59.73357799958573
 20
351.3703544264972
 30
0.0
 40
0.5000000000000082
 50
271.9999998471728
 51
357.0158392419901
  0
LINE
  5
331
  8
0
  6
CONTINUOUS
 62
     7
 10
57.64278026848935
 20
362.4310373886992
 30
0.0
 11
59.7510277479307
 21
362.5046590128909
 31
0.0
  0
LINE
  5
332
  8
0
  6
CONTINUOUS
 62
     7
 10
57.64278026848935
 20
358.5530373887007
 30
0.0
 11
59.75102774793063
 21
358.6266590128924
 31
0.0
  0
LINE
  5
333
  8
0
  6
CONTINUOUS
 62
     7
 10
59.75102774792735
 20
357.258155039005
 30
0.0
 11
57.64278026848945
 21
357.3317766631951
 31
0.0
  0
LINE
  5
334
  8
0
  6
CONTINUOUS
 62
     7
 10
57.64278026848929
 20
354.675037388702
 30
0.0
 11
59.75102774793058
 21
354.7486590128937
 31
0.0
  0
LINE
  5
335
  8
0
  6
CONTINUOUS
 62
     7
 10
57.64278026848957
 20
377.9430373886936
 30
0.0
 11
59.75102774793092
 21
378.0166590128853
 31
0.0
  0
ARC
  5
336
  8
0
  6
CONTINUOUS
 62
     7
 10
59.73357799958567
 20
345.1244596254994
 30
0.0
 40
0.4999999999999978
 50
2.984889797598985
 51
88.00000000171184
  0
ARC
  5
337
  8
0
  6
CONTINUOUS
 62
     7
 10
45.25325011749137
 20
387.0274070259845
 30
0.0
 40
15.0
 50
357.015134503585
 51
2.984889797736628
  0
ARC
  5
338
  8
0
  6
CONTINUOUS
 62
     7
 10
45.25325011749099
 20
352.1254070259969
 30
0.0
 40
14.99999999999988
 50
357.015134503586
 51
2.984889797737651
  0
ARC
  5
339
  8
0
  6
CONTINUOUS
 62
     7
 10
59.73357799958562
 20
343.6143544264998
 30
0.0
 40
0.5000000000000063
 50
271.9999998471665
 51
357.0158392419777
  0
ARC
  5
33A
  8
0
  6
CONTINUOUS
 62
     7
 10
59.73357799958584
 20
356.7584596254951
 30
0.0
 40
0.4999999999999308
 50
2.98488979757382
 51
88.00000000168973
  0
ARC
  5
33B
  8
0
  6
CONTINUOUS
 62
     7
 10
59.73357799958562
 20
339.7363544265013
 30
0.0
 40
0.5000000000000063
 50
271.9999998471665
 51
357.0158392419809
  0
ARC
  5
33C
  8
0
  6
CONTINUOUS
 62
     7
 10
59.73357799958545
 20
333.4904596255035
 30
0.0
 40
0.5000000000000532
 50
2.984889797598619
 51
88.00000000171451
  0
LINE
  5
33D
  8
0
  6
CONTINUOUS
 62
     7
 10
59.75102774792729
 20
353.3801550390065
 30
0.0
 11
57.64278026848947
 21
353.4537766631963
 31
0.0
  0
ARC
  5
33E
  8
0
  6
CONTINUOUS
 62
     7
 10
59.73357799958573
 20
352.8804596254964
 30
0.0
 40
0.4999999999999978
 50
2.984889797598985
 51
88.00000000171185
  0
LINE
  5
33F
  8
0
  6
CONTINUOUS
 62
     7
 10
57.64278026848918
 20
350.7970373887032
 30
0.0
 11
59.75102774793046
 21
350.8706590128953
 31
0.0
  0
LINE
  5
340
  8
0
  6
CONTINUOUS
 62
     7
 10
59.75102774792729
 20
349.5021550390076
 30
0.0
 11
57.6427802684894
 21
349.5757766631976
 31
0.0
  0
ARC
  5
341
  8
0
  6
CONTINUOUS
 62
     7
 10
59.73357799958551
 20
335.8583544265026
 30
0.0
 40
0.5000000000000082
 50
271.9999998471728
 51
357.0158392419871
  0
ARC
  5
342
  8
0
  6
CONTINUOUS
 62
     7
 10
59.73357799958595
 20
368.392459625491
 30
0.0
 40
0.4999999999999862
 50
2.984889797573577
 51
88.0000000016864
  0
ARC
  5
343
  8
0
  6
CONTINUOUS
 62
     7
 10
45.25325011749115
 20
371.5154070259898
 30
0.0
 40
14.99999999999999
 50
357.0151345035857
 51
2.984889797737424
  0
ARC
  5
344
  8
0
  6
CONTINUOUS
 62
     7
 10
45.25325011749099
 20
356.0034070259954
 30
0.0
 40
14.99999999999994
 50
357.0151345035858
 51
2.984889797737594
  0
ARC
  5
345
  8
0
  6
CONTINUOUS
 62
     7
 10
59.73357799958617
 20
383.9044596254855
 30
0.0
 40
0.4999999999999424
 50
2.984889797599352
 51
88.00000000171218
  0
ARC
  5
346
  8
0
  6
CONTINUOUS
 62
     7
 10
59.73357799958595
 20
366.8823544264916
 30
0.0
 40
0.5000000000000082
 50
271.9999998471728
 51
357.0158392419872
  0
ARC
  5
347
  8
0
  6
CONTINUOUS
 62
     7
 10
59.73357799958562
 20
341.2464596255005
 30
0.0
 40
0.4999999999999424
 50
2.984889797599352
 51
88.00000000171538
  0
ARC
  5
348
  8
0
  6
CONTINUOUS
 62
     7
 10
45.25325011749137
 20
383.1494070259857
 30
0.0
 40
14.99999999999999
 50
357.0151345035857
 51
2.98488979773748
  0
ARC
  5
349
  8
0
  6
CONTINUOUS
 62
     7
 10
59.73357799958584
 20
355.2483544264957
 30
0.0
 40
0.5000000000000063
 50
271.9999998471665
 51
357.0158392419809
  0
ARC
  5
34A
  8
0
  6
CONTINUOUS
 62
     7
 10
59.733577999586
 20
374.6383544264886
 30
0.0
 40
0.5000000000000082
 50
271.9999998471728
 51
357.0158392419872
  0
ARC
  5
34B
  8
0
  6
CONTINUOUS
 62
     7
 10
57.6532501174869
 20
381.5212201405864
 30
0.0
 40
0.3000000000000225
 50
91.99999999755795
 51
180.0
  0
ARC
  5
34C
  8
0
  6
CONTINUOUS
 62
     7
 10
57.6532501174869
 20
385.3992201405849
 30
0.0
 40
0.2999999999999114
 50
91.99999999755825
 51
180.0
  0
LINE
  5
34D
  8
0
  6
CONTINUOUS
 62
     7
 10
57.35325011749104
 20
357.6315939112948
 30
0.0
 11
57.35325011749111
 21
358.2532201405947
 31
0.0
  0
LINE
  5
34E
  8
0
  6
CONTINUOUS
 62
     7
 10
57.35325011749131
 20
373.1435939112893
 30
0.0
 11
57.35325011749131
 21
373.7652201405889
 31
0.0
  0
ARC
  5
34F
  8
0
  6
CONTINUOUS
 62
     7
 10
57.65325011748651
 20
354.3752201405958
 30
0.0
 40
0.299999999999967
 50
91.99999999755795
 51
180.0
  0
LINE
  5
350
  8
0
  6
CONTINUOUS
 62
     7
 10
57.35325011749121
 20
365.3875939112918
 30
0.0
 11
57.35325011749121
 21
366.0092201405917
 31
0.0
  0
LINE
  5
351
  8
0
  6
CONTINUOUS
 62
     7
 10
57.35325011749104
 20
353.7535939112963
 30
0.0
 11
57.35325011749104
 21
354.375220140596
 31
0.0
  0
LINE
  5
352
  8
0
  6
CONTINUOUS
 62
     7
 10
59.75102774792712
 20
337.8681550390122
 30
0.0
 11
57.6427802684893
 21
337.9417766632019
 31
0.0
  0
ARC
  5
353
  8
0
  6
CONTINUOUS
 62
     7
 10
57.65325011748678
 20
373.1435939112893
 30
0.0
 40
0.2999999999998798
 50
179.9999999999936
 51
267.9999999858239
  0
ARC
  5
354
  8
0
  6
CONTINUOUS
 62
     7
 10
57.6532501174864
 20
350.4972201405973
 30
0.0
 40
0.2999999999999114
 50
91.99999999755825
 51
180.0
  0
LINE
  5
355
  8
0
  6
CONTINUOUS
 62
     7
 10
59.75102774792717
 20
341.7461550390106
 30
0.0
 11
57.64278026848929
 21
341.8197766632007
 31
0.0
  0
LINE
  5
356
  8
0
  6
CONTINUOUS
 62
     7
 10
57.35325011749093
 20
345.9975939112989
 30
0.0
 11
57.35325011749093
 21
346.6192201405988
 31
0.0
  0
LINE
  5
357
  8
0
  6
CONTINUOUS
 62
     7
 10
398.2718784645519
 20
1142.473104794958
 30
0.0
 11
399.3958445132544
 21
1142.671290334744
 31
0.0
  0
LINE
  5
358
  8
0
  6
CONTINUOUS
 62
     7
 10
399.3958445132543
 20
1142.671290334745
 30
0.0
 11
399.9863196085347
 21
1142.775407025479
 31
0.0
  0
ARC
  5
359
  8
0
  6
CONTINUOUS
 62
     7
 10
57.65325011748684
 20
377.0215939112878
 30
0.0
 40
0.2999999999998798
 50
179.9999999999992
 51
267.9999999858239
  0
ARC
  5
35A
  8
0
  6
CONTINUOUS
 62
     7
 10
57.65325011748656
 20
358.2532201405946
 30
0.0
 40
0.3000000000000225
 50
91.99999999756356
 51
180.0
  0
ARC
  5
35B
  8
0
  6
CONTINUOUS
 62
     7
 10
57.65325011748684
 20
380.8995939112867
 30
0.0
 40
0.3000000000003236
 50
180.0000000000018
 51
267.9999999858269
  0
ARC
  5
35C
  8
0
  6
CONTINUOUS
 62
     7
 10
57.65325011748651
 20
353.7535939112963
 30
0.0
 40
0.2999999999998798
 50
179.9999999999989
 51
267.9999999858239
  0
LINE
  5
35D
  8
0
  6
CONTINUOUS
 62
     7
 10
57.64278026848907
 20
343.0410373887061
 30
0.0
 11
59.75102774793042
 21
343.1146590128978
 31
0.0
  0
ARC
  5
35E
  8
0
  6
CONTINUOUS
 62
     7
 10
57.6532501174864
 20
346.6192201405989
 30
0.0
 40
0.299999999999967
 50
91.99999999756336
 51
180.0
  0
LINE
  5
35F
  8
0
  6
CONTINUOUS
 62
     7
 10
59.75102774792723
 20
345.6241550390091
 30
0.0
 11
57.64278026848935
 21
345.6977766631992
 31
0.0
  0
ARC
  5
360
  8
0
  6
CONTINUOUS
 62
     7
 10
57.65325011748623
 20
334.985220140603
 30
0.0
 40
0.299999999999967
 50
91.99999999755795
 51
180.0
  0
ARC
  5
361
  8
0
  6
CONTINUOUS
 62
     7
 10
57.65325011748623
 20
334.3635939113032
 30
0.0
 40
0.3000000000001017
 50
180.0000000000003
 51
267.9999999858254
  0
ARC
  5
362
  8
0
  6
CONTINUOUS
 62
     7
 10
57.65325011748629
 20
338.8632201406014
 30
0.0
 40
0.3000000000000225
 50
91.99999999755806
 51
180.0
  0
LINE
  5
363
  8
0
  6
CONTINUOUS
 62
     7
 10
57.35325011749148
 20
384.7775939112852
 30
0.0
 11
57.35325011749148
 21
385.3992201405848
 31
0.0
  0
ARC
  5
364
  8
0
  6
CONTINUOUS
 62
     7
 10
57.65325011748662
 20
362.1312201405933
 30
0.0
 40
0.3000000000000225
 50
91.99999999756322
 51
180.0
  0
LINE
  5
365
  8
0
  6
CONTINUOUS
 62
     7
 10
57.35325011749143
 20
380.8995939112867
 30
0.0
 11
57.35325011749143
 21
381.5212201405863
 31
0.0
  0
LINE
  5
366
  8
0
  6
CONTINUOUS
 62
     7
 10
57.35325011749087
 20
342.1195939113004
 30
0.0
 11
57.35325011749094
 21
342.7412201406003
 31
0.0
  0
LINE
  5
367
  8
0
  6
CONTINUOUS
 62
     7
 10
57.35325011749087
 20
338.2415939113019
 30
0.0
 11
57.35325011749087
 21
338.8632201406015
 31
0.0
  0
LINE
  5
368
  8
0
  6
CONTINUOUS
 62
     7
 10
57.64278026848913
 20
346.9190373887048
 30
0.0
 11
59.75102774793041
 21
346.9926590128965
 31
0.0
  0
LINE
  5
369
  8
0
  6
CONTINUOUS
 62
     7
 10
57.35325011749126
 20
369.2655939112908
 30
0.0
 11
57.35325011749126
 21
369.8872201405904
 31
0.0
  0
ARC
  5
36A
  8
0
  6
CONTINUOUS
 62
     7
 10
57.65325011748673
 20
369.2655939112908
 30
0.0
 40
0.3000000000003236
 50
180.0000000000022
 51
267.9999999858269
  0
ARC
  5
36B
  8
0
  6
CONTINUOUS
 62
     7
 10
57.65325011748662
 20
366.0092201405918
 30
0.0
 40
0.299999999999967
 50
91.99999999755825
 51
180.0
  0
ARC
  5
36C
  8
0
  6
CONTINUOUS
 62
     7
 10
57.65325011748634
 20
342.7412201406001
 30
0.0
 40
0.3000000000000225
 50
91.99999999755778
 51
180.0
  0
ARC
  5
36D
  8
0
  6
CONTINUOUS
 62
     7
 10
57.65325011748629
 20
338.2415939113019
 30
0.0
 40
0.3000000000001017
 50
180.0000000000003
 51
267.9999999858254
  0
ARC
  5
36E
  8
0
  6
CONTINUOUS
 62
     7
 10
57.6532501174864
 20
349.8755939112979
 30
0.0
 40
0.3000000000003236
 50
180.0000000000022
 51
267.9999999858269
  0
LINE
  5
36F
  8
0
  6
CONTINUOUS
 62
     7
 10
57.35325011749076
 20
334.3635939113032
 30
0.0
 11
57.35325011749076
 21
334.9852201406028
 31
0.0
  0
LINE
  5
370
  8
0
  6
CENTER
 62
     1
 10
52.50325008786666
 20
650.2754070254788
 30
0.0
 11
107.5032500878667
 21
650.2754070254788
 31
0.0
  0
ARC
  5
372
  8
0
  6
CONTINUOUS
 62
     7
 10
57.65325011748673
 20
369.8872201405905
 30
0.0
 40
0.299999999999967
 50
91.99999999755825
 51
180.0
  0
LINE
  5
373
  8
0
  6
CENTER
 62
     1
 10
80.00325008786663
 20
622.7754070254787
 30
0.0
 11
80.00325008786663
 21
677.7754070254788
 31
0.0
  0
LINE
  5
374
  8
0
  6
CONTINUOUS
 62
     7
 10
59.75102774792712
 20
333.9901550390132
 30
0.0
 11
57.64278026848923
 21
334.0637766632032
 31
0.0
  0
ARC
  5
375
  8
0
  6
CONTINUOUS
 62
     7
 10
57.65325011748662
 20
365.3875939112918
 30
0.0
 40
0.2999999999998798
 50
179.9999999999989
 51
267.9999999858239
  0
CIRCLE
  5
376
  8
0
  6
CONTINUOUS
 62
     7
 10
639.9967499121335
 20
407.7754070254787
 30
0.0
 40
4.000000000000226
  0
ARC
  5
377
  8
0
  6
CONTINUOUS
 62
     7
 10
57.65325011748678
 20
373.765220140589
 30
0.0
 40
0.3000000000000225
 50
91.99999999755778
 51
180.0
  0
ARC
  5
378
  8
0
  6
CONTINUOUS
 62
     7
 10
57.65325011748634
 20
342.1195939113004
 30
0.0
 40
0.2999999999998798
 50
179.9999999999992
 51
267.9999999858239
  0
ARC
  5
379
  8
0
  6
CONTINUOUS
 62
     7
 10
57.6532501174869
 20
384.7775939112852
 30
0.0
 40
0.2999999999998798
 50
179.9999999999989
 51
267.9999999858239
  0
ARC
  5
37A
  8
0
  6
CONTINUOUS
 62
     7
 10
57.6532501174864
 20
345.9975939112989
 30
0.0
 40
0.2999999999998798
 50
179.9999999999989
 51
267.9999999858239
  0
LINE
  5
37B
  8
0
  6
CONTINUOUS
 62
     7
 10
57.64278026848907
 20
339.1630373887076
 30
0.0
 11
59.75102774793035
 21
339.2366590128993
 31
0.0
  0
ARC
  5
37C
  8
0
  6
CONTINUOUS
 62
     7
 10
57.65325011748684
 20
377.6432201405877
 30
0.0
 40
0.3000000000000225
 50
91.99999999755825
 51
180.0
  0
LINE
  5
37D
  8
0
  6
CONTINUOUS
 62
     7
 10
57.35325011749131
 20
377.0215939112878
 30
0.0
 11
57.35325011749131
 21
377.6432201405876
 31
0.0
  0
ARC
  5
37E
  8
0
  6
CONTINUOUS
 62
     7
 10
57.65325011748662
 20
361.5095939112933
 30
0.0
 40
0.2999999999998798
 50
179.9999999999936
 51
267.9999999858239
  0
LINE
  5
37F
  8
0
  6
CONTINUOUS
 62
     7
 10
57.35325011749109
 20
361.5095939112933
 30
0.0
 11
57.35325011749109
 21
362.1312201405932
 31
0.0
  0
LINE
  5
380
  8
0
  6
CONTINUOUS
 62
     7
 10
57.64278026848901
 20
335.2850373887089
 30
0.0
 11
59.7510277479303
 21
335.3586590129008
 31
0.0
  0
LINE
  5
381
  8
0
  6
CONTINUOUS
 62
     7
 10
57.35325011749098
 20
349.8755939112979
 30
0.0
 11
57.35325011749098
 21
350.4972201405974
 31
0.0
  0
ARC
  5
382
  8
0
  6
CONTINUOUS
 62
     7
 10
57.65325011748656
 20
357.6315939112948
 30
0.0
 40
0.2999999999998798
 50
179.9999999999989
 51
267.9999999858239
  0
LINE
  5
383
  8
0
  6
CONTINUOUS
 62
     7
 10
617.4967499121335
 20
1107.775407025479
 30
0.0
 11
615.9967499121335
 21
1107.775407025479
 31
0.0
  0
LINE
  5
384
  8
0
  6
CONTINUOUS
 62
     7
 10
643.5066049088722
 20
1039.427782736452
 30
0.0
 11
643.1651920171022
 21
1039.139453744919
 31
0.0
  0
LINE
  5
385
  8
0
  6
CONTINUOUS
 62
     7
 10
643.7416008418381
 20
1039.86474513131
 30
0.0
 11
643.1658696917913
 21
1039.14094653118
 31
0.0
  0
LINE
  5
386
  8
0
  6
CONTINUOUS
 62
     7
 10
691.27036146941
 20
1147.17836952092
 30
0.0
 11
691.2703614694099
 21
1147.171138040253
 31
0.0
  0
LINE
  5
387
  8
0
  6
CONTINUOUS
 62
     7
 10
643.1651920171022
 20
1039.139453744919
 30
0.0
 11
643.12067238868
 21
1038.944819823297
 31
0.0
  0
LINE
  5
388
  8
0
  6
CONTINUOUS
 62
     7
 10
587.3557528433215
 20
1142.617333406262
 30
0.0
 11
588.7289839459746
 21
1142.775407025479
 31
0.0
  0
LINE
  5
389
  8
0
  6
CONTINUOUS
 62
     7
 10
689.0786181132822
 20
1142.775407025479
 30
0.0
 11
691.2645158782923
 21
1142.775407025479
 31
0.0
  0
LINE
  5
38A
  8
0
  6
CONTINUOUS
 62
     7
 10
587.2567672153655
 20
1142.448514804077
 30
0.0
 11
586.9597189930706
 21
1142.738721408051
 31
0.0
  0
LINE
  5
38B
  8
0
  6
CONTINUOUS
 62
     7
 10
588.7289839459746
 20
1142.775407025479
 30
0.0
 11
689.0786181132822
 21
1142.775407025479
 31
0.0
  0
LINE
  5
38C
  8
0
  6
CONTINUOUS
 62
     7
 10
663.9094812088726
 20
1046.828483318315
 30
0.0
 11
664.243313832231
 21
1046.828483318333
 31
0.0
  0
LINE
  5
38D
  8
0
  6
CONTINUOUS
 62
     7
 10
588.7231383548179
 20
1147.171138423879
 30
0.0
 11
588.7231383548179
 21
1147.17836952092
 31
0.0
  0
LINE
  5
38E
  8
0
  6
CONTINUOUS
 62
     7
 10
400.1263392083115
 20
1146.160917114468
 30
0.0
 11
400.0914820175479
 21
1144.163949994848
 31
0.0
  0
LINE
  5
38F
  8
0
  6
CONTINUOUS
 62
     7
 10
692.7367326089015
 20
1142.448514804077
 30
0.0
 11
693.0337808311566
 21
1142.738721405751
 31
0.0
  0
LINE
  5
390
  8
0
  6
CONTINUOUS
 62
     7
 10
662.4967499121333
 20
1107.775407025479
 30
0.0
 11
663.9967499121333
 21
1107.775407025479
 31
0.0
  0
LINE
  5
391
  8
0
  6
CONTINUOUS
 62
     7
 10
586.9597189931146
 20
1142.738721405502
 30
0.0
 11
586.9590354724447
 21
1142.808891739996
 31
0.0
  0
LINE
  5
392
  8
0
  6
CONTINUOUS
 62
     7
 10
587.1934665452467
 20
1146.09536999365
 30
0.0
 11
586.9030758389029
 21
1146.031776406005
 31
0.0
  0
LINE
  5
393
  8
0
  6
CONTINUOUS
 62
     7
 10
664.2433138322313
 20
1046.828483318301
 30
0.0
 11
664.9835334505854
 21
1046.828483318327
 31
0.0
  0
LINE
  5
394
  8
0
  6
CONTINUOUS
 62
     7
 10
693.035425516598
 20
1142.807950104058
 30
0.0
 11
693.0337808311566
 21
1142.738721405751
 31
0.0
  0
LINE
  5
395
  8
0
  6
CONTINUOUS
 62
     9
 10
693.0521524977105
 20
1143.801530428288
 30
0.0
 11
693.0337808311566
 21
1142.738721405751
 31
0.0
  0
LINE
  5
396
  8
0
  6
CONTINUOUS
 62
     7
 10
586.9030761175707
 20
1146.031774695223
 30
0.0
 11
586.9401293887595
 21
1143.887927325141
 31
0.0
  0
LINE
  5
397
  8
0
  6
CONTINUOUS
 62
     7
 10
586.9403365422676
 20
1143.887182276836
 30
0.0
 11
586.9589438120097
 21
1142.814261678868
 31
0.0
  0
LINE
  5
398
  8
0
  6
CONTINUOUS
 62
     7
 10
691.27036146941
 20
1147.17836952092
 30
0.0
 11
588.7231383548179
 21
1147.17836952092
 31
0.0
  0
LINE
  5
399
  8
0
  6
CONTINUOUS
 62
     7
 10
693.090020252038
 20
1145.992196737444
 30
0.0
 11
693.0937999199657
 21
1146.029649489887
 31
0.0
  0
LINE
  5
39A
  8
0
  6
CONTINUOUS
 62
     7
 10
693.0938036533214
 20
1146.029647003615
 30
0.0
 11
691.2703614694154
 21
1147.171138853419
 31
0.0
  0
LINE
  5
39B
  8
0
  6
CONTINUOUS
 62
     7
 10
588.7231383548515
 20
1147.171138853419
 30
0.0
 11
587.1984257544439
 21
1146.095961735662
 31
0.0
  0
ARC
  5
39C
  8
0
  6
CONTINUOUS
 62
     7
 10
664.9835334506009
 20
1046.67133659604
 30
0.0
 40
0.1571467223207001
 50
85.165039834224
 51
90.00000000137629
  0
LINE
  5
39D
  8
0
  6
CONTINUOUS
 62
     7
 10
693.0533704215031
 20
1143.887927325147
 30
0.0
 11
693.0904236471874
 21
1146.031772079239
 31
0.0
  0
CIRCLE
  5
39E
  8
0
  6
CONTINUOUS
 62
     7
 10
80.00325008786663
 20
550.2754070254787
 30
0.0
 40
7.499999999999951
  0
ARC
  5
39F
  8
0
  6
CONTINUOUS
 62
     7
 10
45.25325011749143
 20
313.3454070259831
 30
0.0
 40
14.99999999999999
 50
357.0151345035857
 51
2.98488979773748
  0
ARC
  5
3A0
  8
0
  6
CONTINUOUS
 62
     7
 10
59.73357799958645
 20
248.1744596254784
 30
0.0
 40
0.4999999999998869
 50
2.984889797599596
 51
88.00000000132762
  0
ARC
  5
3A1
  8
0
  6
CONTINUOUS
 62
     7
 10
57.65325011748706
 20
238.035220140582
 30
0.0
 40
0.2999999999999305
 50
91.99999999797036
 51
146.8362180504323
  0
LINE
  5
3A2
  8
0
  6
CONTINUOUS
 62
     7
 10
57.6427802684869
 20
246.0910373886853
 30
0.0
 11
59.75102774792742
 21
246.164659012877
 31
0.0
  0
ARC
  5
3A3
  8
0
  6
CONTINUOUS
 62
     7
 10
45.2532501174916
 20
321.1014070259801
 30
0.0
 40
14.99999999999999
 50
357.0151345035857
 51
2.984889797737424
  0
ARC
  5
3A4
  8
0
  6
CONTINUOUS
 62
     7
 10
45.25325011749165
 20
251.2974070259775
 30
0.0
 40
14.99999999999645
 50
357.0151345035852
 51
2.984889797737537
  0
ARC
  5
3A5
  8
0
  6
CONTINUOUS
 62
     7
 10
59.73357799958639
 20
244.29645962548
 30
0.0
 40
0.4999999999998869
 50
2.984889797599596
 51
88.00000000131631
  0
ARC
  5
3A6
  8
0
  6
CONTINUOUS
 62
     7
 10
57.65325011748718
 20
249.6692201405779
 30
0.0
 40
0.299999999999967
 50
91.99999999793836
 51
180.0
  0
LINE
  5
3A7
  8
0
  6
CONTINUOUS
 62
     7
 10
57.35325011748871
 20
241.291593911281
 30
0.0
 11
57.35325011748871
 21
241.9132201405808
 31
0.0
  0
ARC
  5
3A8
  8
0
  6
CONTINUOUS
 62
     7
 10
45.25325011749165
 20
328.8574070259775
 30
0.0
 40
14.99999999999999
 50
357.0151345035857
 51
2.98488979773748
  0
ARC
  5
3A9
  8
0
  6
CONTINUOUS
 62
     7
 10
59.73357799958639
 20
240.418459625481
 30
0.0
 40
0.4999999999998315
 50
2.984889797599962
 51
88.00000000131588
  0
ARC
  5
3AA
  8
0
  6
CONTINUOUS
 62
     7
 10
45.25325011749137
 20
309.4674070259846
 30
0.0
 40
15.0
 50
357.015134503585
 51
2.984889797736742
  0
ARC
  5
3AB
  8
0
  6
CONTINUOUS
 62
     7
 10
59.73357799958651
 20
254.4203544264763
 30
0.0
 40
0.4999999999999045
 50
271.9999998475615
 51
357.0158392419888
  0
ARC
  5
3AC
  8
0
  6
CONTINUOUS
 62
     7
 10
45.25325011749132
 20
301.7114070259872
 30
0.0
 40
14.99999999999999
 50
357.0151345035857
 51
2.984889797737424
  0
CIRCLE
  5
3AD
  8
0
  6
CONTINUOUS
 62
     7
 10
80.00325008786663
 20
650.2754070254788
 30
0.0
 40
7.499999999999951
  0
ARC
  5
3AE
  8
0
  6
CONTINUOUS
 62
     7
 10
57.65325011748712
 20
245.7912201405794
 30
0.0
 40
0.2999999999999114
 50
91.99999999793836
 51
180.0
  0
ARC
  5
3AF
  8
0
  6
CONTINUOUS
 62
     7
 10
59.73357799958645
 20
246.664354426479
 30
0.0
 40
0.5000000000001265
 50
271.9999998475606
 51
357.0158392419887
  0
ARC
  5
3B0
  8
0
  6
CONTINUOUS
 62
     7
 10
45.25325011749121
 20
297.8334070259887
 30
0.0
 40
15.00000000000006
 50
357.0151345035852
 51
2.984889797736856
  0
LINE
  5
3B1
  8
0
  6
CONTINUOUS
 62
     7
 10
57.35325011748876
 20
249.0475939112779
 30
0.0
 11
57.35325011748876
 21
249.6692201405778
 31
0.0
  0
ARC
  5
3B2
  8
0
  6
CONTINUOUS
 62
     7
 10
45.25325011749115
 20
290.0774070259915
 30
0.0
 40
14.99999999999999
 50
357.0151345035857
 51
2.98488979773748
  0
ARC
  5
3B3
  8
0
  6
CONTINUOUS
 62
     7
 10
45.25325011749104
 20
282.3214070259943
 30
0.0
 40
15.0
 50
357.015134503585
 51
2.984889797736685
  0
ARC
  5
3B4
  8
0
  6
CONTINUOUS
 62
     7
 10
45.25325011749099
 20
278.4434070259956
 30
0.0
 40
14.99999999999994
 50
357.0151345035858
 51
2.984889797737594
  0
ARC
  5
3B5
  8
0
  6
CONTINUOUS
 62
     7
 10
45.25325011749099
 20
274.565407025997
 30
0.0
 40
14.99999999999989
 50
357.0151345035852
 51
2.984889797736799
  0
ARC
  5
3B6
  8
0
  6
CONTINUOUS
 62
     7
 10
45.25325011749087
 20
270.6874070259986
 30
0.0
 40
15.0
 50
357.015134503585
 51
2.984889797736742
  0
ARC
  5
3B7
  8
0
  6
CONTINUOUS
 62
     7
 10
45.25325011749076
 20
262.9314070260011
 30
0.0
 40
15.0
 50
357.015134503585
 51
2.984889797736742
  0
LINE
  5
3B8
  8
0
  6
CONTINUOUS
 62
     7
 10
57.64278026848679
 20
238.3350373886881
 30
0.0
 11
59.75102774792759
 21
238.4086590128798
 31
0.0
  0
LINE
  5
3B9
  8
0
  6
CONTINUOUS
 62
     7
 10
57.64278026848685
 20
242.2130373886866
 30
0.0
 11
59.75102774792779
 21
242.2866590128783
 31
0.0
  0
LINE
  5
3BA
  8
0
  6
CONTINUOUS
 62
     7
 10
57.64278026848696
 20
253.8470373886825
 30
0.0
 11
59.7510277479279
 21
253.9206590128742
 31
0.0
  0
ARC
  5
3BB
  8
0
  6
CONTINUOUS
 62
     7
 10
45.2532501174917
 20
255.175407025976
 30
0.0
 40
14.99999999999639
 50
357.0151345035852
 51
359.9999999999995
  0
LINE
  5
3BC
  8
0
  6
CONTINUOUS
 62
     7
 10
57.64278026848696
 20
249.9690373886838
 30
0.0
 11
59.75102774792769
 21
250.0426590128758
 31
0.0
  0
LINE
  5
3BD
  8
0
  6
CONTINUOUS
 62
     7
 10
57.35325011748871
 20
245.1695939112795
 30
0.0
 11
57.35325011748878
 21
245.7912201405794
 31
0.0
  0
ARC
  5
3BE
  8
0
  6
CONTINUOUS
 62
     7
 10
59.73357799958639
 20
242.7863544264803
 30
0.0
 40
0.4999999999999045
 50
271.9999998475615
 51
357.0158392419895
  0
ARC
  5
3BF
  8
0
  6
CONTINUOUS
 62
     7
 10
45.25325011749137
 20
305.5894070259861
 30
0.0
 40
15.0
 50
357.015134503585
 51
2.984889797736799
  0
ARC
  5
3C0
  8
0
  6
CONTINUOUS
 62
     7
 10
45.2532501174916
 20
243.5414070259805
 30
0.0
 40
14.9999999999964
 50
357.0151345035842
 51
2.984889797736685
  0
ARC
  5
3C1
  8
0
  6
CONTINUOUS
 62
     7
 10
57.65325011748729
 20
252.9255939112769
 30
0.0
 40
0.2999999999999553
 50
180.0000000000011
 51
267.9999999854108
  0
ARC
  5
3C2
  8
0
  6
CONTINUOUS
 62
     7
 10
57.65325011748718
 20
249.0475939112784
 30
0.0
 40
0.3000000000001734
 50
180.0000000000049
 51
267.9999999854334
  0
LINE
  5
3C3
  8
0
  6
CONTINUOUS
 62
     7
 10
59.75102774792445
 20
244.7961550389897
 30
0.0
 11
57.64278026848692
 21
244.8697766631797
 31
0.0
  0
ARC
  5
3C4
  8
0
  6
CONTINUOUS
 62
     7
 10
57.65325011748729
 20
253.5472201405764
 30
0.0
 40
0.299999999999967
 50
91.99999999795726
 51
180.0
  0
ARC
  5
3C5
  8
0
  6
CONTINUOUS
 62
     7
 10
45.2532501174917
 20
332.735407025976
 30
0.0
 40
14.99999999999999
 50
357.0151345035857
 51
359.9999999999997
  0
ARC
  5
3C6
  8
0
  6
CONTINUOUS
 62
     7
 10
57.65325011748712
 20
245.1695939112795
 30
0.0
 40
0.2999999999997257
 50
180.000000000004
 51
267.9999999854516
  0
ARC
  5
3C7
  8
0
  6
CONTINUOUS
 62
     7
 10
59.73357799958651
 20
250.5423544264778
 30
0.0
 40
0.4999999999999064
 50
271.9999998475678
 51
357.0158392419854
  0
ARC
  5
3C8
  8
0
  6
CONTINUOUS
 62
     7
 10
57.65325011748712
 20
241.9132201405807
 30
0.0
 40
0.299999999999967
 50
91.99999999795693
 51
180.0
  0
LINE
  5
3C9
  8
0
  6
CONTINUOUS
 62
     7
 10
59.7510277479244
 20
240.9181550389912
 30
0.0
 11
57.64278026848707
 21
240.9917766631812
 31
0.0
  0
ARC
  5
3CA
  8
0
  6
CONTINUOUS
 62
     7
 10
45.25325011749165
 20
247.419407025979
 30
0.0
 40
14.9999999999964
 50
357.0151345035842
 51
2.984889797736685
  0
LINE
  5
3CB
  8
0
  6
CONTINUOUS
 62
     7
 10
57.35325011748882
 20
252.9255939112769
 30
0.0
 11
57.35325011748882
 21
253.5472201405765
 31
0.0
  0
ARC
  5
3CC
  8
0
  6
CONTINUOUS
 62
     7
 10
45.2532501174916
 20
324.9794070259791
 30
0.0
 40
14.99999999999999
 50
357.0151345035857
 51
2.98488979773748
  0
ARC
  5
3CD
  8
0
  6
CONTINUOUS
 62
     7
 10
45.25325011749115
 20
293.9554070259902
 30
0.0
 40
15.0
 50
357.015134503585
 51
2.984889797736685
  0
ARC
  5
3CE
  8
0
  6
CONTINUOUS
 62
     7
 10
45.25325011749109
 20
286.199407025993
 30
0.0
 40
15.0
 50
357.015134503585
 51
2.984889797736799
  0
ARC
  5
3CF
  8
0
  6
CONTINUOUS
 62
     7
 10
45.25325011749081
 20
266.8094070259996
 30
0.0
 40
14.99999999999999
 50
357.0151345035857
 51
2.984889797737537
  0
ARC
  5
3D0
  8
0
  6
CONTINUOUS
 62
     7
 10
45.25325011749154
 20
239.6634070259815
 30
0.0
 40
14.99999999999639
 50
357.0151345035852
 51
2.984889797737708
  0
ARC
  5
3D1
  8
0
  6
CONTINUOUS
 62
     7
 10
59.73357799958645
 20
324.2243544264789
 30
0.0
 40
0.5000000000000082
 50
271.9999998471728
 51
357.0158392419872
  0
ARC
  5
3D2
  8
0
  6
CONTINUOUS
 62
     7
 10
59.73357799958651
 20
328.1023544264779
 30
0.0
 40
0.5000000000000082
 50
271.9999998471728
 51
357.0158392419871
  0
LINE
  5
3D3
  8
0
  6
CONTINUOUS
 62
     7
 10
59.75102774792457
 20
252.5521550389871
 30
0.0
 11
57.64278026848724
 21
252.6257766631769
 31
0.0
  0
ARC
  5
3D4
  8
0
  6
CONTINUOUS
 62
     7
 10
45.25325011749065
 20
255.1754070260039
 30
0.0
 40
14.99999999999996
 50
359.9999999999991
 51
2.984889797736912
  0
ARC
  5
3D5
  8
0
  6
CONTINUOUS
 62
     7
 10
59.73357799958651
 20
252.052459625477
 30
0.0
 40
0.4999999999998315
 50
2.984889797599962
 51
88.00000000133866
  0
ARC
  5
3D6
  8
0
  6
CONTINUOUS
 62
     7
 10
59.73357799958651
 20
331.9803544264763
 30
0.0
 40
0.5000000000000082
 50
271.9999998471728
 51
357.0158392419903
  0
ARC
  5
3D7
  8
0
  6
CONTINUOUS
 62
     7
 10
45.25325011749154
 20
317.2234070259816
 30
0.0
 40
14.99999999999994
 50
357.0151345035858
 51
2.984889797737651
  0
ARC
  5
3D8
  8
0
  6
CONTINUOUS
 62
     7
 10
59.73357799958639
 20
320.3463544264804
 30
0.0
 40
0.5000000000000063
 50
271.9999998471665
 51
357.0158392419809
  0
ARC
  5
3D9
  8
0
  6
CONTINUOUS
 62
     7
 10
59.73357799958628
 20
316.4683544264819
 30
0.0
 40
0.5000000000000082
 50
271.9999998471728
 51
357.0158392419872
  0
LINE
  5
3DA
  8
0
  6
CONTINUOUS
 62
     7
 10
59.75102774792451
 20
248.6741550389881
 30
0.0
 11
57.64278026848697
 21
248.7477766631782
 31
0.0
  0
ARC
  5
3DB
  8
0
  6
CONTINUOUS
 62
     7
 10
59.73357799958628
 20
238.9083544264818
 30
0.0
 40
0.4999999999999045
 50
271.9999998475615
 51
357.0158392419893
  0
ARC
  5
3DC
  8
0
  6
CONTINUOUS
 62
     7
 10
45.25325011749065
 20
259.0534070260027
 30
0.0
 40
15.00000000000006
 50
357.0151345035852
 51
2.984889797736856
  0
ARC
  5
3DD
  8
0
  6
CONTINUOUS
 62
     7
 10
57.65325011748712
 20
241.291593911281
 30
0.0
 40
0.2999999999999495
 50
179.9999999999949
 51
267.9999999854425
  0
ARC
  5
3DE
  8
0
  6
CONTINUOUS
 62
     7
 10
59.73357799958628
 20
312.5903544264834
 30
0.0
 40
0.5000000000000082
 50
271.9999998471728
 51
357.0158392419872
  0
ARC
  5
3DF
  8
0
  6
CONTINUOUS
 62
     7
 10
59.73357799958595
 20
289.3223544264916
 30
0.0
 40
0.5000000000000082
 50
271.9999998471728
 51
357.0158392419888
  0
ARC
  5
3E0
  8
0
  6
CONTINUOUS
 62
     7
 10
59.73357799958623
 20
308.7123544264845
 30
0.0
 40
0.4999999999997863
 50
271.9999998471737
 51
357.0158392419881
  0
ARC
  5
3E1
  8
0
  6
CONTINUOUS
 62
     7
 10
59.733577999586
 20
293.2003544264903
 30
0.0
 40
0.5000000000000082
 50
271.9999998471728
 51
357.0158392419871
  0
ARC
  5
3E2
  8
0
  6
CONTINUOUS
 62
     7
 10
59.73357799958617
 20
304.834354426486
 30
0.0
 40
0.5000000000000063
 50
271.9999998471665
 51
357.0158392419809
  0
ARC
  5
3E3
  8
0
  6
CONTINUOUS
 62
     7
 10
59.733577999586
 20
297.0783544264888
 30
0.0
 40
0.5000000000000082
 50
271.9999998471728
 51
357.0158392419872
  0
ARC
  5
3E4
  8
0
  6
CONTINUOUS
 62
     7
 10
59.73357799958606
 20
300.9563544264875
 30
0.0
 40
0.5000000000000082
 50
271.9999998471728
 51
357.0158392419872
  0
LINE
  5
3E5
  8
0
  6
CONTINUOUS
 62
     7
 10
638.7365117834051
 20
1113.932279839361
 30
0.0
 11
638.118381103637
 21
1113.286766391845
 31
0.0
  0
LINE
  5
3E6
  8
0
  6
CONTINUOUS
 62
     7
 10
638.8406411068896
 20
1112.595144755614
 30
0.0
 11
639.4587717866577
 21
1113.240658203131
 31
0.0
  0
ARC
  5
3E7
  8
0
  6
CONTINUOUS
 62
     7
 10
641.8347960434583
 20
1031.065236902604
 30
0.0
 40
0.8000000000004565
 50
136.2413870993
 51
226.2413870992972
  0
LINE
  5
3E8
  8
0
  6
CONTINUOUS
 62
     7
 10
642.3287757391902
 20
1029.484577527468
 30
0.0
 11
641.2814987344739
 21
1030.487428900002
 31
0.0
  0
LINE
  5
3E9
  8
0
  6
CONTINUOUS
 62
     7
 10
639.4036227260174
 20
1032.2856451542
 30
0.0
 11
638.3563457213011
 21
1033.288496526734
 31
0.0
  0
ARC
  5
3EA
  8
0
  6
CONTINUOUS
 62
     7
 10
640.0365797892598
 20
1112.687360894147
 30
0.0
 40
0.7999999999999822
 50
46.24138709928962
 51
136.2413870992867
  0
LINE
  5
3EB
  8
0
  6
CONTINUOUS
 62
     7
 10
637.664724085071
 20
1032.566236523481
 30
0.0
 11
638.7120010897873
 21
1031.563385150948
 31
0.0
  0
LINE
  5
3EC
  8
0
  6
CONTINUOUS
 62
     7
 10
641.6371541029602
 20
1028.762317524215
 30
0.0
 11
642.3287757391903
 21
1029.484577527468
 31
0.0
  0
CIRCLE
  5
3ED
  8
0
  6
CONTINUOUS
 62
     9
 10
639.9967499121307
 20
1031.025407025475
 30
0.0
 40
1.021236244656221
  0
ARC
  5
3EE
  8
0
  6
CONTINUOUS
 62
     7
 10
639.9967499121307
 20
1114.525407025474
 30
0.0
 40
2.249999999999948
 50
213.4017986923844
 51
239.0809755061924
  0
CIRCLE
  5
3EF
  8
0
  6
CONTINUOUS
 62
     7
 10
639.9967499121307
 20
1114.525407025474
 30
0.0
 40
4.000000000000448
  0
LINE
  5
3F0
  8
0
  6
CONTINUOUS
 62
     7
 10
640.5898770982438
 20
1113.265168896749
 30
0.0
 11
641.6371541029602
 21
1112.262317524216
 31
0.0
  0
LINE
  5
3F1
  8
0
  6
CONTINUOUS
 62
     7
 10
641.6371541029602
 20
1112.262317524216
 30
0.0
 11
642.3287757391903
 21
1112.984577527468
 31
0.0
  0
LINE
  5
3F2
  8
0
  6
CONTINUOUS
 62
     7
 10
642.3287757391902
 20
1112.984577527468
 30
0.0
 11
641.2814987344739
 21
1113.987428900002
 31
0.0
  0
ARC
  5
3F3
  8
0
  6
CONTINUOUS
 62
     7
 10
641.8347960434583
 20
1114.565236902604
 30
0.0
 40
0.8000000000001356
 50
136.241387099278
 51
226.2413870992752
  0
ARC
  5
3F4
  8
0
  6
CONTINUOUS
 62
     7
 10
639.9967499121307
 20
1031.025407025475
 30
0.0
 40
2.249999999999948
 50
213.4017986923844
 51
239.0809755061924
  0
LINE
  5
3F5
  8
0
  6
CONTINUOUS
 62
     7
 10
641.2569880408563
 20
1115.118534211588
 30
0.0
 11
641.8751187206244
 21
1115.764047659104
 31
0.0
  0
ARC
  5
3F6
  8
0
  6
CONTINUOUS
 62
     7
 10
639.9967499121307
 20
1114.525407025474
 30
0.0
 40
2.250000000000377
 50
33.40179869239076
 51
59.08097550619637
  0
LINE
  5
3F7
  8
0
  6
CONTINUOUS
 62
     7
 10
641.1528587173716
 20
1116.455669295334
 30
0.0
 11
640.5347280376035
 21
1115.810155847818
 31
0.0
  0
ARC
  5
3F8
  8
0
  6
CONTINUOUS
 62
     7
 10
639.9569200350014
 20
1116.363453156802
 30
0.0
 40
0.7999999999999822
 50
226.2413870992893
 51
316.2413870992866
  0
LINE
  5
3F9
  8
0
  6
CONTINUOUS
 62
     7
 10
639.4036227260174
 20
1115.7856451542
 30
0.0
 11
638.3563457213011
 21
1116.788496526734
 31
0.0
  0
LINE
  5
3FA
  8
0
  6
CONTINUOUS
 62
     7
 10
638.3563457213011
 20
1116.788496526734
 30
0.0
 11
637.6647240850709
 21
1116.066236523481
 31
0.0
  0
LINE
  5
3FB
  8
0
  6
CONTINUOUS
 62
     7
 10
638.7365117834051
 20
1030.432279839362
 30
0.0
 11
638.1183811036369
 21
1029.786766391845
 31
0.0
  0
ARC
  5
3FC
  8
0
  6
CONTINUOUS
 62
     7
 10
639.9967499121307
 20
1031.025407025475
 30
0.0
 40
2.249999999999948
 50
33.40179869238444
 51
59.08097550619005
  0
ARC
  5
3FD
  8
0
  6
CONTINUOUS
 62
     7
 10
638.158703780803
 20
1030.985577148345
 30
0.0
 40
0.8000000000001356
 50
316.2413870992783
 51
46.24138709927518
  0
LINE
  5
3FE
  8
0
  6
CONTINUOUS
 62
     7
 10
640.5898770982438
 20
1029.765168896749
 30
0.0
 11
641.6371541029602
 21
1028.762317524216
 31
0.0
  0
ARC
  5
3FF
  8
0
  6
CONTINUOUS
 62
     7
 10
640.0365797892598
 20
1029.187360894147
 30
0.0
 40
0.8000000000004497
 50
46.24138709927764
 51
136.2413870992747
  0
LINE
  5
400
  8
0
  6
CONTINUOUS
 62
     7
 10
641.1528587173716
 20
1032.955669295334
 30
0.0
 11
640.5347280376035
 21
1032.310155847818
 31
0.0
  0
CIRCLE
  5
401
  8
0
  6
CONTINUOUS
 62
     7
 10
639.9967499121307
 20
1031.025407025475
 30
0.0
 40
4.000000000000226
  0
ARC
  5
402
  8
0
  6
CONTINUOUS
 62
     7
 10
639.9569200350014
 20
1032.863453156802
 30
0.0
 40
0.7999999999999822
 50
226.2413870992893
 51
316.2413870992866
  0
LINE
  5
403
  8
0
  6
CONTINUOUS
 62
     7
 10
638.3563457213011
 20
1033.288496526734
 30
0.0
 11
637.6647240850709
 21
1032.566236523481
 31
0.0
  0
LINE
  5
404
  8
0
  6
CONTINUOUS
 62
     7
 10
641.2569880408561
 20
1031.618534211588
 30
0.0
 11
641.8751187206243
 21
1032.264047659104
 31
0.0
  0
LINE
  5
405
  8
0
  6
CONTINUOUS
 62
     7
 10
637.664724085071
 20
1116.066236523481
 30
0.0
 11
638.7120010897873
 21
1115.063385150947
 31
0.0
  0
LINE
  5
406
  8
0
  6
CONTINUOUS
 62
     7
 10
638.8406411068896
 20
1029.095144755615
 30
0.0
 11
639.4587717866577
 21
1029.740658203131
 31
0.0
  0
ARC
  5
407
  8
0
  6
CONTINUOUS
 62
     7
 10
638.158703780803
 20
1114.485577148345
 30
0.0
 40
0.8000000000001356
 50
316.2413870992783
 51
46.24138709927518
  0
LINE
  5
408
  8
0
  6
CONTINUOUS
 62
     7
 10
631.9312401880297
 20
1034.025407025479
 30
0.0
 11
631.9967499121335
 21
1035.275407025479
 31
0.0
  0
LINE
  5
409
  8
0
  6
CONTINUOUS
 62
     7
 10
623.9967499121335
 20
1035.275407025479
 30
0.0
 11
631.9967499121335
 21
1035.275407025479
 31
0.0
  0
LINE
  5
40A
  8
0
  6
CONTINUOUS
 62
     7
 10
648.1041858596636
 20
1033.225407025479
 30
0.0
 11
655.9967499121334
 21
1033.225407025479
 31
0.0
  0
LINE
  5
40B
  8
0
  6
CONTINUOUS
 62
     7
 10
648.0622596362373
 20
1034.025407025479
 30
0.0
 11
648.1041858596637
 21
1033.225407025479
 31
0.0
  0
LINE
  5
40C
  8
0
  6
CONTINUOUS
 62
     7
 10
655.9967499121335
 20
1107.775407025479
 30
0.0
 11
655.9967499121335
 21
1109.525407025478
 31
0.0
  0
LINE
  5
40D
  8
0
  6
CONTINUOUS
 62
     7
 10
631.9967499121335
 20
1036.025407025479
 30
0.0
 11
631.9967499121335
 21
1035.275407025479
 31
0.0
  0
LINE
  5
40E
  8
0
  6
CONTINUOUS
 62
     7
 10
623.9967499121335
 20
1107.775407025479
 30
0.0
 11
623.9967499121335
 21
1109.525407025478
 31
0.0
  0
LINE
  5
40F
  8
0
  6
CONTINUOUS
 62
     7
 10
623.9967499121335
 20
1109.525407025479
 30
0.0
 11
655.9967499121334
 21
1109.525407025479
 31
0.0
  0
LINE
  5
410
  8
0
  6
CONTINUOUS
 62
     7
 10
662.4967499121335
 20
1107.775407025479
 30
0.0
 11
661.9967499121335
 21
1107.775407025479
 31
0.0
  0
ARC
  5
411
  8
0
  6
CONTINUOUS
 62
     7
 10
617.4967499121335
 20
1091.880066383794
 30
0.0
 40
14.20865675840589
 50
89.99999999999994
 51
100.138223698089
  0
LINE
  5
412
  8
0
  6
CONTINUOUS
 62
     7
 10
623.9967499121335
 20
1033.225407025479
 30
0.0
 11
623.9967499121335
 21
1035.275407025479
 31
0.0
  0
ARC
  5
413
  8
0
  6
CONTINUOUS
 62
     7
 10
662.4967499121335
 20
1091.880066383798
 30
0.0
 40
14.20865675840188
 50
79.86177630190814
 51
90.0
  0
LINE
  5
414
  8
0
  6
CONTINUOUS
 62
     7
 10
655.9967499121335
 20
1037.801587628851
 30
0.0
 11
664.9967499121335
 21
1037.801587628851
 31
0.0
  0
LINE
  5
415
  8
0
  6
CONTINUOUS
 62
     7
 10
614.9967499121336
 20
1037.801587628851
 30
0.0
 11
623.9967499121336
 21
1037.801587628851
 31
0.0
  0
LINE
  5
416
  8
0
  6
CONTINUOUS
 62
     7
 10
626.9967499121336
 20
1038.277201923448
 30
0.0
 11
643.1205099030685
 21
1038.277201923448
 31
0.0
  0
ARC
  5
417
  8
0
  6
CONTINUOUS
 62
     9
 10
517.7747610174581
 20
1144.695550933032
 30
0.0
 40
149.7829804140028
 50
334.5267357824652
 51
345.0632983627119
  0
ARC
  5
418
  8
0
  6
CONTINUOUS
 62
     9
 10
762.2184923388613
 20
1144.695460226146
 30
0.0
 40
149.7827188940605
 50
194.936692412882
 51
205.4732734419408
  0
LINE
  5
419
  8
0
  6
CONTINUOUS
 62
     7
 10
623.9967499121335
 20
1107.775407025479
 30
0.0
 11
655.9967499121334
 21
1107.775407025479
 31
0.0
  0
LINE
  5
41A
  8
0
  6
CONTINUOUS
 62
     9
 10
617.4967499121335
 20
1106.088723142199
 30
0.0
 11
617.4967499121335
 21
1107.775407025479
 31
0.0
  0
LINE
  5
41B
  8
0
  6
CONTINUOUS
 62
     9
 10
662.4967499121335
 20
1107.775407025479
 30
0.0
 11
662.4967499121335
 21
1106.088723142199
 31
0.0
  0
LINE
  5
41C
  8
0
  6
CONTINUOUS
 62
     9
 10
626.9967499121336
 20
1080.275407025479
 30
0.0
 11
615.0089080541431
 21
1086.617784735889
 31
0.0
  0
LINE
  5
41D
  8
0
  6
CONTINUOUS
 62
     9
 10
652.9967499121336
 20
1047.828483317842
 30
0.0
 11
652.9967499121336
 21
1080.275407025479
 31
0.0
  0
LINE
  5
41E
  8
0
  6
CONTINUOUS
 62
     7
 10
647.9967499121335
 20
1036.025407025479
 30
0.0
 11
647.9967499121335
 21
1035.275407025479
 31
0.0
  0
LINE
  5
41F
  8
0
  6
CONTINUOUS
 62
     7
 10
639.9967499121335
 20
1038.22525576749
 30
0.0
 11
642.9489649501114
 21
1038.251021320076
 31
0.0
  0
LINE
  5
420
  8
0
  6
CONTINUOUS
 62
     7
 10
631.9312401880297
 20
1034.025407025479
 30
0.0
 11
631.8893139646034
 21
1033.225407025479
 31
0.0
  0
LINE
  5
421
  8
0
  6
CONTINUOUS
 62
     7
 10
655.9967499121335
 20
1035.275407025479
 30
0.0
 11
655.9967499121335
 21
1033.225407025479
 31
0.0
  0
LINE
  5
422
  8
0
  6
CONTINUOUS
 62
     7
 10
617.9967499121335
 20
1107.775407025479
 30
0.0
 11
617.4967499121335
 21
1107.775407025479
 31
0.0
  0
LINE
  5
423
  8
0
  6
CONTINUOUS
 62
     9
 10
652.9967499121336
 20
1080.275407025479
 30
0.0
 11
626.9967499121336
 21
1080.275407025479
 31
0.0
  0
LINE
  5
424
  8
0
  6
CONTINUOUS
 62
     9
 10
664.9999411191347
 20
1086.626174695614
 30
0.0
 11
652.9967499121336
 21
1080.275407025479
 31
0.0
  0
LINE
  5
425
  8
0
  6
CONTINUOUS
 62
     7
 10
655.9967499121335
 20
1035.275407025479
 30
0.0
 11
655.9967499121335
 21
1037.775407025479
 31
0.0
  0
LINE
  5
426
  8
0
  6
CONTINUOUS
 62
     7
 10
646.8662866660351
 20
1047.828483317167
 30
0.0
 11
659.4421479919116
 21
1047.828483317617
 31
0.0
  0
LINE
  5
427
  8
0
  6
CONTINUOUS
 62
     7
 10
655.9967499121335
 20
1035.275407025479
 30
0.0
 11
647.9967499121334
 21
1035.275407025479
 31
0.0
  0
LINE
  5
428
  8
0
  6
CONTINUOUS
 62
     7
 10
631.9967499121335
 20
1036.025407025479
 30
0.0
 11
647.9967499121334
 21
1036.025407025479
 31
0.0
  0
LINE
  5
429
  8
0
  6
CONTINUOUS
 62
     7
 10
661.9967499121335
 20
1107.775407025479
 30
0.0
 11
655.9967499121335
 21
1107.775407025479
 31
0.0
  0
LINE
  5
42A
  8
0
  6
CONTINUOUS
 62
     7
 10
631.8893139646034
 20
1033.225407025479
 30
0.0
 11
623.9967499121336
 21
1033.225407025479
 31
0.0
  0
LINE
  5
42B
  8
0
  6
CONTINUOUS
 62
     7
 10
655.9967499121335
 20
1037.775407025479
 30
0.0
 11
623.9967499121336
 21
1037.775407025479
 31
0.0
  0
LINE
  5
42C
  8
0
  6
CONTINUOUS
 62
     9
 10
626.9967499121336
 20
1080.275407025479
 30
0.0
 11
626.9967499121336
 21
1038.277201923448
 31
0.0
  0
LINE
  5
42D
  8
0
  6
CONTINUOUS
 62
     7
 10
659.4421479919117
 20
1047.828483317617
 30
0.0
 11
660.5513194651462
 21
1047.828483317657
 31
0.0
  0
LINE
  5
42E
  8
0
  6
CONTINUOUS
 62
     7
 10
623.9967499121335
 20
1035.275407025479
 30
0.0
 11
623.9967499121335
 21
1037.775407025479
 31
0.0
  0
LINE
  5
42F
  8
0
  6
CONTINUOUS
 62
     7
 10
655.9967499121335
 20
1037.801587628851
 30
0.0
 11
655.9967499121335
 21
1037.775407025479
 31
0.0
  0
LINE
  5
430
  8
0
  6
CONTINUOUS
 62
     7
 10
617.9967499121335
 20
1107.775407025479
 30
0.0
 11
623.9967499121335
 21
1107.775407025479
 31
0.0
  0
LINE
  5
431
  8
0
  6
CONTINUOUS
 62
     7
 10
648.0622596362373
 20
1034.025407025479
 30
0.0
 11
647.9967499121335
 21
1035.275407025479
 31
0.0
  0
CIRCLE
  5
432
  8
0
  6
CONTINUOUS
 62
     9
 10
639.9967499121307
 20
1114.525407025474
 30
0.0
 40
1.021236244656221
  0
LINE
  5
433
  8
0
  6
CONTINUOUS
 62
     7
 10
646.3390150866306
 20
1047.828483317148
 30
0.0
 11
646.8662866660351
 21
1047.828483317167
 31
0.0
  0
LINE
  5
434
  8
0
  6
CONTINUOUS
 62
     7
 10
645.496749881828
 20
1047.828483317117
 30
0.0
 11
646.3390150866309
 21
1047.828483317148
 31
0.0
  0
LINE
  5
435
  8
0
  6
CONTINUOUS
 62
     7
 10
626.9967499121336
 20
1038.277201923448
 30
0.0
 11
614.9967499121336
 21
1038.246944706128
 31
0.0
  0
LINE
  5
436
  8
0
  6
CONTINUOUS
 62
     7
 10
623.9967499121335
 20
1037.775407025479
 30
0.0
 11
623.9967499121335
 21
1037.801587628851
 31
0.0
  0
LINE
  5
437
  8
0
  6
CONTINUOUS
 62
     7
 10
618.9967499121334
 20
257.7754070254787
 30
0.0
 11
618.9967499121334
 21
397.7754070254785
 31
0.0
  0
LINE
  5
438
  8
0
  6
CONTINUOUS
 62
     7
 10
615.9967499121335
 20
1032.775407025479
 30
0.0
 11
631.2467499121335
 21
1032.775407025479
 31
0.0
  0
ARC
  5
439
  8
0
  6
CONTINUOUS
 62
     7
 10
618.4967499121334
 20
1108.775407025479
 30
0.0
 40
0.9999999999998899
 50
90.0
 51
180.0
  0
LINE
  5
43A
  8
0
  6
CONTINUOUS
 62
     7
 10
664.9967499121334
 20
1033.775407025478
 30
0.0
 11
664.9967499121334
 21
1106.775407025479
 31
0.0
  0
ARC
  5
43B
  8
0
  6
CONTINUOUS
 62
     7
 10
648.7467499121335
 20
1033.775407025478
 30
0.0
 40
0.9999999999994458
 50
180.0
 51
270.0
  0
ARC
  5
43C
  8
0
  6
CONTINUOUS
 62
     7
 10
663.9967499121335
 20
1106.775407025479
 30
0.0
 40
0.9999999999998899
 50
0.0
 51
90.0
  0
LINE
  5
43D
  8
0
  6
CONTINUOUS
 62
     7
 10
632.2467499121334
 20
1035.775407025479
 30
0.0
 11
647.7467499121333
 21
1035.775407025479
 31
0.0
  0
ARC
  5
43E
  8
0
  6
CONTINUOUS
 62
     7
 10
615.9967499121335
 20
1106.775407025479
 30
0.0
 40
0.9999999999998899
 50
90.0
 51
180.0
  0
LINE
  5
43F
  8
0
  6
CONTINUOUS
 62
     7
 10
614.9967499121336
 20
1106.775407025479
 30
0.0
 11
614.9967499121336
 21
1033.775407025478
 31
0.0
  0
LINE
  5
440
  8
0
  6
CONTINUOUS
 62
     7
 10
632.2467499121334
 20
1035.775407025479
 30
0.0
 11
631.9967499121334
 21
1035.775407025479
 31
0.0
  0
LINE
  5
441
  8
0
  6
CONTINUOUS
 62
     7
 10
632.2467499121334
 20
1033.775407025478
 30
0.0
 11
632.2467499121334
 21
1035.775407025479
 31
0.0
  0
ARC
  5
442
  8
0
  6
CONTINUOUS
 62
     7
 10
639.9967499121335
 20
367.7754070254788
 30
0.0
 40
21.00000000000005
 50
76.32103569434001
 51
106.9833641149671
  0
LINE
  5
443
  8
0
  6
CONTINUOUS
 62
     7
 10
637.0445348741556
 20
1038.251021320075
 30
0.0
 11
639.9967499121334
 21
1038.22525576749
 31
0.0
  0
LINE
  5
444
  8
0
  6
CONTINUOUS
 62
     7
 10
692.7645158782922
 20
192.7754070254788
 30
0.0
 11
691.2645158782923
 21
192.7754070254788
 31
0.0
  0
LINE
  5
445
  8
0
  6
CONTINUOUS
 62
     7
 10
662.4967499121333
 20
1108.775407025479
 30
0.0
 11
662.4967499121333
 21
1107.775407025479
 31
0.0
  0
LINE
  5
446
  8
0
  6
CONTINUOUS
 62
     7
 10
623.9967499121335
 20
1035.775407025479
 30
0.0
 11
615.9967499121334
 21
1035.775407025479
 31
0.0
  0
LINE
  5
447
  8
0
  6
CONTINUOUS
 62
     7
 10
642.9489649501114
 20
1038.251021320075
 30
0.0
 11
637.0445348741557
 21
1038.251021320075
 31
0.0
  0
LINE
  5
448
  8
0
  6
CONTINUOUS
 62
     7
 10
647.9967499121335
 20
1035.775407025479
 30
0.0
 11
647.7467499121335
 21
1035.775407025479
 31
0.0
  0
ARC
  5
449
  8
0
  6
CONTINUOUS
 62
     7
 10
639.9967499121335
 20
397.7754070254788
 30
0.0
 40
21.00000000000013
 50
359.9999999999994
 51
180.0
  0
LINE
  5
44A
  8
0
  6
CONTINUOUS
 62
     7
 10
660.9967499121334
 20
397.7754070254786
 30
0.0
 11
660.9967499121335
 21
257.7754070254788
 31
0.0
  0
LINE
  5
44B
  8
0
  6
CONTINUOUS
 62
     7
 10
588.7289839459746
 20
192.7754070254788
 30
0.0
 11
587.2289839459746
 21
192.7754070254788
 31
0.0
  0
ARC
  5
44C
  8
0
  6
CONTINUOUS
 62
     7
 10
639.9967499121335
 20
257.7754070254787
 30
0.0
 40
20.99999999999991
 50
180.0000000000002
 51
0.0
  0
LINE
  5
44D
  8
0
  6
CONTINUOUS
 62
     7
 10
663.9967499121335
 20
1035.775407025479
 30
0.0
 11
655.9967499121335
 21
1035.775407025479
 31
0.0
  0
LINE
  5
44E
  8
0
  6
CONTINUOUS
 62
     7
 10
633.862775315918
 20
387.8595887527232
 30
0.0
 11
632.5637372102414
 21
387.4159345686357
 31
0.0
  0
CIRCLE
  5
44F
  8
0
  6
CONTINUOUS
 62
     7
 10
624.9967499121334
 20
212.7754070254788
 30
0.0
 40
4.250000000000087
  0
ARC
  5
450
  8
0
  6
CONTINUOUS
 62
     7
 10
631.2467499121335
 20
1033.775407025478
 30
0.0
 40
0.9999999999998899
 50
270.0
 51
0.0
  0
ARC
  5
451
  8
0
  6
CONTINUOUS
 62
     7
 10
639.9967499121335
 20
367.7754070254788
 30
0.0
 40
20.99999999999983
 50
110.7292889435192
 51
111.5738043923929
  0
ARC
  5
452
  8
0
  6
CONTINUOUS
 62
     7
 10
615.9967499121335
 20
1033.775407025478
 30
0.0
 40
0.9999999999994458
 50
180.0
 51
270.0
  0
LINE
  5
453
  8
0
  6
CONTINUOUS
 62
     7
 10
647.7467499121334
 20
1035.775407025479
 30
0.0
 11
647.7467499121334
 21
1033.775407025479
 31
0.0
  0
ARC
  5
454
  8
0
  6
CONTINUOUS
 62
     7
 10
615.9967499121335
 20
1036.775407025479
 30
0.0
 40
1.000000000000334
 50
180.0
 51
270.0
  0
ARC
  5
455
  8
0
  6
CONTINUOUS
 62
     7
 10
661.4967499121334
 20
1108.775407025479
 30
0.0
 40
0.9999999999998899
 50
0.0
 51
90.0
  0
LINE
  5
456
  8
0
  6
CONTINUOUS
 62
     7
 10
617.4967499121335
 20
1108.775407025479
 30
0.0
 11
617.4967499121335
 21
1107.775407025479
 31
0.0
  0
LINE
  5
457
  8
0
  6
CONTINUOUS
 62
     7
 10
632.2750620756464
 20
387.304245622688
 30
0.0
 11
630.9760239699698
 21
386.739227934683
 31
0.0
  0
ARC
  5
458
  8
0
  6
CONTINUOUS
 62
     7
 10
663.9967499121335
 20
1036.775407025479
 30
0.0
 40
0.9999999999998899
 50
270.0
 51
0.0
  0
LINE
  5
459
  8
0
  6
CONTINUOUS
 62
     7
 10
588.7289839459746
 20
192.7754070254788
 30
0.0
 11
691.2645158782921
 21
192.7754070254788
 31
0.0
  0
LINE
  5
45A
  8
0
  6
CONTINUOUS
 62
     7
 10
691.2645158782922
 20
1142.775407025479
 30
0.0
 11
692.7218384003572
 21
1142.573558824786
 31
0.0
  0
CIRCLE
  5
45B
  8
0
  6
CONTINUOUS
 62
     7
 10
654.9967499121334
 20
212.7754070254788
 30
0.0
 40
4.250000000000087
  0
LINE
  5
45C
  8
0
  6
CONTINUOUS
 62
     7
 10
648.7467499121335
 20
1032.775407025479
 30
0.0
 11
663.9967499121335
 21
1032.775407025479
 31
0.0
  0
ARC
  5
45D
  8
0
  6
CONTINUOUS
 62
     7
 10
663.9967499121335
 20
1033.775407025478
 30
0.0
 40
0.9999999999998899
 50
270.0
 51
0.0
  0
LINE
  5
45E
  8
0
  6
CONTINUOUS
 62
     7
 10
587.235856404038
 20
1142.536205890721
 30
0.0
 11
587.3557528433216
 21
1142.617333406262
 31
0.0
  0
LINE
  5
45F
  8
0
  6
CONTINUOUS
 62
     7
 10
661.4967499121334
 20
1109.775407025479
 30
0.0
 11
618.4967499121334
 21
1109.775407025479
 31
0.0
  0
LINE
  5
460
  8
0
  6
CONTINUOUS
 62
     7
 10
642.1101024410358
 20
1366.635895092885
 30
0.0
 11
642.050103001946
 21
1366.635895092883
 31
0.0
  0
LINE
  5
461
  8
0
  6
CONTINUOUS
 62
     7
 10
637.9433968221737
 20
1366.635895092732
 30
0.0
 11
637.8833973830765
 21
1366.63589509273
 31
0.0
  0
LINE
  5
462
  8
0
  6
CONTINUOUS
 62
     7
 10
639.4967499120578
 20
1366.852535500016
 30
0.0
 11
638.6967499120519
 21
1366.852535499957
 31
0.0
  0
LINE
  5
463
  8
0
  6
CONTINUOUS
 62
     7
 10
399.9863196085348
 20
192.7754070254788
 30
0.0
 11
398.2718784645518
 21
192.7754070254788
 31
0.0
  0
LINE
  5
464
  8
0
  6
CONTINUOUS
 62
     9
 10
323.8703552535198
 20
1129.354108847046
 30
0.0
 11
323.8703552535198
 21
192.7754070254787
 31
0.0
  0
LINE
  5
465
  8
0
  6
CONTINUOUS
 62
     7
 10
401.9688455026047
 20
1110.525407025474
 30
0.0
 11
401.9688455026047
 21
1117.291893570395
 31
0.0
  0
LINE
  5
466
  8
0
  6
CONTINUOUS
 62
     7
 10
637.1077098991202
 20
1273.031154497396
 30
0.0
 11
643.996749912131
 21
1273.031154497396
 31
0.0
  0
LINE
  5
467
  8
0
  6
CONTINUOUS
 62
     7
 10
639.4967499120563
 20
1366.635895092865
 30
0.0
 11
639.4967499120484
 21
1366.852535500016
 31
0.0
  0
LINE
  5
468
  8
0
  6
CONTINUOUS
 62
     7
 10
643.9967499121308
 20
1273.331154497396
 30
0.0
 11
642.4542436178376
 21
1274.873660791689
 31
0.0
  0
ARC
  5
469
  8
0
  6
CONTINUOUS
 62
     7
 10
645.4967498818606
 20
1046.828483317118
 30
0.0
 40
0.9999999999998899
 50
90.00000000201013
 51
180.0000000020489
  0
LINE
  5
46A
  8
0
  6
CONTINUOUS
 62
     7
 10
308.1474645000807
 20
1120.275407025402
 30
0.0
 11
308.1474645000807
 21
1119.475407025396
 31
0.0
  0
LINE
  5
46B
  8
0
  6
CONTINUOUS
 62
     7
 10
637.5392562064237
 20
1274.873660791689
 30
0.0
 11
635.9967499121306
 21
1273.331154497396
 31
0.0
  0
ARC
  5
46C
  8
0
  6
CONTINUOUS
 62
     7
 10
639.9967499122665
 20
1360.913680391466
 30
0.0
 40
6.100000000000134
 50
110.2704096988983
 51
129.0741745761901
  0
LINE
  5
46D
  8
0
  6
CONTINUOUS
 62
     7
 10
323.8703552535198
 20
192.7754070254788
 30
0.0
 11
333.9863196085348
 21
192.7754070254788
 31
0.0
  0
LINE
  5
46E
  8
0
  6
CONTINUOUS
 62
     7
 10
635.9967499121304
 20
1273.031154497396
 30
0.0
 11
637.1077098991202
 21
1273.031154497396
 31
0.0
  0
LINE
  5
46F
  8
0
  6
CONTINUOUS
 62
     7
 10
308.3641049072687
 20
1118.722053935518
 30
0.0
 11
308.3641049072709
 21
1118.662054496421
 31
0.0
  0
ARC
  5
470
  8
0
  6
CONTINUOUS
 62
     7
 10
314.0863196085529
 20
1120.775407025615
 30
0.0
 40
6.079473661428175
 50
160.2600401900754
 51
167.6528527126431
  0
LINE
  5
471
  8
0
  6
CONTINUOUS
 62
     7
 10
401.6688455026048
 20
1118.525407025475
 30
0.0
 11
399.9863196085348
 21
1116.842881131405
 31
0.0
  0
LINE
  5
472
  8
0
  6
CONTINUOUS
 62
     7
 10
308.3641049071747
 20
1121.275407025416
 30
0.0
 11
308.3641049072115
 21
1120.275407025416
 31
0.0
  0
LINE
  5
473
  8
0
  6
CONTINUOUS
 62
     7
 10
401.9688455026047
 20
1117.291893570395
 30
0.0
 11
401.9688455026047
 21
1118.525407025475
 31
0.0
  0
LINE
  5
474
  8
0
  6
CONTINUOUS
 62
     7
 10
401.6688455026048
 20
1110.525407025474
 30
0.0
 11
401.9688455026048
 21
1110.525407025474
 31
0.0
  0
LINE
  5
475
  8
0
  6
CONTINUOUS
 62
     7
 10
641.2967499120518
 20
1366.852535500052
 30
0.0
 11
640.4967499120578
 21
1366.852535500052
 31
0.0
  0
LINE
  5
476
  8
0
  6
CONTINUOUS
 62
     7
 10
640.4967499120713
 20
1366.635895092826
 30
0.0
 11
639.4967499120714
 21
1366.635895092789
 31
0.0
  0
LINE
  5
477
  8
0
  6
CONTINUOUS
 62
     7
 10
333.9863196085347
 20
213.7754070254787
 30
0.0
 11
333.9863196085347
 21
192.7754070254788
 31
0.0
  0
LINE
  5
478
  8
0
  6
CONTINUOUS
 62
     7
 10
401.6688455026048
 20
1027.025407025475
 30
0.0
 11
401.9688455026048
 21
1027.025407025475
 31
0.0
  0
LINE
  5
479
  8
0
  6
CONTINUOUS
 62
     7
 10
401.6688455026048
 20
1035.025407025475
 30
0.0
 11
399.9863196085348
 21
1033.342881131405
 31
0.0
  0
ARC
  5
47A
  8
0
  6
CONTINUOUS
 62
     7
 10
639.9967499122703
 20
1360.913680391485
 30
0.0
 40
6.079473661428429
 50
70.26004019007182
 51
77.65285271263981
  0
LINE
  5
47B
  8
0
  6
CONTINUOUS
 62
     7
 10
643.9967499121308
 20
1273.031154497396
 30
0.0
 11
643.9967499121308
 21
1273.331154497396
 31
0.0
  0
LINE
  5
47C
  8
0
  6
CONTINUOUS
 62
     7
 10
635.9967499121306
 20
1273.331154497396
 30
0.0
 11
635.9967499121306
 21
1273.031154497396
 31
0.0
  0
LINE
  5
47D
  8
0
  6
CENTER
 62
     1
 10
639.9967499121335
 20
1162.510916554416
 30
0.0
 11
639.9967499121335
 21
172.7754070254788
 31
0.0
  0
LINE
  5
47E
  8
0
  6
CONTINUOUS
 62
     7
 10
375.9863196085347
 20
192.7754070254788
 30
0.0
 11
398.2718784645518
 21
192.7754070254788
 31
0.0
  0
LINE
  5
47F
  8
0
  6
CONTINUOUS
 62
     7
 10
692.7645158782922
 20
192.7754070254788
 30
0.0
 11
692.7645158782922
 21
1142.510916554416
 31
0.0
  0
LINE
  5
480
  8
0
  6
CONTINUOUS
 62
     7
 10
401.9688455026047
 20
1118.525407025475
 30
0.0
 11
401.6688455026047
 21
1118.525407025475
 31
0.0
  0
LINE
  5
481
  8
0
  6
CONTINUOUS
 62
     7
 10
399.9863196085348
 20
1028.707932919544
 30
0.0
 11
401.6688455026048
 21
1027.025407025475
 31
0.0
  0
LINE
  5
482
  8
0
  6
CONTINUOUS
 62
     7
 10
308.3641049072875
 20
1120.2754070254
 30
0.0
 11
308.1474645000813
 21
1120.275407025392
 31
0.0
  0
LINE
  5
483
  8
0
  6
CONTINUOUS
 62
     7
 10
401.6688455026048
 20
1027.025407025474
 30
0.0
 11
401.6688455026048
 21
1033.791893570395
 31
0.0
  0
LINE
  5
484
  8
0
  6
CONTINUOUS
 62
     7
 10
401.9688455026047
 20
1027.025407025474
 30
0.0
 11
401.9688455026047
 21
1033.791893570395
 31
0.0
  0
LINE
  5
485
  8
0
  6
CONTINUOUS
 62
     7
 10
323.8703552535198
 20
192.7754070254788
 30
0.0
 11
309.9863196085346
 21
192.7754070254788
 31
0.0
  0
ARC
  5
486
  8
0
  6
CONTINUOUS
 62
     7
 10
314.0863196085529
 20
1120.775407025615
 30
0.0
 40
6.079473661428403
 50
192.3471472915792
 51
199.7399598141464
  0
LINE
  5
487
  8
0
  6
CENTER
 62
     1
 10
639.9967499121333
 20
1253.183634525592
 30
0.0
 11
639.9967499121334
 21
1368.387126117236
 31
0.0
  0
LINE
  5
488
  8
0
  6
CONTINUOUS
 62
     7
 10
401.6688455026048
 20
1110.525407025474
 30
0.0
 11
401.6688455026048
 21
1117.291893570395
 31
0.0
  0
LINE
  5
489
  8
0
  6
CONTINUOUS
 62
     7
 10
401.9688455026047
 20
1035.025407025475
 30
0.0
 11
401.6688455026047
 21
1035.025407025475
 31
0.0
  0
LINE
  5
48A
  8
0
  6
CONTINUOUS
 62
     7
 10
399.9863196085348
 20
1112.207932919544
 30
0.0
 11
401.6688455026048
 21
1110.525407025474
 31
0.0
  0
ARC
  5
48B
  8
0
  6
CONTINUOUS
 62
     7
 10
314.0863196085346
 20
1120.775407025611
 30
0.0
 40
6.100000000000107
 50
200.2704096989007
 51
227.7682383614777
  0
LINE
  5
48C
  8
0
  6
CONTINUOUS
 62
     7
 10
309.9863196085348
 20
192.7754070254788
 30
0.0
 11
309.9863196085348
 21
1126.905978761717
 31
0.0
  0
ARC
  5
48D
  8
0
  6
CONTINUOUS
 62
     7
 10
314.0863196085346
 20
1120.775407025611
 30
0.0
 40
6.099999999999607
 50
132.2317616385238
 51
159.7295903053179
  0
LINE
  5
48E
  8
0
  6
CONTINUOUS
 62
     7
 10
399.9863196085348
 20
1142.775407025479
 30
0.0
 11
399.9863196085348
 21
192.7754070254787
 31
0.0
  0
ARC
  5
48F
  8
0
  6
CONTINUOUS
 62
     7
 10
639.9967499122703
 20
1360.913680391485
 30
0.0
 40
6.079473661428525
 50
102.3471472915746
 51
109.7399598141424
  0
LINE
  5
490
  8
0
  6
CONTINUOUS
 62
     7
 10
640.4967499120481
 20
1366.852535500053
 30
0.0
 11
640.4967499120563
 21
1366.635895092902
 31
0.0
  0
LINE
  5
491
  8
0
  6
CONTINUOUS
 62
     7
 10
637.1077098991202
 20
1273.331154497396
 30
0.0
 11
643.996749912131
 21
1273.331154497396
 31
0.0
  0
LINE
  5
492
  8
0
  6
CONTINUOUS
 62
     7
 10
635.9967499121304
 20
1273.331154497396
 30
0.0
 11
637.1077098991202
 21
1273.331154497396
 31
0.0
  0
ARC
  5
493
  8
0
  6
CONTINUOUS
 62
     7
 10
639.9967499122665
 20
1360.913680391466
 30
0.0
 40
6.100000000000207
 50
50.92582542380883
 51
69.72959030531413
  0
ARC
  5
494
  8
0
  6
CONTINUOUS
 62
     7
 10
639.9967499121335
 20
367.7754070254788
 30
0.0
 40
20.99999999999994
 50
115.4395369811132
 51
180.0000000000005
  0
LINE
  5
495
  8
0
  6
CONTINUOUS
 62
     7
 10
587.2289839459747
 20
1142.510916554416
 30
0.0
 11
587.2289839459747
 21
192.7754070254789
 31
0.0
  0
LINE
  5
496
  8
0
  6
CONTINUOUS
 62
     7
 10
401.6688455026048
 20
1033.791893570395
 30
0.0
 11
401.6688455026048
 21
1035.025407025475
 31
0.0
  0
LINE
  5
497
  8
0
  6
CONTINUOUS
 62
     7
 10
401.9688455026047
 20
1033.791893570395
 30
0.0
 11
401.9688455026047
 21
1035.025407025475
 31
0.0
  0
LINE
  5
498
  8
0
  6
CONTINUOUS
 62
     7
 10
401.6688455026048
 20
1117.291893570395
 30
0.0
 11
401.6688455026048
 21
1118.525407025475
 31
0.0
  0
LINE
  5
499
  8
0
  6
CONTINUOUS
 62
     7
 10
308.3641049071153
 20
1122.88875955438
 30
0.0
 11
308.3641049071176
 21
1122.82876011529
 31
0.0
  0
LINE
  5
49A
  8
0
  6
CONTINUOUS
 62
     7
 10
308.1474645000444
 20
1121.275407025393
 30
0.0
 11
308.3641049072507
 21
1121.275407025401
 31
0.0
  0
LINE
  5
49B
  8
0
  6
CONTINUOUS
 62
     7
 10
308.1474644999849
 20
1122.075407025396
 30
0.0
 11
308.147464500044
 21
1121.275407025402
 31
0.0
  0
LINE
  5
49C
  8
0
  6
CONTINUOUS
 62
     7
 10
375.9863196085347
 20
192.7754070254788
 30
0.0
 11
375.9863196085347
 21
213.7754070254787
 31
0.0
  0
ARC
  5
49D
  8
0
  6
CONTINUOUS
 62
     7
 10
354.9863196085346
 20
213.7754070254787
 30
0.0
 40
21.00000000000013
 50
0.0
 51
180.0
  0
LINE
  5
49E
  8
0
  6
CONTINUOUS
 62
     7
 10
108.4699167545334
 20
213.7754070254787
 30
0.0
 11
108.4699167545334
 21
192.7754070254788
 31
0.0
  0
LINE
  5
49F
  8
0
  6
CONTINUOUS
 62
     9
 10
117.7556085892914
 20
192.7754070254788
 30
0.0
 11
117.7556085892914
 21
1142.283567052283
 31
0.0
  0
CIRCLE
  5
4A0
  8
0
  6
CONTINUOUS
 62
     7
 10
65.00325008786672
 20
212.7754070254788
 30
0.0
 40
4.250000000000031
  0
LINE
  5
4A1
  8
0
  6
CONTINUOUS
 62
     7
 10
44.0032500878667
 20
367.7754070254786
 30
0.0
 11
44.0032500878667
 21
257.7754070254788
 31
0.0
  0
LINE
  5
4A2
  8
0
  6
CONTINUOUS
 62
     7
 10
21.53658342120007
 20
192.7754070254788
 30
0.0
 11
22.99777827247994
 21
192.7754070254788
 31
0.0
  0
ARC
  5
4A3
  8
0
  6
CONTINUOUS
 62
     7
 10
65.00325008786672
 20
257.7754070254787
 30
0.0
 40
21.00000000000002
 50
180.0
 51
359.9999999999998
  0
LINE
  5
4A4
  8
0
  6
CONTINUOUS
 62
     7
 10
18.50325008786685
 20
234.7754070254788
 30
0.0
 11
17.62271990019498
 21
233.8711540758552
 31
0.0
  0
ARC
  5
4A5
  8
0
  6
CONTINUOUS
 62
     7
 10
86.29922638327835
 20
216.3508397647946
 30
0.0
 40
70.87611696671414
 50
165.6883341664227
 51
182.0824210607472
  0
LINE
  5
4A6
  8
0
  6
CONTINUOUS
 62
     9
 10
114.5365834212
 20
213.7754070254787
 30
0.0
 11
111.5054486868509
 21
213.7754070254787
 31
0.0
  0
LINE
  5
4A7
  8
0
  6
CONTINUOUS
 62
     7
 10
114.5365834212
 20
192.7754070254788
 30
0.0
 11
111.5054486868509
 21
192.7754070254788
 31
0.0
  0
LINE
  5
4A8
  8
0
  6
CONTINUOUS
 62
     7
 10
111.5054486868509
 20
213.7754070254787
 30
0.0
 11
111.5054486868509
 21
192.7754070254788
 31
0.0
  0
LINE
  5
4A9
  8
0
  6
CONTINUOUS
 62
     7
 10
21.53658342120007
 20
192.7754070254788
 30
0.0
 11
21.53658342120014
 21
213.7754070254787
 31
0.0
  0
LINE
  5
4AA
  8
0
  6
CONTINUOUS
 62
     7
 10
64.5032500877239
 20
1122.075407025389
 30
0.0
 11
64.50325008771834
 21
1122.828760115284
 31
0.0
  0
LINE
  5
4AB
  8
0
  6
CONTINUOUS
 62
     9
 10
107.0087219032534
 20
1129.354108847046
 30
0.0
 11
107.0087219032534
 21
192.7754070254787
 31
0.0
  0
LINE
  5
4AC
  8
0
  6
CONTINUOUS
 62
     7
 10
39.03137765335202
 20
192.7754070254788
 30
0.0
 11
90.97512252238138
 21
192.7754070254788
 31
0.0
  0
ARC
  5
4AD
  8
0
  6
CONTINUOUS
 62
     7
 10
65.00325008794394
 20
1120.7754070254
 30
0.0
 40
2.113352528980085
 50
346.3145799006201
 51
13.68542010023151
  0
LINE
  5
4AE
  8
0
  6
CONTINUOUS
 62
     7
 10
114.5365834212
 20
192.7754070254788
 30
0.0
 11
117.7556085892914
 21
192.7754070254788
 31
0.0
  0
LINE
  5
4AF
  8
0
  6
CONTINUOUS
 62
     7
 10
65.50325008774321
 20
1119.475407025396
 30
0.0
 11
65.50325008774877
 21
1118.722053935518
 31
0.0
  0
LINE
  5
4B0
  8
0
  6
CONTINUOUS
 62
     7
 10
108.4699167545334
 20
192.7754070254788
 30
0.0
 11
111.5054486868509
 21
192.7754070254788
 31
0.0
  0
CIRCLE
  5
4B1
  8
0
  6
CONTINUOUS
 62
     9
 10
65.00325008787256
 20
1120.775407025472
 30
0.0
 40
1.021236244656054
  0
LINE
  5
4B2
  8
0
  6
CONTINUOUS
 62
     7
 10
39.03137765335202
 20
192.7754070254788
 30
0.0
 11
22.99777827247991
 21
192.7754070254788
 31
0.0
  0
LINE
  5
4B3
  8
0
  6
CONTINUOUS
 62
     7
 10
66.30325008794819
 20
1121.275407025621
 30
0.0
 11
67.05660317782649
 21
1121.275407025626
 31
0.0
  0
LINE
  5
4B4
  8
0
  6
CONTINUOUS
 62
     7
 10
86.00325008786669
 20
257.7754070254787
 30
0.0
 11
86.00325008786669
 21
367.7754070254786
 31
0.0
  0
LINE
  5
4B5
  8
0
  6
CONTINUOUS
 62
     9
 10
12.25089158644205
 20
1142.283567052283
 30
0.0
 11
12.25089158644205
 21
192.7754070254787
 31
0.0
  0
LINE
  5
4B6
  8
0
  6
CONTINUOUS
 62
     7
 10
66.30325008795562
 20
1120.275407025402
 30
0.0
 11
65.50325008796155
 21
1119.475407025396
 31
0.0
  0
LINE
  5
4B7
  8
0
  6
CONTINUOUS
 62
     7
 10
111.5032500878668
 20
234.7754070254788
 30
0.0
 11
110.622719900195
 21
233.8711540758552
 31
0.0
  0
ARC
  5
4B8
  8
0
  6
CONTINUOUS
 62
     7
 10
179.2992263832716
 20
216.3508397647951
 30
0.0
 40
70.87611696670753
 50
165.6883341664217
 51
182.0824210607477
  0
LINE
  5
4B9
  8
0
  6
CONTINUOUS
 62
     7
 10
63.70325008795574
 20
1120.275407025601
 30
0.0
 11
62.9498969980614
 21
1120.275407025596
 31
0.0
  0
LINE
  5
4BA
  8
0
  6
CONTINUOUS
 62
     7
 10
15.46991675453341
 20
213.7754070254787
 30
0.0
 11
15.46991675453341
 21
192.7754070254788
 31
0.0
  0
LINE
  5
4BB
  8
0
  6
CONTINUOUS
 62
     7
 10
109.9876827206922
 20
231.9663323266727
 30
0.0
 11
111.505448686851
 21
213.7754070254786
 31
0.0
  0
LINE
  5
4BC
  8
0
  6
CONTINUOUS
 62
     9
 10
18.50105148888253
 20
213.7754070254787
 30
0.0
 11
15.46991675453344
 21
213.7754070254787
 31
0.0
  0
LINE
  5
4BD
  8
0
  6
CONTINUOUS
 62
     7
 10
67.05660317783396
 20
1120.275407025626
 30
0.0
 11
66.30325008795558
 21
1120.275407025621
 31
0.0
  0
LINE
  5
4BE
  8
0
  6
CONTINUOUS
 62
     7
 10
18.50105148888253
 20
192.7754070254788
 30
0.0
 11
18.50105148888253
 21
213.7754070254787
 31
0.0
  0
LINE
  5
4BF
  8
0
  6
CONTINUOUS
 62
     7
 10
62.94989699805392
 20
1121.275407025596
 30
0.0
 11
63.70325008794826
 21
1121.275407025601
 31
0.0
  0
CIRCLE
  5
4C0
  8
0
  6
CONTINUOUS
 62
     7
 10
65.00325008786662
 20
407.7754070254788
 30
0.0
 40
1.999999999999946
  0
LINE
  5
4C1
  8
0
  6
CONTINUOUS
 62
     7
 10
107.0087219032534
 20
192.7754070254788
 30
0.0
 11
108.4699167545334
 21
192.7754070254788
 31
0.0
  0
ARC
  5
4C2
  8
0
  6
CONTINUOUS
 62
     7
 10
65.00325008786672
 20
367.7754070254788
 30
0.0
 40
20.99999999999996
 50
0.0
 51
180.0000000000008
  0
ARC
  5
4C3
  8
0
  6
CONTINUOUS
 62
     7
 10
-54.36436033721287
 20
215.8075292881736
 30
0.0
 40
75.92814224191392
 50
358.4663666175913
 51
13.76287815523927
  0
POLYLINE
  5
4C4
  8
0
  6
CONTINUOUS
 62
     7
 66
     1
 10
0.0
 20
0.0
 30
0.0
  0
VERTEX
  5
559
  8
0
  6
CONTINUOUS
 62
     7
 10
19.38378027553872
 20
233.8711540758551
 30
0.0
  0
VERTEX
  5
55A
  8
0
  6
CONTINUOUS
 62
     7
 10
18.65208869999335
 20
234.7501116057873
 30
0.0
  0
VERTEX
  5
55B
  8
0
  6
CONTINUOUS
 62
     7
 10
18.50325008786685
 20
234.7754070254788
 30
0.0
  0
SEQEND
  5
562
  8
0
  6
CONTINUOUS
 62
     7
  0
LINE
  5
4C5
  8
0
  6
CONTINUOUS
 62
     7
 10
114.5365834212
 20
192.7754070254788
 30
0.0
 11
114.5365834212
 21
213.7754070254787
 31
0.0
  0
LINE
  5
4C6
  8
0
  6
CONTINUOUS
 62
     7
 10
18.50105148888253
 20
213.7754070254787
 30
0.0
 11
20.01881745504128
 21
231.9663323266723
 31
0.0
  0
LINE
  5
4C7
  8
0
  6
CONTINUOUS
 62
     7
 10
15.46991675453341
 20
192.7754070254788
 30
0.0
 11
18.50105148888251
 21
192.7754070254788
 31
0.0
  0
LINE
  5
4C8
  8
0
  6
CONTINUOUS
 62
     7
 10
18.50105148888253
 20
192.7754070254788
 30
0.0
 11
21.53658342120008
 21
192.7754070254788
 31
0.0
  0
LINE
  5
4C9
  8
0
  6
CONTINUOUS
 62
     7
 10
12.25089158644205
 20
192.7754070254788
 30
0.0
 11
15.46991675453341
 21
192.7754070254788
 31
0.0
  0
ARC
  5
4CA
  8
0
  6
CONTINUOUS
 62
     7
 10
65.00325008794394
 20
1120.7754070254
 30
0.0
 40
2.113352528980031
 50
256.3145799006186
 51
283.6854201002319
  0
LINE
  5
4CB
  8
0
  6
CONTINUOUS
 62
     7
 10
65.50325008794228
 20
1122.075407025396
 30
0.0
 11
66.30325008794821
 21
1121.275407025402
 31
0.0
  0
LINE
  5
4CC
  8
0
  6
CONTINUOUS
 62
     7
 10
117.7710160540255
 20
192.7754070254788
 30
0.0
 11
117.7556085892913
 21
192.7754070254788
 31
0.0
  0
LINE
  5
4CD
  8
0
  6
CONTINUOUS
 62
     7
 10
12.25089158644205
 20
192.7754070254788
 30
0.0
 11
12.23548412170793
 21
192.7754070254788
 31
0.0
  0
LINE
  5
4CE
  8
0
  6
CONTINUOUS
 62
     9
 10
39.03137765335202
 20
1126.905978761717
 30
0.0
 11
39.03137765335202
 21
192.7754070254786
 31
0.0
  0
LINE
  5
4CF
  8
0
  6
CONTINUOUS
 62
     7
 10
117.7710160540255
 20
192.7754070254788
 30
0.0
 11
117.7710160540255
 21
1142.302521620169
 31
0.0
  0
LINE
  5
4D0
  8
0
  6
CONTINUOUS
 62
     7
 10
12.23548412170794
 20
1142.302521620169
 30
0.0
 11
12.23548412170794
 21
192.7754070254788
 31
0.0
  0
LINE
  5
4D1
  8
0
  6
CENTER
 62
     1
 10
65.00325008786672
 20
1162.283567052283
 30
0.0
 11
65.00325008786672
 21
172.7754070254786
 31
0.0
  0
ARC
  5
4D2
  8
0
  6
CONTINUOUS
 62
     7
 10
65.00325008794394
 20
1120.7754070254
 30
0.0
 40
2.113352528980085
 50
166.31457990062
 51
193.6854201002316
  0
LINE
  5
4D3
  8
0
  6
CENTER
 62
     1
 10
52.50325008786666
 20
550.2754070254787
 30
0.0
 11
107.5032500878667
 21
550.2754070254787
 31
0.0
  0
LINE
  5
4D4
  8
0
  6
CONTINUOUS
 62
     7
 10
65.50325008771829
 20
1122.828760115291
 30
0.0
 11
65.50325008772391
 21
1122.075407025396
 31
0.0
  0
LINE
  5
4D5
  8
0
  6
CONTINUOUS
 62
     7
 10
63.70325008794819
 20
1121.275407025383
 30
0.0
 11
64.50325008794226
 21
1122.075407025389
 31
0.0
  0
ARC
  5
4D6
  8
0
  6
CONTINUOUS
 62
     7
 10
65.00325008794394
 20
1120.7754070254
 30
0.0
 40
2.113352528980031
 50
76.31457990061722
 51
103.6854201002319
  0
LINE
  5
4D7
  8
0
  6
CONTINUOUS
 62
     7
 10
64.50325008774877
 20
1118.72205393551
 30
0.0
 11
64.50325008774321
 21
1119.475407025389
 31
0.0
  0
LINE
  5
4D8
  8
0
  6
CONTINUOUS
 62
     7
 10
64.50325008796153
 20
1119.475407025389
 30
0.0
 11
63.7032500879556
 21
1120.275407025383
 31
0.0
  0
LINE
  5
4D9
  8
0
  6
CONTINUOUS
 62
     7
 10
107.0087219032534
 20
192.7754070254788
 30
0.0
 11
90.97512252238141
 21
192.7754070254788
 31
0.0
  0
LINE
  5
4DA
  8
0
  6
CONTINUOUS
 62
     9
 10
22.99777827247989
 20
192.7754070254788
 30
0.0
 11
22.99777827247989
 21
1129.354108847046
 31
0.0
  0
LINE
  5
4DB
  8
0
  6
CONTINUOUS
 62
     9
 10
90.97512252238138
 20
192.7754070254788
 30
0.0
 11
90.97512252238138
 21
1126.861733586452
 31
0.0
  0
ARC
  5
4DC
  8
0
  6
CONTINUOUS
 62
     7
 10
38.6356396627755
 20
215.8075292881722
 30
0.0
 40
75.92814224192554
 50
358.4663666175925
 51
13.76287815523813
  0
POLYLINE
  5
4DD
  8
0
  6
CONTINUOUS
 62
     7
 66
     1
 10
0.0
 20
0.0
 30
0.0
  0
VERTEX
  5
55C
  8
0
  6
CONTINUOUS
 62
     7
 10
112.3837802755387
 20
233.8711540758551
 30
0.0
  0
VERTEX
  5
55D
  8
0
  6
CONTINUOUS
 62
     7
 10
111.6520886999933
 20
234.7501116057873
 30
0.0
  0
VERTEX
  5
55E
  8
0
  6
CONTINUOUS
 62
     7
 10
111.5032500878668
 20
234.7754070254788
 30
0.0
  0
SEQEND
  5
563
  8
0
  6
CONTINUOUS
 62
     7
  0
LINE
  5
4DE
  8
0
  6
CENTER
 62
     1
 10
313.9863196085346
 20
213.7754070254787
 30
0.0
 11
395.9863196085347
 21
213.7754070254787
 31
0.0
  0
LINE
  5
4DF
  8
0
  6
CENTER
 62
     1
 10
354.9863196085346
 20
172.7754070254788
 30
0.0
 11
354.9863196085346
 21
254.7754070254786
 31
0.0
  0
LINE
  5
4E0
  8
0
  6
CENTER
 62
     1
 10
654.9967499121334
 20
188.5254070254789
 30
0.0
 11
654.9967499121334
 21
237.0254070254786
 31
0.0
  0
LINE
  5
4E1
  8
0
  6
CENTER
 62
     1
 10
600.7467499121333
 20
212.7754070254788
 30
0.0
 11
649.2467499121335
 21
212.7754070254788
 31
0.0
  0
LINE
  5
4E2
  8
0
  6
CENTER
 62
     1
 10
624.9967499121334
 20
188.5254070254785
 30
0.0
 11
624.9967499121334
 21
237.0254070254787
 31
0.0
  0
LINE
  5
4E3
  8
0
  6
CONTINUOUS
 62
     9
 10
647.3572197315165
 20
238.3350373886881
 30
0.0
 11
647.9385399112659
 21
238.3350373886881
 31
0.0
  0
LINE
  5
4E4
  8
0
  6
CENTER
 62
     1
 10
43.00325008786665
 20
407.7754070254788
 30
0.0
 11
87.00325008786666
 21
407.7754070254788
 31
0.0
  0
LINE
  5
4E5
  8
0
  6
CENTER
 62
     1
 10
40.75325008786668
 20
212.7754070254788
 30
0.0
 11
89.25325008786675
 21
212.7754070254788
 31
0.0
  0
LINE
  5
4E6
  8
0
  6
CENTER
 62
     1
 10
630.7467499121335
 20
212.7754070254788
 30
0.0
 11
679.2467499121335
 21
212.7754070254788
 31
0.0
  0
LINE
  5
4E7
  8
0
  6
CENTER
 62
     1
 10
80.00325008786663
 20
522.7754070254787
 30
0.0
 11
80.00325008786663
 21
577.7754070254787
 31
0.0
  0
LINE
  5
4E8
  8
0
  6
CONTINUOUS
 62
     9
 10
647.3572197315202
 20
416.7230373887074
 30
0.0
 11
649.0514339822702
 21
416.7230373887074
 31
0.0
  0
LINE
  5
4E9
  8
0
  6
CONTINUOUS
 62
     9
 10
652.1582687483483
 20
1046.828483317356
 30
0.0
 11
645.9067220725905
 21
1046.828483317132
 31
0.0
  0
LINE
  5
4EA
  8
0
  6
CONTINUOUS
 62
     7
 10
662.278367939186
 20
1045.828483318269
 30
0.0
 11
662.2783679393918
 21
1040.078741057076
 31
0.0
  0
LINE
  5
4EB
  8
0
  6
CONTINUOUS
 62
     7
 10
653.5117431465143
 20
1046.828483317896
 30
0.0
 11
654.2529137482778
 21
1046.828483317923
 31
0.0
  0
LINE
  5
4EC
  8
0
  6
CONTINUOUS
 62
     7
 10
652.7727758111071
 20
1046.828483317378
 30
0.0
 11
653.5117431465147
 21
1046.828483317405
 31
0.0
  0
LINE
  5
4ED
  8
0
  6
CONTINUOUS
 62
     7
 10
652.2823614460323
 20
1046.82848331784
 30
0.0
 11
652.7727758111064
 21
1046.828483317858
 31
0.0
  0
LINE
  5
4EE
  8
0
  6
CONTINUOUS
 62
     7
 10
643.1205099030846
 20
1037.828483317286
 30
0.0
 11
643.1205099030451
 21
1038.931291017835
 31
0.0
  0
ARC
  5
4EF
  8
0
  6
CONTINUOUS
 62
     7
 10
652.7727758111008
 20
1046.594277585575
 30
0.0
 40
0.2342057323150293
 50
90.00000000309626
 51
95.7948985849186
  0
LINE
  5
4F0
  8
0
  6
CONTINUOUS
 62
     7
 10
654.6009316741092
 20
1046.828483317965
 30
0.0
 11
656.1904567949682
 21
1045.82848331804
 31
0.0
  0
LINE
  5
4F1
  8
0
  6
CONTINUOUS
 62
     9
 10
644.998732227432
 20
1046.8284833171
 30
0.0
 11
644.4967498818637
 21
1046.828483317082
 31
0.0
  0
LINE
  5
4F2
  8
0
  6
CONTINUOUS
 62
     7
 10
662.278367939186
 20
1045.828483318269
 30
0.0
 11
663.9094812088728
 21
1046.828483318315
 31
0.0
  0
LINE
  5
4F3
  8
0
  6
CONTINUOUS
 62
     7
 10
643.1205099030864
 20
1037.828483317032
 30
0.0
 11
664.9967499121328
 21
1037.828483317816
 31
0.0
  0
LINE
  5
4F4
  8
0
  6
CONTINUOUS
 62
     7
 10
650.7693359997888
 20
1045.828483317753
 30
0.0
 11
650.7693359999948
 21
1040.07874105656
 31
0.0
  0
LINE
  5
4F5
  8
0
  6
CONTINUOUS
 62
     7
 10
652.1582687483474
 20
1046.828483317836
 30
0.0
 11
652.282361446032
 21
1046.828483317852
 31
0.0
  0
LINE
  5
4F6
  8
0
  6
CONTINUOUS
 62
     7
 10
645.0684141087181
 20
1046.828483317296
 30
0.0
 11
645.5728894492306
 21
1046.828483317314
 31
0.0
  0
LINE
  5
4F7
  8
0
  6
CONTINUOUS
 62
     7
 10
645.9067220725889
 20
1046.828483317364
 30
0.0
 11
646.6807440517292
 21
1045.828483317445
 31
0.0
  0
LINE
  5
4F8
  8
0
  6
CONTINUOUS
 62
     7
 10
662.2783679393915
 20
1040.078741056526
 30
0.0
 11
656.1904567951747
 21
1040.078741056308
 31
0.0
  0
LINE
  5
4F9
  8
0
  6
CONTINUOUS
 62
     7
 10
654.2529137482779
 20
1046.828483317957
 30
0.0
 11
654.6009316741093
 21
1046.828483317965
 31
0.0
  0
LINE
  5
4FA
  8
0
  6
CONTINUOUS
 62
     7
 10
656.1904567949683
 20
1045.82848331804
 30
0.0
 11
656.1904567951744
 21
1040.078741056847
 31
0.0
  0
LINE
  5
4FB
  8
0
  6
CONTINUOUS
 62
     7
 10
646.6807440517292
 20
1045.828483317445
 30
0.0
 11
646.6807440519353
 21
1040.078741056252
 31
0.0
  0
LINE
  5
4FC
  8
0
  6
CONTINUOUS
 62
     7
 10
643.12067238868
 20
1038.944819823297
 30
0.0
 11
643.1205099030451
 21
1038.931291017835
 31
0.0
  0
LINE
  5
4FD
  8
0
  6
CONTINUOUS
 62
     7
 10
650.7693359997891
 20
1045.828483317753
 30
0.0
 11
652.1582687483475
 21
1046.828483317836
 31
0.0
  0
LINE
  5
4FE
  8
0
  6
CONTINUOUS
 62
     7
 10
645.5728894492305
 20
1046.828483317346
 30
0.0
 11
645.9067220725889
 21
1046.828483317364
 31
0.0
  0
LINE
  5
4FF
  8
0
  6
CONTINUOUS
 62
     7
 10
644.793724208047
 20
1046.828483317093
 30
0.0
 11
645.0684141087195
 21
1046.828483317103
 31
0.0
  0
LINE
  5
500
  8
0
  6
CONTINUOUS
 62
     7
 10
644.7439133126591
 20
1046.828483317258
 30
0.0
 11
644.7937242080454
 21
1046.82848331726
 31
0.0
  0
LINE
  5
501
  8
0
  6
CONTINUOUS
 62
     9
 10
663.9094812088724
 20
1046.828483317777
 30
0.0
 11
654.60093167411
 21
1046.828483317444
 31
0.0
  0
LINE
  5
502
  8
0
  6
CONTINUOUS
 62
     7
 10
650.769335999996
 20
1040.078741056114
 30
0.0
 11
646.6807440519368
 21
1040.078741055967
 31
0.0
  0
LINE
  5
503
  8
0
  6
CONTINUOUS
 62
     7
 10
660.551319465146
 20
1047.828483317657
 30
0.0
 11
664.9967499121329
 21
1047.828483317816
 31
0.0
  0
TEXT
  5
504
  8
0
  6
CONTINUOUS
 62
     7
 10
408.2268663248718
 20
53.28420032512192
 30
0.0
 40
30.0
  1
MRPDS-1
 41
1.5
  0
CIRCLE
  5
505
  8
0
  6
CONTINUOUS
 62
     7
 10
639.9967499121335
 20
407.7754070254787
 30
0.0
 40
4.000000000000226
  0
LINE
  5
506
  8
0
  6
CONTINUOUS
 62
     7
 10
640.4367499121335
 20
409.9309579991278
 30
0.0
 11
640.4367499121335
 21
408.7835736783688
 31
0.0
  0
LINE
  5
507
  8
0
  6
CONTINUOUS
 62
     7
 10
640.4367499121335
 20
408.7835736783688
 30
0.0
 11
640.4367499121335
 21
408.6622553777914
 31
0.0
  0
ARC
  5
508
  8
0
  6
CONTINUOUS
 62
     7
 10
640.6548107162517
 20
408.6914013158835
 30
0.0
 40
0.2199999999999116
 50
187.6130144663225
 51
280.9991855724641
  0
ARC
  5
509
  8
0
  6
CONTINUOUS
 62
     7
 10
640.9127442025384
 20
408.4334678295971
 30
0.0
 40
0.2200000000000093
 50
169.0008144275995
 51
262.3869855337393
  0
LINE
  5
50A
  8
0
  6
CONTINUOUS
 62
     7
 10
640.8835982644462
 20
408.2154070254784
 30
0.0
 11
641.0049165650237
 21
408.2154070254784
 31
0.0
  0
LINE
  5
50B
  8
0
  6
CONTINUOUS
 62
     7
 10
641.0049165650237
 20
408.2154070254784
 30
0.0
 11
642.1523008857826
 21
408.2154070254784
 31
0.0
  0
ARC
  5
50C
  8
0
  6
CONTINUOUS
 62
     7
 10
639.9967499121335
 20
407.7754070254787
 30
0.0
 40
2.19999999999998
 50
348.4630409671845
 51
11.5369590328155
  0
LINE
  5
50D
  8
0
  6
CONTINUOUS
 62
     7
 10
642.1523008857826
 20
407.3354070254787
 30
0.0
 11
641.0049165650237
 21
407.3354070254787
 31
0.0
  0
LINE
  5
50E
  8
0
  6
CONTINUOUS
 62
     7
 10
641.0049165650237
 20
407.3354070254787
 30
0.0
 11
640.8835982644462
 21
407.3354070254787
 31
0.0
  0
ARC
  5
50F
  8
0
  6
CONTINUOUS
 62
     7
 10
640.9127442025384
 20
407.1173462213602
 30
0.0
 40
0.2200000000001316
 50
97.6130144663147
 51
190.9991855724564
  0
ARC
  5
510
  8
0
  6
CONTINUOUS
 62
     7
 10
640.6548107162517
 20
406.8594127350735
 30
0.0
 40
0.2200000000002696
 50
79.00081442755376
 51
172.3869855336936
  0
LINE
  5
511
  8
0
  6
CONTINUOUS
 62
     7
 10
640.4367499121335
 20
406.8885586731657
 30
0.0
 11
640.4367499121335
 21
406.7672403725883
 31
0.0
  0
LINE
  5
512
  8
0
  6
CONTINUOUS
 62
     7
 10
640.4367499121335
 20
406.7672403725883
 30
0.0
 11
640.4367499121335
 21
405.6198560518293
 31
0.0
  0
ARC
  5
513
  8
0
  6
CONTINUOUS
 62
     7
 10
639.9967499121335
 20
407.7754070254787
 30
0.0
 40
2.19999999999998
 50
258.4630409671845
 51
281.5369590328155
  0
LINE
  5
514
  8
0
  6
CONTINUOUS
 62
     7
 10
639.5567499121335
 20
405.6198560518293
 30
0.0
 11
639.5567499121335
 21
406.7672403725883
 31
0.0
  0
LINE
  5
515
  8
0
  6
CONTINUOUS
 62
     7
 10
639.5567499121335
 20
406.7672403725883
 30
0.0
 11
639.5567499121335
 21
406.8885586731657
 31
0.0
  0
ARC
  5
516
  8
0
  6
CONTINUOUS
 62
     7
 10
639.338689108015
 20
406.8594127350735
 30
0.0
 40
0.2200000000001611
 50
7.613014466372062
 51
100.9991855725123
  0
ARC
  5
517
  8
0
  6
CONTINUOUS
 62
     7
 10
639.0807556217284
 20
407.1173462213602
 30
0.0
 40
0.2200000000002273
 50
349.0008144276105
 51
82.38698553375171
  0
LINE
  5
518
  8
0
  6
CONTINUOUS
 62
     7
 10
639.1099015598205
 20
407.3354070254787
 30
0.0
 11
638.9885832592431
 21
407.3354070254787
 31
0.0
  0
LINE
  5
519
  8
0
  6
CONTINUOUS
 62
     7
 10
638.9885832592431
 20
407.3354070254787
 30
0.0
 11
637.8411989384842
 21
407.3354070254787
 31
0.0
  0
ARC
  5
51A
  8
0
  6
CONTINUOUS
 62
     7
 10
639.9967499121335
 20
407.7754070254787
 30
0.0
 40
2.19999999999998
 50
168.4630409671845
 51
191.5369590328155
  0
LINE
  5
51B
  8
0
  6
CONTINUOUS
 62
     7
 10
637.8411989384842
 20
408.2154070254784
 30
0.0
 11
638.9885832592431
 21
408.2154070254784
 31
0.0
  0
LINE
  5
51C
  8
0
  6
CONTINUOUS
 62
     7
 10
638.9885832592431
 20
408.2154070254784
 30
0.0
 11
639.1099015598205
 21
408.2154070254784
 31
0.0
  0
ARC
  5
51D
  8
0
  6
CONTINUOUS
 62
     7
 10
639.0807556217284
 20
408.4334678295971
 30
0.0
 40
0.2200000000003811
 50
277.6130144663644
 51
10.99918557250459
  0
ARC
  5
51E
  8
0
  6
CONTINUOUS
 62
     7
 10
639.338689108015
 20
408.6914013158835
 30
0.0
 40
0.2200000000000093
 50
259.0008144275995
 51
352.3869855337406
  0
LINE
  5
51F
  8
0
  6
CONTINUOUS
 62
     7
 10
639.5567499121335
 20
408.6622553777914
 30
0.0
 11
639.5567499121335
 21
408.7835736783688
 31
0.0
  0
LINE
  5
520
  8
0
  6
CONTINUOUS
 62
     7
 10
639.5567499121335
 20
408.7835736783688
 30
0.0
 11
639.5567499121335
 21
409.9309579991278
 31
0.0
  0
ARC
  5
521
  8
0
  6
CONTINUOUS
 62
     7
 10
639.9967499121335
 20
407.7754070254787
 30
0.0
 40
2.19999999999998
 50
78.4630409671845
 51
101.5369590328155
  0
ARC
  5
522
  8
0
  6
CONTINUOUS
 62
     7
 10
639.9967499121335
 20
407.7754070254787
 30
0.0
 40
1.100000000000101
 50
336.4218215217982
 51
23.57817847820183
  0
ARC
  5
523
  8
0
  6
CONTINUOUS
 62
     7
 10
639.9967499121335
 20
407.7754070254787
 30
0.0
 40
1.100000000000101
 50
246.4218215217982
 51
293.5781784782018
  0
ARC
  5
524
  8
0
  6
CONTINUOUS
 62
     7
 10
639.9967499121335
 20
407.7754070254787
 30
0.0
 40
1.100000000000101
 50
156.4218215217982
 51
203.5781784782018
  0
ARC
  5
525
  8
0
  6
CONTINUOUS
 62
     7
 10
639.9967499121335
 20
407.7754070254787
 30
0.0
 40
1.100000000000101
 50
66.42182152179817
 51
113.5781784782018
  0
LINE
  5
526
  8
0
  6
CONTINUOUS
 62
     7
 10
640.4367499121335
 20
409.9309579991279
 30
0.0
 11
640.6385977602238
 21
408.8011415622386
 31
0.0
  0
ARC
  5
527
  8
0
  6
CONTINUOUS
 62
     7
 10
640.8941113031443
 20
408.9028166790773
 30
0.0
 40
0.2750000000000463
 50
201.6988246729732
 51
261.2651237511729
  0
ARC
  5
528
  8
0
  6
CONTINUOUS
 62
     7
 10
641.1241595657322
 20
408.6727684164892
 30
0.0
 40
0.2750000000000161
 50
188.7348762488573
 51
248.3011753270566
  0
LINE
  5
529
  8
0
  6
CONTINUOUS
 62
     7
 10
641.0224844488934
 20
408.4172548735689
 30
0.0
 11
642.1523008857827
 21
408.2154070254786
 31
0.0
  0
LINE
  5
52A
  8
0
  6
CONTINUOUS
 62
     7
 10
642.1523008857826
 20
407.3354070254787
 30
0.0
 11
641.0224844488932
 21
407.1335591773883
 31
0.0
  0
ARC
  5
52B
  8
0
  6
CONTINUOUS
 62
     7
 10
641.1241595657322
 20
406.8780456344678
 30
0.0
 40
0.2750000000000463
 50
111.6988246729732
 51
171.2651237511729
  0
ARC
  5
52C
  8
0
  6
CONTINUOUS
 62
     7
 10
640.8941113031443
 20
406.6479973718797
 30
0.0
 40
0.2750000000002356
 50
98.73487624885027
 51
158.3011753270495
  0
LINE
  5
52D
  8
0
  6
CONTINUOUS
 62
     7
 10
640.6385977602237
 20
406.7496724887189
 30
0.0
 11
640.4367499121335
 21
405.6198560518295
 31
0.0
  0
LINE
  5
52E
  8
0
  6
CONTINUOUS
 62
     7
 10
639.5567499121335
 20
405.6198560518295
 30
0.0
 11
639.3549020640434
 21
406.7496724887189
 31
0.0
  0
ARC
  5
52F
  8
0
  6
CONTINUOUS
 62
     7
 10
639.0993885211227
 20
406.6479973718797
 30
0.0
 40
0.2750000000000463
 50
21.69882467297326
 51
81.26512375117296
  0
ARC
  5
530
  8
0
  6
CONTINUOUS
 62
     7
 10
638.8693402585345
 20
406.8780456344678
 30
0.0
 40
0.2750000000002356
 50
8.734876248850295
 51
68.3011753270502
  0
LINE
  5
531
  8
0
  6
CONTINUOUS
 62
     7
 10
638.9710153753736
 20
407.1335591773883
 30
0.0
 11
637.8411989384842
 21
407.3354070254787
 31
0.0
  0
LINE
  5
532
  8
0
  6
CONTINUOUS
 62
     7
 10
637.8411989384842
 20
408.2154070254784
 30
0.0
 11
638.9710153753736
 21
408.4172548735687
 31
0.0
  0
ARC
  5
533
  8
0
  6
CONTINUOUS
 62
     7
 10
638.8693402585345
 20
408.6727684164892
 30
0.0
 40
0.2750000000000463
 50
291.6988246729733
 51
351.2651237511729
  0
ARC
  5
534
  8
0
  6
CONTINUOUS
 62
     7
 10
639.0993885211227
 20
408.9028166790773
 30
0.0
 40
0.2750000000002356
 50
278.7348762488502
 51
338.3011753270503
  0
LINE
  5
535
  8
0
  6
CONTINUOUS
 62
     7
 10
639.3549020640434
 20
408.8011415622384
 30
0.0
 11
639.5567499121335
 21
409.9309579991278
 31
0.0
  0
LINE
  5
536
  8
0
  6
CONTINUOUS
 62
     7
 10
641.5523848307438
 20
409.331041944089
 30
0.0
 11
640.852349117369
 21
408.6310062307143
 31
0.0
  0
LINE
  5
537
  8
0
  6
CONTINUOUS
 62
     7
 10
640.8523491173692
 20
406.919807820243
 30
0.0
 11
641.5523848307439
 21
406.2197721068683
 31
0.0
  0
LINE
  5
538
  8
0
  6
CONTINUOUS
 62
     7
 10
639.1411507068977
 20
406.919807820243
 30
0.0
 11
638.4411149935231
 21
406.2197721068683
 31
0.0
  0
LINE
  5
539
  8
0
  6
CONTINUOUS
 62
     7
 10
638.4411149935231
 20
409.331041944089
 30
0.0
 11
639.1411507068977
 21
408.6310062307143
 31
0.0
  0
LINE
  5
53A
  8
0
  6
CONTINUOUS
 62
     7
 10
641.5523848307438
 20
409.331041944089
 30
0.0
 11
640.89292512917
 21
408.5239207247109
 31
0.0
  0
LINE
  5
53B
  8
0
  6
CONTINUOUS
 62
     7
 10
638.4411149935231
 20
409.331041944089
 30
0.0
 11
639.2482362129012
 21
408.6715822425151
 31
0.0
  0
LINE
  5
53C
  8
0
  6
CONTINUOUS
 62
     7
 10
638.4411149935231
 20
409.331041944089
 30
0.0
 11
639.1005746950971
 21
408.5239207247109
 31
0.0
  0
LINE
  5
53D
  8
0
  6
CONTINUOUS
 62
     7
 10
638.4411149935231
 20
406.2197721068681
 30
0.0
 11
639.1005746950971
 21
407.0268933262461
 31
0.0
  0
LINE
  5
53E
  8
0
  6
CONTINUOUS
 62
     7
 10
638.4411149935231
 20
406.2197721068681
 30
0.0
 11
639.2482362129012
 21
406.879231808442
 31
0.0
  0
LINE
  5
53F
  8
0
  6
CONTINUOUS
 62
     7
 10
641.5523848307438
 20
406.2197721068681
 30
0.0
 11
640.7452636113658
 21
406.879231808442
 31
0.0
  0
LINE
  5
540
  8
0
  6
CONTINUOUS
 62
     7
 10
641.5523848307438
 20
406.2197721068681
 30
0.0
 11
640.89292512917
 21
407.0268933262461
 31
0.0
  0
LINE
  5
541
  8
0
  6
CONTINUOUS
 62
     7
 10
641.5523848307438
 20
409.331041944089
 30
0.0
 11
640.7452636113658
 21
408.6715822425151
 31
0.0
  0
LINE
  5
542
  8
0
  6
CONTINUOUS
 62
     7
 10
640.8523491173692
 20
408.6310062307141
 30
0.0
 11
640.6967856255081
 21
408.4754427388531
 31
0.0
  0
LINE
  5
543
  8
0
  6
CONTINUOUS
 62
     7
 10
639.1411507068977
 20
408.6310062307141
 30
0.0
 11
639.2967141987589
 21
408.4754427388531
 31
0.0
  0
LINE
  5
544
  8
0
  6
CONTINUOUS
 62
     7
 10
639.2967141987589
 20
407.075371312104
 30
0.0
 11
639.1411507068977
 21
406.919807820243
 31
0.0
  0
LINE
  5
545
  8
0
  6
CONTINUOUS
 62
     7
 10
640.8523491173692
 20
406.919807820243
 30
0.0
 11
640.6967856255081
 21
407.075371312104
 31
0.0
  0
ENDSEC
  0
EOF
