  0
SECTION
  2
HEADER
  9
$ACADVER
  1
AC1004
  9
$INSBASE
 10
0.0
 20
0.0
  9
$EXTMIN
 10
79.60000000000005
 20
8.670454545454545
  9
$EXTMAX
 10
213.7354561972354
 20
190.3999999999999
  9
$LIMMIN
 10
0.0
 20
0.0
  9
$LIMMAX
 10
12.0
 20
9.0
  9
$ORTHOMODE
 70
     0
  9
$REGENMODE
 70
     1
  9
$FILLMODE
 70
     1
  9
$QTEXTMODE
 70
     0
  9
$DRAGMODE
 70
     2
  9
$LTSCALE
 40
1.0
  9
$OSMODE
 70
    37
  9
$ATTMODE
 70
     1
  9
$TEXTSIZE
 40
0.2
  9
$TRACEWID
 40
0.05
  9
$TEXTSTYLE
  7
STANDARD
  9
$CLAYER
  8
0
  9
$CELTYPE
  6
BYLAYER
  9
$CECOLOR
 62
   256
  9
$DIMSCALE
 40
1.0
  9
$DIMASZ
 40
3.0
  9
$DIMEXO
 40
0.0625
  9
$DIMDLI
 40
0.38
  9
$DIMRND
 40
0.0
  9
$DIMDLE
 40
0.0
  9
$DIMEXE
 40
1.5
  9
$DIMTP
 40
0.0
  9
$DIMTM
 40
0.0
  9
$DIMTXT
 40
3.0
  9
$DIMCEN
 40
0.09
  9
$DIMTSZ
 40
0.0
  9
$DIMTOL
 70
     0
  9
$DIMLIM
 70
     0
  9
$DIMTIH
 70
     1
  9
$DIMTOH
 70
     1
  9
$DIMSE1
 70
     0
  9
$DIMSE2
 70
     0
  9
$DIMTAD
 70
     1
  9
$DIMZIN
 70
     0
  9
$DIMBLK
  1

  9
$DIMASO
 70
     1
  9
$DIMSHO
 70
     1
  9
$DIMPOST
  1

  9
$DIMAPOST
  1

  9
$DIMALT
 70
     0
  9
$DIMALTD
 70
     2
  9
$DIMALTF
 40
25.4
  9
$DIMLFAC
 40
1.0
  9
$DIMTOFL
 70
     0
  9
$DIMTVP
 40
0.0
  9
$DIMTIX
 70
     0
  9
$DIMSOXD
 70
     0
  9
$DIMSAH
 70
     0
  9
$DIMBLK1
  1

  9
$DIMBLK2
  1

  9
$LUNITS
 70
     2
  9
$LUPREC
 70
     4
  9
$SKETCHINC
 40
0.1
  9
$FILLETRAD
 40
0.5
  9
$AUNITS
 70
     0
  9
$AUPREC
 70
     0
  9
$MENU
  1
.
  9
$ELEVATION
 40
0.0
  9
$THICKNESS
 40
0.0
  9
$LIMCHECK
 70
     0
  9
$CHAMFERA
 40
0.0
  9
$CHAMFERB
 40
0.0
  9
$SKPOLY
 70
     0
  9
$TDCREATE
 40
2460391.539641574
  9
$TDUPDATE
 40
2460391.539641713
  9
$TDINDWG
 40
0.0000000116
  9
$TDUSRTIMER
 40
0.0000000116
  9
$USRTIMER
 70
     1
  9
$ANGBASE
 50
0.0
  9
$ANGDIR
 70
     0
  9
$PDMODE
 70
     0
  9
$PDSIZE
 40
0.0
  9
$PLINEWID
 40
0.0
  9
$COORDS
 70
     1
  9
$SPLFRAME
 70
     0
  9
$SPLINETYPE
 70
     6
  9
$SPLINESEGS
 70
     8
  9
$ATTDIA
 70
     0
  9
$ATTREQ
 70
     1
  9
$SURFTAB1
 70
     6
  9
$SURFTAB2
 70
     6
  9
$SURFTYPE
 70
     6
  9
$SURFU
 70
     6
  9
$SURFV
 70
     6
  9
$UCSNAME
  2

  9
$UCSORG
 10
0.0
 20
0.0
 30
0.0
  9
$UCSXDIR
 10
1.0
 20
0.0
 30
0.0
  9
$UCSYDIR
 10
0.0
 20
1.0
 30
0.0
  9
$USERI1
 70
     0
  9
$USERI2
 70
     0
  9
$USERI3
 70
     0
  9
$USERI4
 70
     0
  9
$USERI5
 70
     0
  9
$USERR1
 40
0.0
  9
$USERR2
 40
0.0
  9
$USERR3
 40
0.0
  9
$USERR4
 40
0.0
  9
$USERR5
 40
0.0
  9
$WORLDVIEW
 70
     1
  0
ENDSEC
  0
SECTION
  2
TABLES
  0
TABLE
  2
LTYPE
 70
     2
  0
LTYPE
  2
CONTINUOUS
 70
     0
  3
Solid line
 72
    65
 73
     0
 40
0.0
  0
LTYPE
  2
CENTER
 70
     0
  3

 72
    65
 73
     0
 40
0.0
  0
ENDTAB
  0
TABLE
  2
LAYER
 70
     2
  0
LAYER
  2
0
 70
     0
 62
     7
  6
CONTINUOUS
  0
LAYER
  2
1
 70
     0
 62
     7
  6
CONTINUOUS
  0
ENDTAB
  0
TABLE
  2
STYLE
 70
     2
  0
STYLE
  2
STANDARD
 70
     0
 40
0.0
 41
1.0
 50
0.0
 71
     0
 42
0.2
  3
txt
  4

  0
STYLE
  2
ＭＳ_ゴシック
 70
     0
 40
0.0
 41
1.0
 50
0.0
 71
     0
 42
0.2
  3
ＭＳ ゴシック.shx
  4

  0
ENDTAB
  0
TABLE
  2
VIEW
 70
     0
  0
ENDTAB
  0
ENDSEC
  0
SECTION
  2
BLOCKS
  0
BLOCK
  8
0
  2
D_FRAME_VIEW_2077
 70
     0
 10
0.0
 20
0.0
  0
LINE
  8
1
  6
CONTINUOUS
 62
     7
 10
125.5499999999999
 20
21.31068672708549
 11
125.5499999999999
 21
24.81560741228186
  0
LINE
  8
1
  6
CONTINUOUS
 62
     7
 10
104.4500000000001
 20
21.31068672708547
 11
125.5499999999999
 21
21.31068672708549
  0
LINE
  8
1
  6
CONTINUOUS
 62
     7
 10
104.4500000000001
 20
24.81560741228184
 11
104.4500000000001
 21
21.31068672708547
  0
POLYLINE
  8
1
  6
CONTINUOUS
 62
     7
 66
     1
  0
VERTEX
  8
1
  6
CONTINUOUS
 62
     7
 10
105.0536869683151
 20
28.23662881226205
  0
VERTEX
  8
1
  6
CONTINUOUS
 62
     7
 10
104.6020781299593
 20
26.55253295105346
  0
VERTEX
  8
1
  6
CONTINUOUS
 62
     7
 10
104.4499999999999
 20
24.81560741228185
  0
SEQEND
  8
1
  6
CONTINUOUS
 62
     7
  0
LINE
  8
1
  6
CONTINUOUS
 62
     7
 10
105.8568189693225
 20
30.44142887669397
 11
105.0536869683152
 21
28.23662881226199
  0
POLYLINE
  8
1
  6
CONTINUOUS
 62
     7
 66
     1
  0
VERTEX
  8
1
  6
CONTINUOUS
 62
     7
 10
107.5951368801842
 20
31.65807267094853
  0
VERTEX
  8
1
  6
CONTINUOUS
 62
     7
 10
107.221088494419
 20
31.6198736460876
  0
VERTEX
  8
1
  6
CONTINUOUS
 62
     7
 10
106.8624908040382
 20
31.50685444623859
  0
VERTEX
  8
1
  6
CONTINUOUS
 62
     7
 10
106.5341562875621
 20
31.32368351884283
  0
VERTEX
  8
1
  6
CONTINUOUS
 62
     7
 10
106.2496473523992
 20
31.07792704600453
  0
VERTEX
  8
1
  6
CONTINUOUS
 62
     7
 10
106.0207161168813
 20
30.77973641065993
  0
VERTEX
  8
1
  6
CONTINUOUS
 62
     7
 10
105.8568189693225
 20
30.44142887669398
  0
SEQEND
  8
1
  6
CONTINUOUS
 62
     7
  0
LINE
  8
1
  6
CONTINUOUS
 62
     7
 10
122.4048631198158
 20
31.65807267094853
 11
107.5951368801842
 21
31.65807267094853
  0
POLYLINE
  8
1
  6
CONTINUOUS
 62
     7
 66
     1
  0
VERTEX
  8
1
  6
CONTINUOUS
 62
     7
 10
124.1431810306775
 20
30.44142887669397
  0
VERTEX
  8
1
  6
CONTINUOUS
 62
     7
 10
123.9792838831187
 20
30.77973641065991
  0
VERTEX
  8
1
  6
CONTINUOUS
 62
     7
 10
123.7503526476009
 20
31.07792704600452
  0
VERTEX
  8
1
  6
CONTINUOUS
 62
     7
 10
123.465843712438
 20
31.32368351884282
  0
VERTEX
  8
1
  6
CONTINUOUS
 62
     7
 10
123.1375091959618
 20
31.50685444623858
  0
VERTEX
  8
1
  6
CONTINUOUS
 62
     7
 10
122.778911505581
 20
31.6198736460876
  0
VERTEX
  8
1
  6
CONTINUOUS
 62
     7
 10
122.4048631198158
 20
31.65807267094853
  0
SEQEND
  8
1
  6
CONTINUOUS
 62
     7
  0
LINE
  8
1
  6
CONTINUOUS
 62
     7
 10
124.9463130316848
 20
28.23662881226199
 11
124.1431810306775
 21
30.44142887669397
  0
POLYLINE
  8
1
  6
CONTINUOUS
 62
     7
 66
     1
  0
VERTEX
  8
1
  6
CONTINUOUS
 62
     7
 10
125.5500000000001
 20
24.8156074122818
  0
VERTEX
  8
1
  6
CONTINUOUS
 62
     7
 10
125.3979218700407
 20
26.55253295105338
  0
VERTEX
  8
1
  6
CONTINUOUS
 62
     7
 10
124.946313031685
 20
28.23662881226195
  0
SEQEND
  8
1
  6
CONTINUOUS
 62
     7
  0
LINE
  8
1
  6
CONTINUOUS
 62
     7
 10
110.0
 20
21.27992113699907
 11
120.0
 21
21.27992113699907
  0
LINE
  8
1
  6
CONTINUOUS
 62
     7
 10
109.0
 20
21.29838049105091
 11
110.0
 21
21.27992113699907
  0
LINE
  8
1
  6
CONTINUOUS
 62
     7
 10
109.0
 20
21.26453834195587
 11
109.0
 21
21.29838049105091
  0
LINE
  8
1
  6
CONTINUOUS
 62
     7
 10
104.4500000000001
 20
21.26453834195587
 11
109.0
 21
21.26453834195587
  0
LINE
  8
1
  6
CONTINUOUS
 62
     7
 10
104.4500000000001
 20
21.28299769600771
 11
104.4500000000001
 21
21.26453834195587
  0
LINE
  8
1
  6
CONTINUOUS
 62
     7
 10
104.3
 20
21.28299769600771
 11
104.4500000000001
 21
21.28299769600771
  0
LINE
  8
1
  6
CONTINUOUS
 62
     7
 10
104.3
 20
21.29761135129875
 11
104.4500000000001
 21
21.29761135129875
  0
LINE
  8
1
  6
CONTINUOUS
 62
     7
 10
104.4500000000001
 20
21.31068672708547
 11
104.4500000000001
 21
21.29761135129875
  0
LINE
  8
1
  6
CONTINUOUS
 62
     7
 10
125.5499999999999
 20
21.31068672708549
 11
125.5499999999999
 21
21.29761135129876
  0
LINE
  8
1
  6
CONTINUOUS
 62
     7
 10
125.5499999999999
 20
21.29761135129876
 11
125.7
 21
21.29761135129876
  0
LINE
  8
1
  6
CONTINUOUS
 62
     7
 10
125.5499999999999
 20
21.28299769600771
 11
125.7
 21
21.28299769600771
  0
LINE
  8
1
  6
CONTINUOUS
 62
     7
 10
125.5499999999999
 20
21.28299769600771
 11
125.5499999999999
 21
21.26453834195588
  0
LINE
  8
1
  6
CONTINUOUS
 62
     7
 10
121.0
 20
21.26453834195587
 11
125.5499999999999
 21
21.26453834195588
  0
LINE
  8
1
  6
CONTINUOUS
 62
     7
 10
121.0
 20
21.26453834195587
 11
121.0
 21
21.29838049105091
  0
LINE
  8
1
  6
CONTINUOUS
 62
     7
 10
121.0
 20
21.29838049105091
 11
120.0
 21
21.27992113699907
  0
LINE
  8
1
  6
CONTINUOUS
 62
     7
 10
150.3999999999999
 20
21.26454380276464
 11
150.0
 21
47.26454380276465
  0
LINE
  8
1
  6
CONTINUOUS
 62
     7
 10
143.0
 20
21.26454380276466
 11
150.3999999999999
 21
21.26454380276466
  0
LINE
  8
1
  6
CONTINUOUS
 62
     7
 10
143.0
 20
47.26454380276465
 11
150.0
 21
47.26454380276465
  0
LINE
  8
1
  6
CONTINUOUS
 62
     7
 10
79.60000000000005
 20
21.26454380276464
 11
86.99999999999999
 21
21.26454380276466
  0
LINE
  8
1
  6
CONTINUOUS
 62
     7
 10
79.60000000000005
 20
21.26454380276464
 11
79.99999999999999
 21
47.26454380276465
  0
LINE
  8
1
  6
CONTINUOUS
 62
     7
 10
79.99999999999999
 20
47.26454380276465
 11
86.99999999999999
 21
47.26454380276465
  0
LINE
  8
1
  6
CONTINUOUS
 62
     7
 10
86.99999999999999
 20
47.26454380276465
 11
143.0
 21
47.26454380276465
  0
ARC
  8
1
  6
CONTINUOUS
 62
     7
 10
115.7
 20
24.794837411888
 40
10.00000000000001
 50
0.0
 51
20.07152586453873
  0
LINE
  8
1
  6
CONTINUOUS
 62
     7
 10
124.2799743805559
 20
30.45092970861172
 11
125.0926492379074
 21
28.22676694112339
  0
ARC
  8
1
  6
CONTINUOUS
 62
     7
 10
122.4014445329744
 20
29.76454380276463
 40
2.000000000000001
 50
20.07152586453878
 51
90.0
  0
LINE
  8
1
  6
CONTINUOUS
 62
     7
 10
107.5985554670256
 20
31.76454380276465
 11
122.4014445329744
 21
31.76454380276464
  0
ARC
  8
1
  6
CONTINUOUS
 62
     7
 10
107.5985554670256
 20
29.76454380276464
 40
2.0
 50
90.0
 51
159.9284741354611
  0
LINE
  8
1
  6
CONTINUOUS
 62
     7
 10
104.9073507620926
 20
28.22676694112339
 11
105.7200256194441
 21
30.45092970861172
  0
ARC
  8
1
  6
CONTINUOUS
 62
     7
 10
114.3
 20
24.794837411888
 40
10.0
 50
159.9284741354612
 51
179.9999999999999
  0
LINE
  8
1
  6
CONTINUOUS
 62
     7
 10
125.7
 20
21.26454380276464
 11
143.0
 21
21.26454380276464
  0
LINE
  8
1
  6
CONTINUOUS
 62
     7
 10
86.99999999999999
 20
21.26454380276464
 11
104.3
 21
21.26454380276464
  0
LINE
  8
1
  6
CONTINUOUS
 62
     7
 10
125.7
 20
24.794837411888
 11
125.7
 21
21.26454380276464
  0
LINE
  8
1
  6
CONTINUOUS
 62
     7
 10
104.3
 20
21.26454380276464
 11
104.3
 21
24.79483741188801
  0
LINE
  8
1
  6
CONTINUOUS
 62
     7
 10
107.1499578570247
 20
47.26454380276451
 11
107.1499578570247
 21
48.7645438027646
  0
LINE
  8
1
  6
CONTINUOUS
 62
     7
 10
102.8500421429753
 20
47.2645438027646
 11
102.8500421429753
 21
48.7645438027646
  0
LINE
  8
1
  6
CONTINUOUS
 62
     7
 10
102.85
 20
48.76454380276466
 11
107.15
 21
48.76454380276466
  0
LINE
  8
1
  6
CONTINUOUS
 62
     7
 10
104.3
 20
21.26454380276464
 11
104.4500000000001
 21
21.26454380276464
  0
LINE
  8
1
  6
CONTINUOUS
 62
     7
 10
109.0
 20
21.26454380276464
 11
121.0
 21
21.26454380276464
  0
LINE
  8
1
  6
CONTINUOUS
 62
     7
 10
125.5499999999999
 20
21.26454380276464
 11
125.7
 21
21.26454380276464
  0
LINE
  8
1
  6
CONTINUOUS
 62
     7
 10
122.8577025751699
 20
47.26454380276465
 11
122.9009636287984
 21
48.76454380276466
  0
LINE
  8
1
  6
CONTINUOUS
 62
     7
 10
122.9009636287984
 20
48.76454380276466
 11
127.0990363712016
 21
48.76454380276466
  0
LINE
  8
1
  6
CONTINUOUS
 62
     7
 10
127.1422974248302
 20
47.26454380276465
 11
127.0990363712016
 21
48.76454380276466
  0
ENDBLK
  8
0
  0
BLOCK
  8
0
  2
D_FRAME_VIEW_1997
 70
     0
 10
0.0
 20
0.0
  0
LINE
  8
1
  6
CONTINUOUS
 62
     7
 10
213.7354561972354
 20
69.6000000000001
 11
213.7354561972354
 21
77.00000000000001
  0
LINE
  8
1
  6
CONTINUOUS
 62
     7
 10
213.7354561972354
 20
69.60000000000008
 11
187.7354561972354
 21
70.0
  0
LINE
  8
1
  6
CONTINUOUS
 62
     7
 10
187.7354561972354
 20
70.00000000000001
 11
187.7354561972354
 21
77.00000000000001
  0
LINE
  8
1
  6
CONTINUOUS
 62
     7
 10
213.7354561972354
 20
77.00000000000001
 11
213.7354561972354
 21
183.0
  0
LINE
  8
1
  6
CONTINUOUS
 62
     7
 10
187.7354561972354
 20
77.00000000000001
 11
187.7354561972354
 21
183.0
  0
LINE
  8
1
  6
CONTINUOUS
 62
     7
 10
213.7354561972354
 20
190.3999999999999
 11
187.7354561972354
 21
190.0
  0
LINE
  8
1
  6
CONTINUOUS
 62
     7
 10
187.7354561972354
 20
183.0
 11
187.7354561972354
 21
190.0
  0
LINE
  8
1
  6
CONTINUOUS
 62
     7
 10
213.7354561972354
 20
183.0
 11
213.7354561972354
 21
190.3999999999999
  0
LINE
  8
1
  6
CONTINUOUS
 62
     7
 10
186.2354561972354
 20
179.0000000000002
 11
186.2354561972354
 21
180.6846546310836
  0
LINE
  8
1
  6
CONTINUOUS
 62
     7
 10
187.7354561972354
 20
180.6818288854007
 11
186.2354561972354
 21
180.6846546310836
  0
LINE
  8
1
  6
CONTINUOUS
 62
     7
 10
186.2354561972354
 20
180.6846546310836
 11
186.2354561972354
 21
182.6071428571428
  0
LINE
  8
1
  6
CONTINUOUS
 62
     7
 10
187.7354561972355
 20
79.51346153846151
 11
186.2354561972354
 21
79.51346153846151
  0
LINE
  8
1
  6
CONTINUOUS
 62
     7
 10
186.2354561972354
 20
79.51346153846151
 11
186.2354561972354
 21
81.09999999999998
  0
LINE
  8
1
  6
CONTINUOUS
 62
     7
 10
186.2354561972354
 20
77.34999999999998
 11
186.2354561972354
 21
79.51346153846151
  0
LINE
  8
1
  6
CONTINUOUS
 62
     7
 10
186.2354561972354
 20
179.0000000000002
 11
187.7354561972354
 21
178.957142857143
  0
LINE
  8
1
  6
CONTINUOUS
 62
     7
 10
187.7354561972354
 20
182.65
 11
186.2354561972354
 21
182.6071428571428
  0
LINE
  8
1
  6
CONTINUOUS
 62
     7
 10
187.7354561972354
 20
81.1
 11
186.2354561972354
 21
81.1
  0
LINE
  8
1
  6
CONTINUOUS
 62
     7
 10
186.2354561972355
 20
77.34999999999998
 11
187.7354561972355
 21
77.34999999999998
  0
ENDBLK
  8
0
  0
BLOCK
  8
0
  2
D_FRAME_VIEW_1523
 70
     0
 10
0.0
 20
0.0
  0
ARC
  8
1
  6
CONTINUOUS
 62
     9
 10
115.0
 20
171.9
 40
2.000000000000002
 50
90.0
 51
180.00002117336
  0
ARC
  8
1
  6
CONTINUOUS
 62
     9
 10
115.0
 20
171.9
 40
2.000000000000002
 50
180.00002117336
 51
0.000007057786604
  0
ARC
  8
1
  6
CONTINUOUS
 62
     9
 10
115.0
 20
171.9
 40
2.000000000000002
 50
0.000007057786604
 51
90.0
  0
CIRCLE
  8
1
  6
CONTINUOUS
 62
     9
 10
115.0
 20
88.1
 40
2.000000000000002
  0
CIRCLE
  8
1
  6
CONTINUOUS
 62
     7
 10
115.0
 20
171.9
 40
2.25
  0
CIRCLE
  8
1
  6
CONTINUOUS
 62
     7
 10
115.0
 20
171.9
 40
1.65
  0
CIRCLE
  8
1
  6
CONTINUOUS
 62
     7
 10
115.0
 20
171.9
 40
4.000000000000009
  0
CIRCLE
  8
1
  6
CONTINUOUS
 62
     7
 10
115.0
 20
171.9
 40
2.499999999999997
  0
LINE
  8
1
  6
CONTINUOUS
 62
     7
 10
109.0
 20
176.5
 11
121.0
 21
176.5
  0
LINE
  8
1
  6
CONTINUOUS
 62
     7
 10
121.0
 20
171.9
 11
121.0
 21
176.5
  0
ARC
  8
1
  6
CONTINUOUS
 62
     7
 10
115.0
 20
171.9
 40
6.0
 50
309.1949674259831
 51
0.0
  0
ARC
  8
1
  6
CONTINUOUS
 62
     7
 10
117.5278449319529
 20
168.8
 40
2.000000000000002
 50
270.0000000000002
 51
309.1949674259834
  0
LINE
  8
1
  6
CONTINUOUS
 62
     7
 10
112.4721550680471
 20
166.8
 11
117.5278449319529
 21
166.8
  0
ARC
  8
1
  6
CONTINUOUS
 62
     7
 10
112.4721550680471
 20
168.8
 40
2.0
 50
230.8050325740166
 51
270.0
  0
ARC
  8
1
  6
CONTINUOUS
 62
     7
 10
115.0
 20
171.9
 40
6.0
 50
180.0
 51
230.8050325740169
  0
LINE
  8
1
  6
CONTINUOUS
 62
     7
 10
109.0
 20
176.5
 11
109.0
 21
171.9
  0
ARC
  8
1
  6
CONTINUOUS
 62
     7
 10
112.4721550680471
 20
168.8
 40
2.17978716876064
 50
230.8050325740166
 51
270.0
  0
LINE
  8
1
  6
CONTINUOUS
 62
     7
 10
121.1797871687606
 20
171.9
 11
121.1797871687606
 21
176.5
  0
ARC
  8
1
  6
CONTINUOUS
 62
     7
 10
115.0
 20
171.9
 40
6.179787168760639
 50
180.0
 51
230.8050325740169
  0
LINE
  8
1
  6
CONTINUOUS
 62
     7
 10
112.4721550680471
 20
166.6202128312394
 11
117.5278449319529
 21
166.6202128312394
  0
LINE
  8
1
  6
CONTINUOUS
 62
     7
 10
108.8202128312393
 20
176.5
 11
108.8202128312393
 21
171.9
  0
ARC
  8
1
  6
CONTINUOUS
 62
     7
 10
115.0
 20
171.9
 40
6.179787168760638
 50
309.1949674259831
 51
0.0
  0
ARC
  8
1
  6
CONTINUOUS
 62
     7
 10
117.5278449319529
 20
168.8
 40
2.17978716876064
 50
270.0000000000002
 51
309.1949674259834
  0
LINE
  8
1
  6
CONTINUOUS
 62
     7
 10
117.1
 20
178.5
 11
117.1
 21
186.3
  0
LINE
  8
1
  6
CONTINUOUS
 62
     7
 10
112.9
 20
178.5
 11
112.9
 21
186.3
  0
CIRCLE
  8
1
  6
CONTINUOUS
 62
     7
 10
115.0
 20
88.1
 40
1.65
  0
CIRCLE
  8
1
  6
CONTINUOUS
 62
     7
 10
115.0
 20
88.1
 40
2.25
  0
CIRCLE
  8
1
  6
CONTINUOUS
 62
     7
 10
115.0
 20
88.1
 40
4.000000000000009
  0
CIRCLE
  8
1
  6
CONTINUOUS
 62
     7
 10
115.0
 20
88.1
 40
2.499999999999997
  0
ARC
  8
1
  6
CONTINUOUS
 62
     7
 10
115.0
 20
88.10000000000001
 40
6.0
 50
129.1949674259831
 51
180.0
  0
ARC
  8
1
  6
CONTINUOUS
 62
     7
 10
112.4721550680471
 20
91.2
 40
2.0
 50
90.00000000000006
 51
129.1949674259834
  0
LINE
  8
1
  6
CONTINUOUS
 62
     7
 10
112.4721550680471
 20
93.2
 11
117.5278449319529
 21
93.2
  0
ARC
  8
1
  6
CONTINUOUS
 62
     7
 10
117.5278449319529
 20
91.2
 40
2.000000000000002
 50
50.80503257401659
 51
89.99999999999982
  0
ARC
  8
1
  6
CONTINUOUS
 62
     7
 10
115.0
 20
88.10000000000001
 40
6.0
 50
0.0
 51
50.80503257401688
  0
LINE
  8
1
  6
CONTINUOUS
 62
     7
 10
121.0
 20
88.10000000000001
 11
121.0
 21
83.5
  0
LINE
  8
1
  6
CONTINUOUS
 62
     7
 10
109.0
 20
83.49999999999999
 11
121.0
 21
83.49999999999999
  0
LINE
  8
1
  6
CONTINUOUS
 62
     7
 10
109.0
 20
83.49999999999999
 11
109.0
 21
88.1
  0
ARC
  8
1
  6
CONTINUOUS
 62
     7
 10
115.0
 20
88.10000000000001
 40
6.179787168760639
 50
129.1949674259831
 51
180.0
  0
ARC
  8
1
  6
CONTINUOUS
 62
     7
 10
117.5278449319529
 20
91.2
 40
2.17978716876064
 50
50.80503257401671
 51
89.99999999999982
  0
ARC
  8
1
  6
CONTINUOUS
 62
     7
 10
115.0
 20
88.10000000000001
 40
6.179787168760638
 50
0.0
 51
50.80503257401693
  0
LINE
  8
1
  6
CONTINUOUS
 62
     7
 10
121.1797871687606
 20
88.10000000000001
 11
121.1797871687606
 21
83.50000000000001
  0
LINE
  8
1
  6
CONTINUOUS
 62
     7
 10
108.8202128312393
 20
83.5
 11
108.8202128312393
 21
88.10000000000001
  0
ARC
  8
1
  6
CONTINUOUS
 62
     7
 10
112.4721550680471
 20
91.2
 40
2.17978716876064
 50
90.0
 51
129.1949674259834
  0
LINE
  8
1
  6
CONTINUOUS
 62
     7
 10
112.4721550680471
 20
93.37978716876063
 11
117.5278449319529
 21
93.37978716876063
  0
LINE
  8
1
  6
CONTINUOUS
 62
     7
 10
112.9
 20
81.49999999999999
 11
112.9
 21
73.69999999999999
  0
LINE
  8
1
  6
CONTINUOUS
 62
     7
 10
117.1
 20
81.49999999999999
 11
117.1
 21
73.69999999999999
  0
ARC
  8
1
  6
CONTINUOUS
 62
     7
 10
142.0
 20
138.0
 40
1.030668528585346
 50
150.0214543835139
 51
209.9785456164861
  0
ARC
  8
1
  6
CONTINUOUS
 62
     7
 10
142.0
 20
138.0
 40
2.25
 50
166.7683351757007
 51
193.2316648242992
  0
ARC
  8
1
  6
CONTINUOUS
 62
     7
 10
142.0
 20
138.0
 40
1.030668528585347
 50
60.02145438351382
 51
119.9785456164862
  0
ARC
  8
1
  6
CONTINUOUS
 62
     7
 10
142.0
 20
138.0
 40
2.25
 50
76.76833517570073
 51
103.2316648242993
  0
ARC
  8
1
  6
CONTINUOUS
 62
     7
 10
142.0
 20
138.0
 40
1.030668528585347
 50
240.0214543835139
 51
299.9785456164861
  0
ARC
  8
1
  6
CONTINUOUS
 62
     7
 10
142.0
 20
138.0
 40
2.25
 50
256.7683351757007
 51
283.2316648242993
  0
ARC
  8
1
  6
CONTINUOUS
 62
     7
 10
142.0
 20
138.0
 40
1.030668528585346
 50
330.0214543835139
 51
29.97854561648609
  0
ARC
  8
1
  6
CONTINUOUS
 62
     7
 10
142.0
 20
138.0
 40
2.25
 50
346.7683351757007
 51
13.23166482429923
  0
CIRCLE
  8
1
  6
CONTINUOUS
 62
     7
 10
142.0
 20
138.0
 40
4.200000000000002
  0
LINE
  8
1
  6
CONTINUOUS
 62
     7
 10
144.1902682484116
 20
138.515
 11
142.515
 21
138.515
  0
LINE
  8
1
  6
CONTINUOUS
 62
     7
 10
142.515
 20
135.8097317515884
 11
142.515
 21
137.485
  0
LINE
  8
1
  6
CONTINUOUS
 62
     7
 10
141.485
 20
137.485
 11
141.485
 21
135.8097317515884
  0
LINE
  8
1
  6
CONTINUOUS
 62
     7
 10
142.515
 20
138.515
 11
142.515
 21
140.1902682484116
  0
LINE
  8
1
  6
CONTINUOUS
 62
     7
 10
142.515
 20
137.485
 11
144.1902682484116
 21
137.485
  0
LINE
  8
1
  6
CONTINUOUS
 62
     7
 10
141.485
 20
140.1902682484116
 11
141.485
 21
138.515
  0
LINE
  8
1
  6
CONTINUOUS
 62
     7
 10
139.8097317515884
 20
137.485
 11
141.485
 21
137.485
  0
LINE
  8
1
  6
CONTINUOUS
 62
     7
 10
141.485
 20
138.515
 11
139.8097317515884
 21
138.515
  0
ARC
  8
1
  6
CONTINUOUS
 62
     7
 10
88.0
 20
122.0
 40
1.030668528585347
 50
60.02145438351385
 51
119.9785456164862
  0
ARC
  8
1
  6
CONTINUOUS
 62
     7
 10
88.0
 20
122.0
 40
2.25
 50
76.76833517570073
 51
103.2316648242993
  0
ARC
  8
1
  6
CONTINUOUS
 62
     7
 10
88.0
 20
122.0
 40
1.030668528585347
 50
240.0214543835138
 51
299.9785456164861
  0
ARC
  8
1
  6
CONTINUOUS
 62
     7
 10
88.0
 20
122.0
 40
2.25
 50
256.7683351757007
 51
283.2316648242993
  0
ARC
  8
1
  6
CONTINUOUS
 62
     7
 10
88.0
 20
122.0
 40
1.030668528585346
 50
150.0214543835139
 51
209.9785456164861
  0
ARC
  8
1
  6
CONTINUOUS
 62
     7
 10
88.0
 20
122.0
 40
2.25
 50
166.7683351757007
 51
193.2316648242992
  0
CIRCLE
  8
1
  6
CONTINUOUS
 62
     7
 10
88.0
 20
122.0
 40
4.200000000000002
  0
LINE
  8
1
  6
CONTINUOUS
 62
     7
 10
85.80973175158842
 20
121.485
 11
87.485
 21
121.485
  0
LINE
  8
1
  6
CONTINUOUS
 62
     7
 10
87.485
 20
124.1902682484116
 11
87.485
 21
122.515
  0
LINE
  8
1
  6
CONTINUOUS
 62
     7
 10
88.51500000000001
 20
122.515
 11
88.51500000000001
 21
124.1902682484116
  0
LINE
  8
1
  6
CONTINUOUS
 62
     7
 10
87.485
 20
121.485
 11
87.485
 21
119.8097317515884
  0
LINE
  8
1
  6
CONTINUOUS
 62
     7
 10
87.485
 20
122.515
 11
85.80973175158842
 21
122.515
  0
LINE
  8
1
  6
CONTINUOUS
 62
     7
 10
88.51500000000001
 20
119.8097317515884
 11
88.51500000000001
 21
121.485
  0
LINE
  8
1
  6
CONTINUOUS
 62
     7
 10
90.1902682484116
 20
122.515
 11
88.51500000000001
 21
122.515
  0
LINE
  8
1
  6
CONTINUOUS
 62
     7
 10
88.51500000000001
 20
121.485
 11
90.1902682484116
 21
121.485
  0
ARC
  8
1
  6
CONTINUOUS
 62
     7
 10
88.0
 20
122.0
 40
1.030668528585346
 50
330.0214543835139
 51
29.97854561648609
  0
ARC
  8
1
  6
CONTINUOUS
 62
     7
 10
88.0
 20
122.0
 40
2.25
 50
346.7683351757007
 51
13.23166482429923
  0
ARC
  8
1
  6
CONTINUOUS
 62
     7
 10
105.0
 20
78.84999999999998
 40
2.25
 50
17.14984979267353
 51
162.8501502073263
  0
ARC
  8
1
  6
CONTINUOUS
 62
     7
 10
105.0
 20
79.49999999999999
 40
2.149999999999993
 50
179.6412584283324
 51
0.3587415716673377
  0
ARC
  8
1
  6
CONTINUOUS
 62
     7
 10
125.0000000000001
 20
181.15
 40
2.215714285714256
 50
117.8385256516399
 51
182.1614743483604
  0
ARC
  8
1
  6
CONTINUOUS
 62
     7
 10
125.0
 20
181.15
 40
2.250000000000003
 50
61.30113891005169
 51
118.6988610899473
  0
ARC
  8
1
  6
CONTINUOUS
 62
     7
 10
125.0
 20
181.15
 40
2.215714285714254
 50
357.8385256516397
 51
62.16147434836034
  0
ARC
  8
1
  6
CONTINUOUS
 62
     7
 10
125.0
 20
181.15
 40
2.25
 50
301.3011389100516
 51
358.6988610899473
  0
ARC
  8
1
  6
CONTINUOUS
 62
     7
 10
125.0
 20
181.15
 40
2.215714285714254
 50
237.8385256516396
 51
302.1614743483603
  0
ARC
  8
1
  6
CONTINUOUS
 62
     7
 10
125.0
 20
181.15
 40
2.249999999999999
 50
181.3011389100515
 51
238.6988610899474
  0
LINE
  8
1
  6
CONTINUOUS
 62
     7
 10
122.8577025751699
 20
180.6818288854007
 11
122.9009636287984
 21
180.6846546310836
  0
ARC
  8
1
  6
CONTINUOUS
 62
     7
 10
125.0
 20
181.15
 40
2.149999999999798
 50
192.5000054305725
 51
347.499994569427
  0
LINE
  8
1
  6
CONTINUOUS
 62
     7
 10
127.1422974248302
 20
180.6818288854007
 11
127.0990363712016
 21
180.6846546310836
  0
ARC
  8
1
  6
CONTINUOUS
 62
     7
 10
125.0
 20
181.15
 40
2.192857142857027
 50
347.6725634439056
 51
192.3274365560941
  0
ARC
  8
1
  6
CONTINUOUS
 62
     7
 10
125.0
 20
180.5
 40
2.107142857142763
 50
5.027432961339645
 51
174.9725670386599
  0
ARC
  8
1
  6
CONTINUOUS
 62
     7
 10
125.0
 20
180.5
 40
2.149999999999994
 50
4.851389194364401
 51
175.1486108056356
  0
ARC
  8
1
  6
CONTINUOUS
 62
     7
 10
105.0
 20
78.85
 40
2.25
 50
162.8501502073256
 51
17.14984979267399
  0
LINE
  8
1
  6
CONTINUOUS
 62
     7
 10
113.0960028571052
 20
81.5483680518899
 11
113.0960028571052
 21
75.75163194811017
  0
LINE
  8
1
  6
CONTINUOUS
 62
     7
 10
110.8516319481101
 20
81.5483680518899
 11
113.0960028571052
 21
81.5483680518899
  0
LINE
  8
1
  6
CONTINUOUS
 62
     7
 10
110.8516319481102
 20
75.75163194811019
 11
110.8516319481102
 21
81.54836805188991
  0
LINE
  8
1
  6
CONTINUOUS
 62
     7
 10
113.0960028571052
 20
75.75163194811019
 11
110.8516319481102
 21
75.75163194811019
  0
ARC
  8
1
  6
CONTINUOUS
 62
     7
 10
87.0
 20
183.0
 40
6.999999999999999
 50
90.00000000000004
 51
180.0000000000001
  0
LINE
  8
1
  6
CONTINUOUS
 62
     7
 10
143.0
 20
190.0
 11
87.00000000000001
 21
190.0
  0
ARC
  8
1
  6
CONTINUOUS
 62
     7
 10
143.0
 20
183.0
 40
7.000000000000006
 50
359.9999999999999
 51
90.0
  0
LINE
  8
1
  6
CONTINUOUS
 62
     7
 10
150.0
 20
77.00000000000001
 11
150.0
 21
183.0
  0
ARC
  8
1
  6
CONTINUOUS
 62
     7
 10
143.0
 20
77.00000000000001
 40
7.000000000000006
 50
270.0000000000001
 51
0.0
  0
LINE
  8
1
  6
CONTINUOUS
 62
     7
 10
86.99999999999999
 20
70.0
 11
143.0
 21
70.0
  0
ARC
  8
1
  6
CONTINUOUS
 62
     7
 10
86.99999999999999
 20
77.00000000000001
 40
7.000000000000003
 50
180.0000000000004
 51
270.0
  0
LINE
  8
1
  6
CONTINUOUS
 62
     7
 10
80.00000000000001
 20
183.0
 11
79.99999999999999
 21
76.99999999999996
  0
LINE
  8
1
  6
CONTINUOUS
 62
     7
 10
110.8516319481102
 20
178.4516319481102
 11
113.0960028571052
 21
178.4516319481102
  0
LINE
  8
1
  6
CONTINUOUS
 62
     7
 10
113.0960028571052
 20
178.4516319481102
 11
113.0960028571052
 21
184.2483680518899
  0
LINE
  8
1
  6
CONTINUOUS
 62
     7
 10
113.0960028571052
 20
184.2483680518899
 11
110.8516319481102
 21
184.2483680518899
  0
LINE
  8
1
  6
CONTINUOUS
 62
     7
 10
110.8516319481102
 20
184.2483680518899
 11
110.8516319481102
 21
178.4516319481102
  0
LINE
  8
1
  6
CONTINUOUS
 62
     7
 10
116.9039971428948
 20
178.4516319481102
 11
116.9039971428948
 21
184.2483680518899
  0
LINE
  8
1
  6
CONTINUOUS
 62
     7
 10
119.1483680518899
 20
178.4516319481102
 11
116.9039971428948
 21
178.4516319481102
  0
LINE
  8
1
  6
CONTINUOUS
 62
     7
 10
119.1483680518899
 20
184.2483680518899
 11
119.1483680518899
 21
178.4516319481102
  0
LINE
  8
1
  6
CONTINUOUS
 62
     7
 10
116.9039971428948
 20
184.2483680518899
 11
119.1483680518899
 21
184.2483680518899
  0
LINE
  8
1
  6
CONTINUOUS
 62
     7
 10
119.1483680518899
 20
81.5483680518899
 11
116.9039971428948
 21
81.5483680518899
  0
LINE
  8
1
  6
CONTINUOUS
 62
     7
 10
116.9039971428948
 20
81.5483680518899
 11
116.9039971428948
 21
75.75163194811017
  0
LINE
  8
1
  6
CONTINUOUS
 62
     7
 10
116.9039971428948
 20
75.75163194811019
 11
119.1483680518899
 21
75.75163194811019
  0
LINE
  8
1
  6
CONTINUOUS
 62
     7
 10
119.1483680518899
 20
75.75163194811019
 11
119.1483680518899
 21
81.54836805188991
  0
CIRCLE
  8
1
  6
CONTINUOUS
 62
     7
 10
125.0
 20
181.15
 40
3.249999999999996
  0
CIRCLE
  8
1
  6
CONTINUOUS
 62
     7
 10
105.0
 20
78.85
 40
3.249999999999997
  0
LINE
  8
1
  6
CONTINUOUS
 62
     7
 10
130.0
 20
173.0
 11
146.5
 21
173.0
  0
LINE
  8
1
  6
CONTINUOUS
 62
     7
 10
130.0
 20
176.0
 11
130.0
 21
173.0
  0
ARC
  8
1
  6
CONTINUOUS
 62
     7
 10
129.5
 20
176.0
 40
0.5000000000000004
 50
0.0
 51
90.0
  0
LINE
  8
1
  6
CONTINUOUS
 62
     7
 10
100.5
 20
176.5
 11
129.5
 21
176.5
  0
ARC
  8
1
  6
CONTINUOUS
 62
     7
 10
100.5
 20
176.0
 40
0.5000000000000004
 50
90.0
 51
180.0
  0
LINE
  8
1
  6
CONTINUOUS
 62
     7
 10
100.0
 20
173.0
 11
100.0
 21
176.0
  0
LINE
  8
1
  6
CONTINUOUS
 62
     7
 10
83.5
 20
173.0
 11
100.0
 21
173.0
  0
LINE
  8
1
  6
CONTINUOUS
 62
     7
 10
83.5
 20
173.0
 11
83.49999999999999
 21
87.0
  0
LINE
  8
1
  6
CONTINUOUS
 62
     7
 10
83.49999999999999
 20
86.99999999999999
 11
99.5
 21
86.99999999999999
  0
ARC
  8
1
  6
CONTINUOUS
 62
     7
 10
99.5
 20
86.49999999999999
 40
0.5000000000000004
 50
0.0
 51
90.0
  0
LINE
  8
1
  6
CONTINUOUS
 62
     7
 10
100.0
 20
86.49999999999999
 11
100.0
 21
83.99999999999999
  0
ARC
  8
1
  6
CONTINUOUS
 62
     7
 10
100.5
 20
84.0
 40
0.5000000000000004
 50
180.0
 51
270.0
  0
LINE
  8
1
  6
CONTINUOUS
 62
     7
 10
100.5
 20
83.5
 11
129.5
 21
83.5
  0
ARC
  8
1
  6
CONTINUOUS
 62
     7
 10
129.5
 20
84.0
 40
0.5000000000000004
 50
270.0
 51
0.0
  0
LINE
  8
1
  6
CONTINUOUS
 62
     7
 10
130.0
 20
84.0
 11
130.0
 21
86.49999999999999
  0
ARC
  8
1
  6
CONTINUOUS
 62
     7
 10
130.5
 20
86.49999999999999
 40
0.5000000000000004
 50
90.0
 51
180.0
  0
LINE
  8
1
  6
CONTINUOUS
 62
     7
 10
130.5
 20
86.99999999999999
 11
146.5
 21
86.99999999999999
  0
LINE
  8
1
  6
CONTINUOUS
 62
     7
 10
146.5
 20
86.99999999999999
 11
146.5
 21
173.0
  0
CIRCLE
  8
1
  6
CONTINUOUS
 62
     7
 10
101.0
 20
74.99999999999999
 40
0.9999999999999991
  0
CIRCLE
  8
1
  6
CONTINUOUS
 62
     7
 10
115.0
 20
74.99999999999999
 40
0.9999999999999989
  0
CIRCLE
  8
1
  6
CONTINUOUS
 62
     7
 10
129.0
 20
185.0
 40
1.000000000000001
  0
CIRCLE
  8
1
  6
CONTINUOUS
 62
     7
 10
115.0
 20
185.0
 40
0.9999999999999989
  0
LINE
  8
1
  6
CONTINUOUS
 62
     7
 10
146.3603701153478
 20
118.0
 11
146.3603701153478
 21
98.00000000000006
  0
LINE
  8
1
  6
CONTINUOUS
 62
     7
 10
146.3036073970471
 20
118.0
 11
146.3603701153478
 21
118.0
  0
LINE
  8
1
  6
CONTINUOUS
 62
     7
 10
146.3603701153478
 20
142.0
 11
146.3036073970471
 21
142.0
  0
LINE
  8
1
  6
CONTINUOUS
 62
     7
 10
146.3603701153478
 20
162.0
 11
146.3603701153478
 21
142.0000000000001
  0
LINE
  8
1
  6
CONTINUOUS
 62
     7
 10
146.3036073970471
 20
162.0
 11
146.3603701153478
 21
162.0
  0
LINE
  8
1
  6
CONTINUOUS
 62
     7
 10
146.4650925288369
 20
173.0
 11
146.3036073970471
 21
172.5580070305453
  0
LINE
  8
1
  6
CONTINUOUS
 62
     7
 10
146.3603701153478
 20
98.00000000000006
 11
146.3036073970471
 21
98.00000000000006
  0
LINE
  8
1
  6
CONTINUOUS
 62
     7
 10
119.1483680518899
 20
178.4516319481102
 11
119.0960028571052
 21
178.5039971428949
  0
LINE
  8
1
  6
CONTINUOUS
 62
     7
 10
116.9039971428948
 20
178.4516319481102
 11
116.9563623376795
 21
178.5039971428949
  0
LINE
  8
1
  6
CONTINUOUS
 62
     7
 10
117.1
 20
178.5039971428948
 11
116.9563623376795
 21
178.5039971428948
  0
LINE
  8
1
  6
CONTINUOUS
 62
     7
 10
110.8516319481102
 20
75.75163194811019
 11
110.9039971428948
 21
75.80399714289484
  0
LINE
  8
1
  6
CONTINUOUS
 62
     7
 10
110.8516319481101
 20
81.5483680518899
 11
110.9039971428948
 21
81.49600285710522
  0
LINE
  8
1
  6
CONTINUOUS
 62
     7
 10
113.0960028571052
 20
75.75163194811019
 11
113.0436376623205
 21
75.80399714289481
  0
LINE
  8
1
  6
CONTINUOUS
 62
     7
 10
113.0436376623205
 20
75.8039971428948
 11
112.9
 21
75.8039971428948
  0
LINE
  8
1
  6
CONTINUOUS
 62
     7
 10
113.0436376623205
 20
81.49600285710524
 11
113.0085752160203
 21
81.460940410805
  0
LINE
  8
1
  6
CONTINUOUS
 62
     7
 10
113.0960028571052
 20
81.5483680518899
 11
113.0436376623205
 21
81.49600285710522
  0
LINE
  8
1
  6
CONTINUOUS
 62
     7
 10
113.0436376623205
 20
75.8039971428948
 11
113.0085752160203
 21
75.839059589195
  0
LINE
  8
1
  6
CONTINUOUS
 62
     7
 10
116.9914247839797
 20
178.539059589195
 11
116.9563623376795
 21
178.5039971428948
  0
LINE
  8
1
  6
CONTINUOUS
 62
     7
 10
116.9039971428948
 20
184.2483680518899
 11
116.9563623376795
 21
184.1960028571052
  0
LINE
  8
1
  6
CONTINUOUS
 62
     7
 10
116.9914247839797
 20
184.160940410805
 11
116.9563623376795
 21
184.1960028571052
  0
LINE
  8
1
  6
CONTINUOUS
 62
     7
 10
104.3
 20
190.3999999999999
 11
87.0
 21
190.3999999999999
  0
LINE
  8
1
  6
CONTINUOUS
 62
     7
 10
104.3
 20
190.3999999999999
 11
104.3
 21
190.3456877906288
  0
POLYLINE
  8
1
  6
CONTINUOUS
 62
     7
 66
     1
  0
VERTEX
  8
1
  6
CONTINUOUS
 62
     7
 10
104.3
 20
190.3456877906288
  0
VERTEX
  8
1
  6
CONTINUOUS
 62
     7
 10
104.4530082670118
 20
190.3188781226276
  0
VERTEX
  8
1
  6
CONTINUOUS
 62
     7
 10
104.9073507620925
 20
190.2928888747944
  0
SEQEND
  8
1
  6
CONTINUOUS
 62
     7
  0
LINE
  8
1
  6
CONTINUOUS
 62
     7
 10
104.9073507620926
 20
190.2928888747944
 11
105.7200256194441
 21
190.2586709860639
  0
LINE
  8
1
  6
CONTINUOUS
 62
     7
 10
105.7200256194441
 20
190.2586709860639
 11
107.5985554670256
 21
190.2384615384615
  0
LINE
  8
1
  6
CONTINUOUS
 62
     7
 10
107.5985554670256
 20
190.2384615384615
 11
122.4014445329744
 21
190.2384615384615
  0
LINE
  8
1
  6
CONTINUOUS
 62
     7
 10
122.4014445329744
 20
190.2384615384615
 11
124.2799743805559
 21
190.2586709860639
  0
LINE
  8
1
  6
CONTINUOUS
 62
     7
 10
124.2799743805559
 20
190.2586709860639
 11
125.0926492379074
 21
190.2928888747944
  0
POLYLINE
  8
1
  6
CONTINUOUS
 62
     7
 66
     1
  0
VERTEX
  8
1
  6
CONTINUOUS
 62
     7
 10
125.0926492379074
 20
190.2928888747944
  0
VERTEX
  8
1
  6
CONTINUOUS
 62
     7
 10
125.5469917329881
 20
190.3188781226276
  0
VERTEX
  8
1
  6
CONTINUOUS
 62
     7
 10
125.7
 20
190.3456877906288
  0
SEQEND
  8
1
  6
CONTINUOUS
 62
     7
  0
LINE
  8
1
  6
CONTINUOUS
 62
     7
 10
125.7
 20
190.3456877906288
 11
125.7
 21
190.3999999999999
  0
LINE
  8
1
  6
CONTINUOUS
 62
     7
 10
143.0
 20
190.3999999999999
 11
125.7
 21
190.3999999999999
  0
LINE
  8
1
  6
CONTINUOUS
 62
     7
 10
119.1483680518899
 20
184.2483680518899
 11
119.0960028571052
 21
184.1960028571052
  0
LINE
  8
1
  6
CONTINUOUS
 62
     7
 10
116.9563623376795
 20
184.1960028571052
 11
117.1
 21
184.1960028571052
  0
ARC
  8
1
  6
CONTINUOUS
 62
     7
 10
86.99999999999999
 20
77.00000000000001
 40
7.399999999999937
 50
180.0000000000004
 51
270.0
  0
LINE
  8
1
  6
CONTINUOUS
 62
     7
 10
116.9914247839797
 20
75.839059589195
 11
116.9563623376795
 21
75.8039971428948
  0
LINE
  8
1
  6
CONTINUOUS
 62
     7
 10
116.9039971428948
 20
75.75163194811019
 11
116.9563623376795
 21
75.80399714289481
  0
LINE
  8
1
  6
CONTINUOUS
 62
     7
 10
116.9039971428948
 20
81.5483680518899
 11
116.9563623376795
 21
81.49600285710518
  0
LINE
  8
1
  6
CONTINUOUS
 62
     7
 10
116.9914247839797
 20
81.46094041080501
 11
116.9563623376795
 21
81.4960028571052
  0
LINE
  8
1
  6
CONTINUOUS
 62
     7
 10
113.0960028571052
 20
178.4516319481102
 11
113.0436376623205
 21
178.5039971428948
  0
LINE
  8
1
  6
CONTINUOUS
 62
     7
 10
110.8516319481102
 20
178.4516319481102
 11
110.9039971428948
 21
178.5039971428949
  0
LINE
  8
1
  6
CONTINUOUS
 62
     7
 10
112.9
 20
178.5039971428948
 11
113.0436376623205
 21
178.5039971428948
  0
LINE
  8
1
  6
CONTINUOUS
 62
     7
 10
110.8516319481102
 20
184.2483680518899
 11
110.9039971428948
 21
184.1960028571052
  0
LINE
  8
1
  6
CONTINUOUS
 62
     7
 10
113.0960028571052
 20
184.2483680518899
 11
113.0436376623206
 21
184.1960028571052
  0
LINE
  8
1
  6
CONTINUOUS
 62
     7
 10
113.0436376623205
 20
184.1960028571052
 11
112.9
 21
184.1960028571052
  0
ARC
  8
1
  6
CONTINUOUS
 62
     7
 10
87.0
 20
183.0
 40
7.399999999999928
 50
90.00000000000001
 51
180.0
  0
LINE
  8
1
  6
CONTINUOUS
 62
     7
 10
119.1483680518899
 20
75.75163194811019
 11
119.0960028571052
 21
75.80399714289484
  0
LINE
  8
1
  6
CONTINUOUS
 62
     7
 10
116.9563623376795
 20
75.8039971428948
 11
117.1
 21
75.8039971428948
  0
LINE
  8
1
  6
CONTINUOUS
 62
     7
 10
79.60000000000008
 20
183.0
 11
79.60000000000005
 21
76.99999999999996
  0
ARC
  8
1
  6
CONTINUOUS
 62
     7
 10
143.0
 20
77.00000000000001
 40
7.399999999999935
 50
270.0000000000001
 51
0.0
  0
LINE
  8
1
  6
CONTINUOUS
 62
     7
 10
83.63962988465214
 20
162.0
 11
83.63962988465215
 21
142.0000000000001
  0
LINE
  8
1
  6
CONTINUOUS
 62
     7
 10
83.63962988465215
 20
142.0
 11
83.69639260295286
 21
142.0
  0
LINE
  8
1
  6
CONTINUOUS
 62
     7
 10
83.69639260295286
 20
118.0
 11
83.63962988465215
 21
118.0
  0
LINE
  8
1
  6
CONTINUOUS
 62
     7
 10
83.63962988465215
 20
118.0
 11
83.63962988465215
 21
98.00000000000006
  0
LINE
  8
1
  6
CONTINUOUS
 62
     7
 10
83.63962988465215
 20
98.00000000000006
 11
83.69639260295286
 21
98.00000000000006
  0
LINE
  8
1
  6
CONTINUOUS
 62
     7
 10
83.69639260295286
 20
87.44199296945479
 11
83.53490747116298
 21
87.00000000000016
  0
LINE
  8
1
  6
CONTINUOUS
 62
     7
 10
83.69639260295286
 20
162.0
 11
83.63962988465215
 21
162.0
  0
ARC
  8
1
  6
CONTINUOUS
 62
     7
 10
143.0
 20
183.0
 40
7.399999999999941
 50
359.9999999999999
 51
90.0
  0
LINE
  8
1
  6
CONTINUOUS
 62
     7
 10
119.1483680518899
 20
81.5483680518899
 11
119.0960028571052
 21
81.49600285710522
  0
LINE
  8
1
  6
CONTINUOUS
 62
     7
 10
117.1
 20
81.4960028571052
 11
116.9563623376795
 21
81.4960028571052
  0
LINE
  8
1
  6
CONTINUOUS
 62
     7
 10
113.0436376623205
 20
184.1960028571052
 11
113.0085752160203
 21
184.160940410805
  0
LINE
  8
1
  6
CONTINUOUS
 62
     7
 10
113.0436376623205
 20
178.5039971428948
 11
113.0085752160203
 21
178.539059589195
  0
LINE
  8
1
  6
CONTINUOUS
 62
     7
 10
125.7
 20
69.60000000000008
 11
143.0
 21
69.60000000000008
  0
LINE
  8
1
  6
CONTINUOUS
 62
     7
 10
125.7
 20
69.6543122093712
 11
125.7
 21
69.60000000000008
  0
POLYLINE
  8
1
  6
CONTINUOUS
 62
     7
 66
     1
  0
VERTEX
  8
1
  6
CONTINUOUS
 62
     7
 10
125.7
 20
69.6543122093712
  0
VERTEX
  8
1
  6
CONTINUOUS
 62
     7
 10
125.5469917329881
 20
69.68112187737239
  0
VERTEX
  8
1
  6
CONTINUOUS
 62
     7
 10
125.0926492379074
 20
69.70711112520559
  0
SEQEND
  8
1
  6
CONTINUOUS
 62
     7
  0
LINE
  8
1
  6
CONTINUOUS
 62
     7
 10
124.2799743805559
 20
69.74132901393617
 11
125.0926492379074
 21
69.70711112520559
  0
LINE
  8
1
  6
CONTINUOUS
 62
     7
 10
122.4014445329744
 20
69.7615384615385
 11
124.2799743805559
 21
69.74132901393618
  0
LINE
  8
1
  6
CONTINUOUS
 62
     7
 10
107.5985554670256
 20
69.7615384615385
 11
122.4014445329744
 21
69.7615384615385
  0
LINE
  8
1
  6
CONTINUOUS
 62
     7
 10
105.7200256194441
 20
69.74132901393617
 11
107.5985554670256
 21
69.7615384615385
  0
LINE
  8
1
  6
CONTINUOUS
 62
     7
 10
104.9073507620926
 20
69.70711112520559
 11
105.7200256194441
 21
69.74132901393618
  0
POLYLINE
  8
1
  6
CONTINUOUS
 62
     7
 66
     1
  0
VERTEX
  8
1
  6
CONTINUOUS
 62
     7
 10
104.9073507620926
 20
69.70711112520559
  0
VERTEX
  8
1
  6
CONTINUOUS
 62
     7
 10
104.4530082670118
 20
69.68112187737239
  0
VERTEX
  8
1
  6
CONTINUOUS
 62
     7
 10
104.3
 20
69.6543122093712
  0
SEQEND
  8
1
  6
CONTINUOUS
 62
     7
  0
LINE
  8
1
  6
CONTINUOUS
 62
     7
 10
104.3
 20
69.60000000000008
 11
104.3
 21
69.6543122093712
  0
LINE
  8
1
  6
CONTINUOUS
 62
     7
 10
86.99999999999999
 20
69.60000000000008
 11
104.3
 21
69.60000000000008
  0
LINE
  8
1
  6
CONTINUOUS
 62
     7
 10
150.3999999999999
 20
77.00000000000001
 11
150.3999999999999
 21
183.0
  0
LINE
  8
1
  6
CONTINUOUS
 62
     7
 10
112.9
 20
81.49600285710524
 11
113.0436376623205
 21
81.49600285710524
  0
LINE
  8
1
  6
CONTINUOUS
 62
     7
 10
121.8454898780001
 20
181.9320267835568
 11
122.7858621895557
 21
181.0664323490889
  0
LINE
  8
1
  6
CONTINUOUS
 62
     7
 10
123.9653028034015
 20
183.1092834167801
 11
122.7454898780001
 21
183.4908725103687
  0
LINE
  8
1
  6
CONTINUOUS
 62
     7
 10
125.9
 20
178.0271007060746
 11
126.1794406138458
 21
179.2742842341311
  0
LINE
  8
1
  6
CONTINUOUS
 62
     7
 10
123.8205593861542
 20
179.2742842341311
 11
124.1
 21
178.0271007060746
  0
LINE
  8
1
  6
CONTINUOUS
 62
     7
 10
127.2545101219999
 20
183.4908725103687
 11
126.0346971965986
 21
183.10928341678
  0
LINE
  8
1
  6
CONTINUOUS
 62
     7
 10
127.2141378104444
 20
181.0664323490889
 11
128.1545101219999
 21
181.9320267835568
  0
LINE
  8
1
  6
CONTINUOUS
 62
     7
 10
104.1
 20
81.97289929392542
 11
103.8310437829222
 21
80.77250913198222
  0
LINE
  8
1
  6
CONTINUOUS
 62
     7
 10
106.1689562170778
 20
80.77250913198219
 11
105.9
 21
81.9728992939254
  0
LINE
  8
1
  6
CONTINUOUS
 62
     7
 10
108.1545101219999
 20
78.06797321644326
 11
107.2494198558431
 21
78.90109121391005
  0
LINE
  8
1
  6
CONTINUOUS
 62
     7
 10
106.0804636387652
 20
76.87639965410773
 11
107.2545101219999
 21
76.50912748963128
  0
LINE
  8
1
  6
CONTINUOUS
 62
     7
 10
102.7454898780001
 20
76.50912748963128
 11
103.9195363612347
 21
76.87639965410773
  0
LINE
  8
1
  6
CONTINUOUS
 62
     7
 10
102.7505801441569
 20
78.90109121391005
 11
101.8454898780001
 21
78.06797321644326
  0
LINE
  8
1
  6
CONTINUOUS
 62
     7
 10
83.89999999999993
 20
87.45150745635021
 11
83.89999999999993
 21
86.99999999999999
  0
LINE
  8
1
  6
CONTINUOUS
 62
     7
 10
83.85172678580157
 20
87.45054119526351
 11
83.56153846153845
 21
87.00000000000016
  0
LINE
  8
1
  6
CONTINUOUS
 62
     7
 10
146.1482732141984
 20
87.45054119526353
 11
146.1482732141984
 21
87.00000000000003
  0
LINE
  8
1
  6
CONTINUOUS
 62
     7
 10
146.1000000000001
 20
86.99999999999999
 11
146.1000000000001
 21
87.45150745635024
  0
LINE
  8
1
  6
CONTINUOUS
 62
     7
 10
83.89999999999995
 20
173.0
 11
83.89999999999995
 21
172.5484925436498
  0
LINE
  8
1
  6
CONTINUOUS
 62
     7
 10
83.85172678580157
 20
172.5494588047365
 11
83.85172678580157
 21
173.0
  0
LINE
  8
1
  6
CONTINUOUS
 62
     7
 10
146.1000000000001
 20
172.5484925436498
 11
146.1000000000001
 21
173.0
  0
LINE
  8
1
  6
CONTINUOUS
 62
     7
 10
146.4384615384615
 20
173.0
 11
146.1482732141984
 21
172.5494588047365
  0
LINE
  8
1
  6
CONTINUOUS
 62
     7
 10
83.85172678580157
 20
87.45054119526351
 11
83.69639260295286
 21
87.44199296945479
  0
LINE
  8
1
  6
CONTINUOUS
 62
     7
 10
146.1482732141984
 20
172.5494588047365
 11
146.3036073970471
 21
172.5580070305452
  0
LINE
  8
1
  6
CONTINUOUS
 62
     7
 10
117.1
 20
75.84433931163323
 11
116.9914247839797
 21
75.839059589195
  0
LINE
  8
1
  6
CONTINUOUS
 62
     7
 10
117.1
 20
81.45566068836676
 11
116.9914247839797
 21
81.46094041080501
  0
LINE
  8
1
  6
CONTINUOUS
 62
     7
 10
117.1
 20
184.1556606883668
 11
116.9914247839797
 21
184.160940410805
  0
LINE
  8
1
  6
CONTINUOUS
 62
     7
 10
117.1
 20
178.5443393116333
 11
116.9914247839797
 21
178.539059589195
  0
LINE
  8
1
  6
CONTINUOUS
 62
     7
 10
113.0085752160203
 20
184.160940410805
 11
112.9
 21
184.1556606883667
  0
LINE
  8
1
  6
CONTINUOUS
 62
     7
 10
113.0085752160203
 20
178.539059589195
 11
112.9
 21
178.5443393116333
  0
LINE
  8
1
  6
CONTINUOUS
 62
     7
 10
113.0085752160203
 20
75.839059589195
 11
112.9
 21
75.84433931163323
  0
LINE
  8
1
  6
CONTINUOUS
 62
     7
 10
113.0085752160203
 20
81.46094041080501
 11
112.9
 21
81.45566068836676
  0
ARC
  8
1
  6
CONTINUOUS
 62
     7
 10
142.0
 20
130.0
 40
4.000000000000004
 50
341.9722259276471
 51
18.02777407235288
  0
ARC
  8
1
  6
CONTINUOUS
 62
     7
 10
88.0
 20
130.0
 40
4.000000000000004
 50
161.9722259276467
 51
198.0277740723534
  0
LINE
  8
1
  6
CONTINUOUS
 62
     7
 10
84.19637356448494
 20
87.45383168813365
 11
83.85172678580157
 21
87.45054119526351
  0
LINE
  8
1
  6
CONTINUOUS
 62
     7
 10
84.19637356448494
 20
98.0
 11
83.69639260295286
 21
98.00000000000006
  0
LINE
  8
1
  6
CONTINUOUS
 62
     7
 10
83.69639260295286
 20
118.0
 11
84.19637356448494
 21
118.0
  0
LINE
  8
1
  6
CONTINUOUS
 62
     7
 10
84.19637356448494
 20
142.0
 11
83.69639260295286
 21
142.0
  0
LINE
  8
1
  6
CONTINUOUS
 62
     7
 10
83.85172678580157
 20
172.5494588047365
 11
84.19637356448494
 21
172.5461683118664
  0
LINE
  8
1
  6
CONTINUOUS
 62
     7
 10
83.69639260295286
 20
162.0
 11
84.19637356448494
 21
162.0
  0
LINE
  8
1
  6
CONTINUOUS
 62
     7
 10
145.8036264355151
 20
118.0
 11
146.3036073970471
 21
118.0
  0
LINE
  8
1
  6
CONTINUOUS
 62
     7
 10
145.8036264355151
 20
172.5461683118664
 11
146.1482732141984
 21
172.5494588047365
  0
LINE
  8
1
  6
CONTINUOUS
 62
     7
 10
145.8036264355151
 20
162.0
 11
146.3036073970471
 21
162.0
  0
LINE
  8
1
  6
CONTINUOUS
 62
     7
 10
146.3036073970471
 20
142.0
 11
145.8036264355151
 21
142.0
  0
LINE
  8
1
  6
CONTINUOUS
 62
     7
 10
146.1482732141984
 20
87.45054119526354
 11
145.8036264355151
 21
87.45383168813368
  0
LINE
  8
1
  6
CONTINUOUS
 62
     7
 10
146.3036073970471
 20
98.0
 11
145.8036264355151
 21
98.0
  0
LINE
  8
1
  6
CONTINUOUS
 62
     7
 10
138.5
 20
97.00000000000001
 11
136.5
 21
97.00000000000001
  0
ARC
  8
1
  6
CONTINUOUS
 62
     7
 10
136.5
 20
93.0
 40
4.000000000000011
 50
90.00000000000009
 51
269.9999999999998
  0
LINE
  8
1
  6
CONTINUOUS
 62
     7
 10
136.5
 20
89.00000000000001
 11
138.5
 21
89.00000000000001
  0
ARC
  8
1
  6
CONTINUOUS
 62
     7
 10
138.5
 20
93.0
 40
3.999999999999996
 50
269.9999999999999
 51
90.00000000000011
  0
ARC
  8
1
  6
CONTINUOUS
 62
     7
 10
136.5
 20
167.0
 40
4.000000000000011
 50
90.00000000000016
 51
269.9999999999999
  0
LINE
  8
1
  6
CONTINUOUS
 62
     7
 10
138.5
 20
163.0
 11
136.5
 21
163.0
  0
ARC
  8
1
  6
CONTINUOUS
 62
     7
 10
138.5
 20
167.0
 40
3.999999999999996
 50
269.9999999999998
 51
90.00000000000016
  0
LINE
  8
1
  6
CONTINUOUS
 62
     7
 10
136.5
 20
171.0
 11
138.5
 21
171.0
  0
CIRCLE
  8
1
  6
CONTINUOUS
 62
     7
 10
105.0
 20
171.75
 40
2.25
  0
CIRCLE
  8
1
  6
CONTINUOUS
 62
     7
 10
125.0
 20
171.75
 40
2.25
  0
CIRCLE
  8
1
  6
CONTINUOUS
 62
     7
 10
105.0
 20
88.25
 40
2.25
  0
CIRCLE
  8
1
  6
CONTINUOUS
 62
     7
 10
125.0
 20
88.25
 40
2.25
  0
ARC
  8
1
  6
CONTINUOUS
 62
     7
 10
99.95383168813366
 20
173.0461683118664
 40
0.5000000000000004
 50
270.0
 51
0.0
  0
LINE
  8
1
  6
CONTINUOUS
 62
     7
 10
100.4538316881337
 20
175.5461683118663
 11
100.4538316881337
 21
173.0461683118664
  0
ARC
  8
1
  6
CONTINUOUS
 62
     7
 10
100.9538316881337
 20
175.5461683118663
 40
0.5000000000000004
 50
90.0
 51
180.0
  0
LINE
  8
1
  6
CONTINUOUS
 62
     7
 10
129.0461683118664
 20
176.0461683118663
 11
121.1797871687606
 21
176.0461683118663
  0
LINE
  8
1
  6
CONTINUOUS
 62
     7
 10
108.8202128312393
 20
176.0461683118663
 11
100.9538316881337
 21
176.0461683118663
  0
ARC
  8
1
  6
CONTINUOUS
 62
     7
 10
129.0461683118664
 20
175.5461683118663
 40
0.5000000000000004
 50
0.0
 51
90.0
  0
LINE
  8
1
  6
CONTINUOUS
 62
     7
 10
129.5461683118664
 20
173.0461683118664
 11
129.5461683118664
 21
175.5461683118663
  0
ARC
  8
1
  6
CONTINUOUS
 62
     7
 10
130.0461683118664
 20
173.0461683118664
 40
0.5000000000000004
 50
180.0
 51
270.0
  0
LINE
  8
1
  6
CONTINUOUS
 62
     7
 10
145.8036264355151
 20
172.5461683118664
 11
130.0461683118664
 21
172.5461683118664
  0
ARC
  8
1
  6
CONTINUOUS
 62
     7
 10
140.9
 20
161.0
 40
1.000000000000001
 50
90.0
 51
180.0000000000006
  0
LINE
  8
1
  6
CONTINUOUS
 62
     7
 10
139.9
 20
161.0
 11
139.9
 21
143.0
  0
ARC
  8
1
  6
CONTINUOUS
 62
     7
 10
140.9
 20
143.0
 40
1.000000000000001
 50
180.0
 51
261.5788912590808
  0
ARC
  8
1
  6
CONTINUOUS
 62
     7
 10
142.0
 20
130.0
 40
4.000000000000004
 50
102.9987429247038
 51
341.9722259276471
  0
ARC
  8
1
  6
CONTINUOUS
 62
     7
 10
142.0
 20
130.0
 40
4.000000000000004
 50
18.02777407235288
 51
77.00125707529565
  0
ARC
  8
1
  6
CONTINUOUS
 62
     7
 10
140.9
 20
117.0
 40
1.000000000000001
 50
90.0
 51
180.0
  0
LINE
  8
1
  6
CONTINUOUS
 62
     7
 10
139.9
 20
98.99999999999999
 11
139.9
 21
117.0
  0
ARC
  8
1
  6
CONTINUOUS
 62
     7
 10
140.9
 20
99.0
 40
1.000000000000004
 50
180.0000000000008
 51
270.0
  0
LINE
  8
1
  6
CONTINUOUS
 62
     7
 10
130.0461683118664
 20
87.45383168813366
 11
145.8036264355151
 21
87.45383168813366
  0
ARC
  8
1
  6
CONTINUOUS
 62
     7
 10
130.0461683118664
 20
86.95383168813366
 40
0.5000000000000004
 50
90.0
 51
180.0
  0
LINE
  8
1
  6
CONTINUOUS
 62
     7
 10
129.5461683118664
 20
84.45383168813366
 11
129.5461683118664
 21
86.95383168813366
  0
ARC
  8
1
  6
CONTINUOUS
 62
     7
 10
129.0461683118664
 20
84.45383168813366
 40
0.5000000000000004
 50
270.0
 51
0.0
  0
LINE
  8
1
  6
CONTINUOUS
 62
     7
 10
100.9538316881336
 20
83.95383168813366
 11
108.8202128312393
 21
83.95383168813366
  0
LINE
  8
1
  6
CONTINUOUS
 62
     7
 10
121.1797871687606
 20
83.95383168813366
 11
129.0461683118664
 21
83.95383168813366
  0
ARC
  8
1
  6
CONTINUOUS
 62
     7
 10
100.9538316881336
 20
84.45383168813366
 40
0.5000000000000004
 50
180.0
 51
270.0
  0
LINE
  8
1
  6
CONTINUOUS
 62
     7
 10
100.4538316881336
 20
86.95383168813366
 11
100.4538316881336
 21
84.45383168813366
  0
ARC
  8
1
  6
CONTINUOUS
 62
     7
 10
99.95383168813365
 20
86.95383168813366
 40
0.5000000000000004
 50
0.0
 51
90.0
  0
LINE
  8
1
  6
CONTINUOUS
 62
     7
 10
84.19637356448494
 20
87.45383168813366
 11
99.95383168813366
 21
87.45383168813366
  0
ARC
  8
1
  6
CONTINUOUS
 62
     7
 10
89.10000000000001
 20
99.0
 40
1.000000000000004
 50
270.0
 51
359.9999999999993
  0
LINE
  8
1
  6
CONTINUOUS
 62
     7
 10
90.10000000000001
 20
98.99999999999999
 11
90.10000000000001
 21
117.0
  0
ARC
  8
1
  6
CONTINUOUS
 62
     7
 10
89.1
 20
117.0
 40
1.000000000000001
 50
0.0
 51
81.57889125905606
  0
ARC
  8
1
  6
CONTINUOUS
 62
     7
 10
88.0
 20
130.0
 40
4.000000000000004
 50
198.0277740723533
 51
257.0012570753082
  0
ARC
  8
1
  6
CONTINUOUS
 62
     7
 10
88.0
 20
130.0
 40
4.000000000000004
 50
282.998742924693
 51
161.9722259276466
  0
ARC
  8
1
  6
CONTINUOUS
 62
     7
 10
89.1
 20
143.0
 40
1.000000000000001
 50
270.0
 51
0.0
  0
LINE
  8
1
  6
CONTINUOUS
 62
     7
 10
90.10000000000001
 20
161.0
 11
90.10000000000001
 21
143.0
  0
ARC
  8
1
  6
CONTINUOUS
 62
     7
 10
89.10000000000001
 20
161.0
 40
1.000000000000001
 50
359.9999999999994
 51
90.0
  0
LINE
  8
1
  6
CONTINUOUS
 62
     7
 10
99.95383168813366
 20
172.5461683118664
 11
84.19637356448494
 21
172.5461683118664
  0
LINE
  8
1
  6
CONTINUOUS
 62
     7
 10
91.50000000000001
 20
163.0
 11
93.50000000000001
 21
163.0
  0
ARC
  8
1
  6
CONTINUOUS
 62
     7
 10
93.5
 20
167.0
 40
4.000000000000011
 50
270.0000000000001
 51
89.99999999999982
  0
LINE
  8
1
  6
CONTINUOUS
 62
     7
 10
93.50000000000001
 20
171.0
 11
91.5
 21
171.0
  0
ARC
  8
1
  6
CONTINUOUS
 62
     7
 10
91.5
 20
167.0
 40
3.999999999999996
 50
89.9999999999999
 51
270.0000000000002
  0
ARC
  8
1
  6
CONTINUOUS
 62
     7
 10
93.5
 20
93.0
 40
4.000000000000011
 50
270.0000000000002
 51
89.9999999999999
  0
LINE
  8
1
  6
CONTINUOUS
 62
     7
 10
91.50000000000001
 20
97.00000000000001
 11
93.5
 21
97.00000000000001
  0
ARC
  8
1
  6
CONTINUOUS
 62
     7
 10
91.5
 20
93.0
 40
3.999999999999996
 50
89.99999999999977
 51
270.0
  0
LINE
  8
1
  6
CONTINUOUS
 62
     7
 10
93.50000000000001
 20
89.00000000000001
 11
91.5
 21
89.00000000000001
  0
ARC
  8
1
  6
CONTINUOUS
 62
     7
 10
100.0
 20
102.0
 40
1.000000000000001
 50
180.0
 51
270.0
  0
LINE
  8
1
  6
CONTINUOUS
 62
     7
 10
129.9999999999999
 20
101.0
 11
100.0
 21
101.0
  0
ARC
  8
1
  6
CONTINUOUS
 62
     7
 10
130.0
 20
102.0
 40
1.000000000000001
 50
269.9999999999976
 51
0.0
  0
LINE
  8
1
  6
CONTINUOUS
 62
     7
 10
131.0
 20
158.0
 11
130.9999999999999
 21
102.0
  0
ARC
  8
1
  6
CONTINUOUS
 62
     7
 10
130.0
 20
158.0
 40
1.000000000000001
 50
0.0
 51
90.0
  0
LINE
  8
1
  6
CONTINUOUS
 62
     7
 10
99.99999999999996
 20
159.0
 11
130.0
 21
159.0
  0
ARC
  8
1
  6
CONTINUOUS
 62
     7
 10
100.0
 20
158.0
 40
1.000000000000001
 50
90.00000000000284
 51
180.0000000000002
  0
LINE
  8
1
  6
CONTINUOUS
 62
     7
 10
99.0
 20
102.0
 11
99.0
 21
158.0
  0
LINE
  8
1
  6
CONTINUOUS
 62
     7
 10
101.25
 20
96.99999999999999
 11
101.375
 21
97.99999999999999
  0
LINE
  8
1
  6
CONTINUOUS
 62
     7
 10
128.75
 20
96.99999999999999
 11
101.25
 21
96.99999999999999
  0
LINE
  8
1
  6
CONTINUOUS
 62
     7
 10
128.75
 20
96.99999999999999
 11
128.625
 21
97.99999999999999
  0
LINE
  8
1
  6
CONTINUOUS
 62
     7
 10
128.625
 20
97.99999999999999
 11
101.375
 21
97.99999999999999
  0
LINE
  8
1
  6
CONTINUOUS
 62
     7
 10
128.75
 20
163.0
 11
101.25
 21
163.0
  0
LINE
  8
1
  6
CONTINUOUS
 62
     7
 10
101.25
 20
163.0
 11
101.375
 21
162.0
  0
LINE
  8
1
  6
CONTINUOUS
 62
     7
 10
128.625
 20
162.0
 11
101.375
 21
162.0
  0
LINE
  8
1
  6
CONTINUOUS
 62
     7
 10
128.75
 20
163.0
 11
128.625
 21
162.0
  0
LINE
  8
1
  6
CONTINUOUS
 62
     7
 10
98.74999999999999
 20
163.0
 11
98.0
 21
163.0
  0
ARC
  8
1
  6
CONTINUOUS
 62
     7
 10
98.0
 20
160.0
 40
2.999999999999985
 50
90.00000000000006
 51
180.0
  0
LINE
  8
1
  6
CONTINUOUS
 62
     7
 10
95.00000000000001
 20
160.0
 11
95.00000000000001
 21
100.0
  0
ARC
  8
1
  6
CONTINUOUS
 62
     7
 10
98.0
 20
100.0
 40
2.999999999999985
 50
180.0
 51
270.0
  0
LINE
  8
1
  6
CONTINUOUS
 62
     7
 10
98.74999999999999
 20
97.00000000000003
 11
98.0
 21
97.00000000000003
  0
LINE
  8
1
  6
CONTINUOUS
 62
     7
 10
98.62499999999999
 20
98.0
 11
98.74999999999999
 21
97.00000000000003
  0
LINE
  8
1
  6
CONTINUOUS
 62
     7
 10
98.62499999999999
 20
98.0
 11
98.0
 21
98.0
  0
ARC
  8
1
  6
CONTINUOUS
 62
     7
 10
98.0
 20
100.0
 40
1.999999999999984
 50
179.9999999999999
 51
270.0
  0
LINE
  8
1
  6
CONTINUOUS
 62
     7
 10
96.00000000000001
 20
160.0
 11
96.00000000000001
 21
100.0
  0
ARC
  8
1
  6
CONTINUOUS
 62
     7
 10
98.0
 20
160.0
 40
1.999999999999984
 50
90.0
 51
180.0000000000001
  0
LINE
  8
1
  6
CONTINUOUS
 62
     7
 10
98.62499999999999
 20
162.0
 11
98.0
 21
162.0
  0
LINE
  8
1
  6
CONTINUOUS
 62
     7
 10
98.62499999999999
 20
162.0
 11
98.74999999999997
 21
163.0
  0
ARC
  8
1
  6
CONTINUOUS
 62
     7
 10
132.0
 20
160.0
 40
1.999999999999981
 50
0.0000000000003976
 51
90.0000000000006
  0
LINE
  8
1
  6
CONTINUOUS
 62
     7
 10
134.0
 20
100.0
 11
134.0
 21
160.0
  0
ARC
  8
1
  6
CONTINUOUS
 62
     7
 10
132.0
 20
100.0
 40
1.999999999999981
 50
269.9999999999994
 51
0.0
  0
LINE
  8
1
  6
CONTINUOUS
 62
     7
 10
132.0
 20
98.0
 11
131.375
 21
97.99999999999999
  0
LINE
  8
1
  6
CONTINUOUS
 62
     7
 10
131.375
 20
97.99999999999999
 11
131.25
 21
97.00000000000003
  0
LINE
  8
1
  6
CONTINUOUS
 62
     7
 10
132.0
 20
97.00000000000001
 11
131.25
 21
97.00000000000003
  0
ARC
  8
1
  6
CONTINUOUS
 62
     7
 10
132.0
 20
100.0
 40
2.999999999999968
 50
269.9999999999997
 51
359.9999999999997
  0
LINE
  8
1
  6
CONTINUOUS
 62
     7
 10
134.9999999999999
 20
99.99999999999997
 11
134.9999999999999
 21
160.0
  0
ARC
  8
1
  6
CONTINUOUS
 62
     7
 10
132.0
 20
160.0
 40
2.999999999999968
 50
0.0000000000003313
 51
90.00000000000034
  0
LINE
  8
1
  6
CONTINUOUS
 62
     7
 10
132.0
 20
163.0
 11
131.25
 21
163.0
  0
LINE
  8
1
  6
CONTINUOUS
 62
     7
 10
131.375
 20
162.0
 11
131.25
 21
163.0
  0
LINE
  8
1
  6
CONTINUOUS
 62
     7
 10
132.0
 20
162.0
 11
131.375
 21
162.0
  0
LINE
  8
1
  6
CONTINUOUS
 62
     7
 10
145.8036264355151
 20
162.0
 11
140.9
 21
162.0
  0
LINE
  8
1
  6
CONTINUOUS
 62
     7
 10
84.19637356448494
 20
98.0
 11
89.10000000000001
 21
98.0
  0
LINE
  8
1
  6
CONTINUOUS
 62
     7
 10
143.2806248474865
 20
142.0
 11
145.803626435515
 21
142.0
  0
LINE
  8
1
  6
CONTINUOUS
 62
     7
 10
84.19637356448494
 20
162.0
 11
89.10000000000001
 21
162.0
  0
LINE
  8
1
  6
CONTINUOUS
 62
     7
 10
145.8036264355151
 20
98.0
 11
140.9
 21
98.0
  0
LINE
  8
1
  6
CONTINUOUS
 62
     7
 10
86.71937515251342
 20
118.0
 11
84.19637356448494
 21
118.0
  0
LINE
  8
1
  6
CONTINUOUS
 62
     7
 10
140.9
 20
118.0
 11
145.8036264355151
 21
118.0
  0
LINE
  8
1
  6
CONTINUOUS
 62
     7
 10
89.1
 20
142.0
 11
84.19637356448494
 21
142.0
  0
LINE
  8
1
  6
CONTINUOUS
 62
     7
 10
136.5
 20
90.75
 11
138.5
 21
90.75
  0
LINE
  8
1
  6
CONTINUOUS
 62
     7
 10
138.5
 20
90.25
 11
136.5
 21
90.25
  0
ARC
  8
1
  6
CONTINUOUS
 62
     7
 10
138.5
 20
93.0
 40
2.750000000000002
 50
270.0
 51
90.0
  0
ARC
  8
1
  6
CONTINUOUS
 62
     7
 10
138.5
 20
93.0
 40
2.250000000000002
 50
270.0
 51
90.0
  0
LINE
  8
1
  6
CONTINUOUS
 62
     7
 10
93.50000000000001
 20
90.25
 11
91.50000000000003
 21
90.25
  0
LINE
  8
1
  6
CONTINUOUS
 62
     7
 10
91.50000000000003
 20
90.75
 11
93.50000000000003
 21
90.75
  0
CIRCLE
  8
1
  6
CONTINUOUS
 62
     7
 10
142.0
 20
130.0
 40
2.750000000000002
  0
CIRCLE
  8
1
  6
CONTINUOUS
 62
     7
 10
88.0
 20
130.0
 40
2.750000000000002
  0
CIRCLE
  8
1
  6
CONTINUOUS
 62
     7
 10
88.0
 20
130.0
 40
2.250000000000002
  0
ARC
  8
1
  6
CONTINUOUS
 62
     7
 10
136.5
 20
93.0
 40
2.750000000000002
 50
90.0
 51
269.9999999999998
  0
LINE
  8
1
  6
CONTINUOUS
 62
     7
 10
136.5
 20
95.75
 11
138.5
 21
95.75
  0
ARC
  8
1
  6
CONTINUOUS
 62
     7
 10
93.5
 20
93.0
 40
2.250000000000002
 50
270.0000000000002
 51
89.99999999999966
  0
ARC
  8
1
  6
CONTINUOUS
 62
     7
 10
93.5
 20
93.0
 40
2.750000000000002
 50
270.0000000000001
 51
89.99999999999972
  0
LINE
  8
1
  6
CONTINUOUS
 62
     7
 10
93.50000000000001
 20
169.25
 11
91.50000000000003
 21
169.25
  0
LINE
  8
1
  6
CONTINUOUS
 62
     7
 10
91.50000000000003
 20
169.75
 11
93.50000000000001
 21
169.75
  0
CIRCLE
  8
1
  6
CONTINUOUS
 62
     7
 10
142.0
 20
130.0
 40
2.250000000000002
  0
ARC
  8
1
  6
CONTINUOUS
 62
     7
 10
136.5
 20
167.0
 40
2.750000000000002
 50
90.00000000000011
 51
270.0
  0
ARC
  8
1
  6
CONTINUOUS
 62
     7
 10
136.5
 20
167.0
 40
2.250000000000002
 50
90.00000000000018
 51
270.0
  0
LINE
  8
1
  6
CONTINUOUS
 62
     7
 10
138.5
 20
95.25
 11
136.5
 21
95.25
  0
ARC
  8
1
  6
CONTINUOUS
 62
     7
 10
136.5
 20
93.0
 40
2.250000000000002
 50
90.0
 51
269.9999999999998
  0
ARC
  8
1
  6
CONTINUOUS
 62
     7
 10
138.5
 20
167.0
 40
2.750000000000002
 50
270.0
 51
90.0
  0
ARC
  8
1
  6
CONTINUOUS
 62
     7
 10
138.5
 20
167.0
 40
2.250000000000002
 50
270.0
 51
90.0
  0
ARC
  8
1
  6
CONTINUOUS
 62
     7
 10
93.5
 20
167.0
 40
2.750000000000002
 50
270.0000000000002
 51
89.9999999999999
  0
ARC
  8
1
  6
CONTINUOUS
 62
     7
 10
93.5
 20
167.0
 40
2.250000000000002
 50
270.0000000000003
 51
89.99999999999977
  0
LINE
  8
1
  6
CONTINUOUS
 62
     7
 10
136.5
 20
169.75
 11
138.5
 21
169.75
  0
LINE
  8
1
  6
CONTINUOUS
 62
     7
 10
138.5
 20
164.25
 11
136.5
 21
164.25
  0
ARC
  8
1
  6
CONTINUOUS
 62
     7
 10
91.5
 20
167.0
 40
2.750000000000002
 50
89.99999999999966
 51
270.0000000000003
  0
ARC
  8
1
  6
CONTINUOUS
 62
     7
 10
91.5
 20
167.0
 40
2.250000000000002
 50
89.99999999999964
 51
270.0000000000003
  0
LINE
  8
1
  6
CONTINUOUS
 62
     7
 10
93.50000000000003
 20
164.25
 11
91.50000000000003
 21
164.25
  0
LINE
  8
1
  6
CONTINUOUS
 62
     7
 10
136.5
 20
164.75
 11
138.5
 21
164.75
  0
LINE
  8
1
  6
CONTINUOUS
 62
     7
 10
91.50000000000003
 20
95.75
 11
93.50000000000003
 21
95.75
  0
ARC
  8
1
  6
CONTINUOUS
 62
     7
 10
91.5
 20
93.0
 40
2.750000000000002
 50
89.99999999999966
 51
270.0000000000003
  0
LINE
  8
1
  6
CONTINUOUS
 62
     7
 10
91.50000000000003
 20
164.75
 11
93.50000000000003
 21
164.75
  0
LINE
  8
1
  6
CONTINUOUS
 62
     7
 10
138.5
 20
169.25
 11
136.5
 21
169.25
  0
ARC
  8
1
  6
CONTINUOUS
 62
     7
 10
91.5
 20
93.0
 40
2.250000000000002
 50
89.99999999999964
 51
270.0000000000003
  0
LINE
  8
1
  6
CONTINUOUS
 62
     7
 10
93.50000000000003
 20
95.25
 11
91.50000000000003
 21
95.25
  0
LINE
  8
1
  6
CONTINUOUS
 62
     7
 10
124.4361008896684
 20
148.1
 11
123.4218608421573
 21
148.1498956280195
  0
ARC
  8
1
  6
CONTINUOUS
 62
     7
 10
115.0
 20
147.0
 40
9.499999999999998
 50
6.649162765072073
 51
173.3508372349277
  0
LINE
  8
1
  6
CONTINUOUS
 62
     7
 10
106.5781391578428
 20
148.1498956280195
 11
105.5638991103316
 21
148.1
  0
ARC
  8
1
  6
CONTINUOUS
 62
     7
 10
115.0
 20
147.0
 40
8.500000000000009
 50
7.774917558882876
 51
172.2250824411169
  0
ARC
  8
1
  6
CONTINUOUS
 62
     7
 10
115.0
 20
147.0
 40
9.499999999999998
 50
186.6491627650722
 51
353.3508372349275
  0
LINE
  8
1
  6
CONTINUOUS
 62
     7
 10
123.4218608421573
 20
145.8501043719804
 11
124.4361008896684
 21
145.9
  0
ARC
  8
1
  6
CONTINUOUS
 62
     7
 10
115.0
 20
147.0
 40
8.500000000000007
 50
187.7749175588832
 51
352.2250824411167
  0
LINE
  8
1
  6
CONTINUOUS
 62
     7
 10
105.5638991103316
 20
145.9
 11
106.5781391578428
 21
145.8501043719805
  0
ARC
  8
1
  6
CONTINUOUS
 62
     7
 10
115.0
 20
113.0
 40
9.499999999999998
 50
186.6491627650723
 51
353.3508372349279
  0
LINE
  8
1
  6
CONTINUOUS
 62
     7
 10
124.4361008896684
 20
111.9
 11
123.4218608421573
 21
111.8501043719805
  0
ARC
  8
1
  6
CONTINUOUS
 62
     7
 10
115.0
 20
113.0
 40
8.500000000000007
 50
187.7749175588831
 51
352.225082441117
  0
LINE
  8
1
  6
CONTINUOUS
 62
     7
 10
106.5781391578428
 20
111.8501043719805
 11
105.5638991103316
 21
111.9
  0
LINE
  8
1
  6
CONTINUOUS
 62
     7
 10
123.4218608421573
 20
114.1498956280196
 11
124.4361008896684
 21
114.1
  0
ARC
  8
1
  6
CONTINUOUS
 62
     7
 10
115.0
 20
113.0
 40
9.499999999999998
 50
6.649162765072448
 51
173.3508372349277
  0
LINE
  8
1
  6
CONTINUOUS
 62
     7
 10
105.5638991103316
 20
114.1
 11
106.5781391578428
 21
114.1498956280195
  0
ARC
  8
1
  6
CONTINUOUS
 62
     7
 10
115.0
 20
113.0
 40
8.500000000000007
 50
7.774917558883317
 51
172.2250824411169
  0
ENDBLK
  8
0
  0
ENDSEC
  0
SECTION
  2
ENTITIES
  0
INSERT
  8
1
  6
CONTINUOUS
 62
     7
  2
D_FRAME_VIEW_2077
 10
0.0
 20
0.0
 30
0.0
  0
INSERT
  8
1
  6
CONTINUOUS
 62
     7
  2
D_FRAME_VIEW_1997
 10
0.0
 20
0.0
 30
0.0
  0
INSERT
  8
1
  6
CONTINUOUS
 62
     7
  2
D_FRAME_VIEW_1523
 10
0.0
 20
0.0
 30
0.0
  0
LINE
  8
1
  6
CENTER
 62
     1
 10
115.0
 20
21.27992113699907
 11
115.0
 21
47.26454380276465
  0
LINE
  8
1
  6
CENTER
 62
     1
 10
213.7354561972354
 20
130.0
 11
187.7354561972354
 21
130.0
  0
LINE
  8
1
  6
CENTER
 62
     1
 10
115.0
 20
190.3999999999999
 11
115.0
 21
69.6000000000001
  0
LINE
  8
1
  6
CENTER
 62
     1
 10
150.3999999999999
 20
130.0
 11
79.60000000000007
 21
130.0
  0
TEXT
  8
1
  6
CONTINUOUS
 62
     7
 10
143.0764880580217
 20
8.328420032512192
 40
3.0
  1
MSB-F1SS
  0
ENDSEC
  0
EOF
