  0
SECTION
  2
HEADER
  9
$ACADVER
  1
AC1006
  9
$DWGCODEPAGE
  3
ansi_932
  9
$INSBASE
 10
0.0
 20
0.0
 30
0.0
  9
$EXTMIN
 10
47.76001570486141
 20
54.90766820794657
  9
$EXTMAX
 10
264.9887027033035
 20
167.7399842951386
  9
$LIMMIN
 10
0.0
 20
0.0
  9
$LIMMAX
 10
12.0
 20
9.0
  9
$ORTHOMODE
 70
     0
  9
$REGENMODE
 70
     1
  9
$FILLMODE
 70
     1
  9
$QTEXTMODE
 70
     0
  9
$MIRRTEXT
 70
     1
  9
$DRAGMODE
 70
     2
  9
$LTSCALE
 40
1.0
  9
$OSMODE
 70
    37
  9
$ATTMODE
 70
     1
  9
$TEXTSIZE
 40
0.2
  9
$TRACEWID
 40
0.05
  9
$TEXTSTYLE
  7
STANDARD
  9
$CLAYER
  8
0
  9
$CELTYPE
  6
BYLAYER
  9
$CECOLOR
 62
   256
  9
$DIMSCALE
 40
1.0
  9
$DIMASZ
 40
3.0
  9
$DIMEXO
 40
0.0625
  9
$DIMDLI
 40
0.38
  9
$DIMRND
 40
0.0
  9
$DIMDLE
 40
0.0
  9
$DIMEXE
 40
1.5
  9
$DIMTP
 40
0.0
  9
$DIMTM
 40
0.0
  9
$DIMTXT
 40
3.0
  9
$DIMCEN
 40
0.09
  9
$DIMTSZ
 40
0.0
  9
$DIMTOL
 70
     0
  9
$DIMLIM
 70
     0
  9
$DIMTIH
 70
     1
  9
$DIMTOH
 70
     1
  9
$DIMSE1
 70
     0
  9
$DIMSE2
 70
     0
  9
$DIMTAD
 70
     1
  9
$DIMZIN
 70
     0
  9
$DIMBLK
  1

  9
$DIMASO
 70
     1
  9
$DIMSHO
 70
     1
  9
$DIMPOST
  1

  9
$DIMAPOST
  1

  9
$DIMALT
 70
     0
  9
$DIMALTD
 70
     2
  9
$DIMALTF
 40
25.4
  9
$DIMLFAC
 40
1.0
  9
$DIMTOFL
 70
     0
  9
$DIMTVP
 40
0.0
  9
$DIMTIX
 70
     0
  9
$DIMSOXD
 70
     0
  9
$DIMSAH
 70
     0
  9
$DIMBLK1
  1

  9
$DIMBLK2
  1

  9
$LUNITS
 70
     2
  9
$LUPREC
 70
     4
  9
$SKETCHINC
 40
0.1
  9
$FILLETRAD
 40
0.5
  9
$AUNITS
 70
     0
  9
$AUPREC
 70
     0
  9
$MENU
  1
.
  9
$ELEVATION
 40
0.0
  9
$THICKNESS
 40
0.0
  9
$LIMCHECK
 70
     0
  9
$CHAMFERA
 40
0.0
  9
$CHAMFERB
 40
0.0
  9
$SKPOLY
 70
     0
  9
$TDCREATE
 40
2460725.455050532
  9
$TDUPDATE
 40
2460725.455050729
  9
$TDINDWG
 40
0.0000000116
  9
$TDUSRTIMER
 40
0.0000000116
  9
$USRTIMER
 70
     1
  9
$ANGBASE
 50
0.0
  9
$ANGDIR
 70
     0
  9
$PDMODE
 70
     0
  9
$PDSIZE
 40
0.0
  9
$PLINEWID
 40
0.0
  9
$COORDS
 70
     1
  9
$SPLFRAME
 70
     0
  9
$SPLINETYPE
 70
     6
  9
$SPLINESEGS
 70
     8
  9
$ATTDIA
 70
     0
  9
$ATTREQ
 70
     1
  9
$HANDLING
 70
     1
  9
$HANDSEED
  5
14F
  9
$SURFTAB1
 70
     6
  9
$SURFTAB2
 70
     6
  9
$SURFTYPE
 70
     6
  9
$SURFU
 70
     6
  9
$SURFV
 70
     6
  9
$UCSNAME
  2

  9
$UCSORG
 10
0.0
 20
0.0
 30
0.0
  9
$UCSXDIR
 10
1.0
 20
0.0
 30
0.0
  9
$UCSYDIR
 10
0.0
 20
1.0
 30
0.0
  9
$USERI1
 70
     0
  9
$USERI2
 70
     0
  9
$USERI3
 70
     0
  9
$USERI4
 70
     0
  9
$USERI5
 70
     0
  9
$USERR1
 40
0.0
  9
$USERR2
 40
0.0
  9
$USERR3
 40
0.0
  9
$USERR4
 40
0.0
  9
$USERR5
 40
0.0
  9
$WORLDVIEW
 70
     1
  0
ENDSEC
  0
SECTION
  2
TABLES
  0
TABLE
  2
VPORT
 70
     1
  0
VPORT
  2
*ACTIVE
 70
     0
 10
0.0
 20
0.0
 11
1.0
 21
1.0
 12
156.3743592040825
 22
111.3238262515426
 13
0.0
 23
0.0
 14
0.5
 24
0.5
 15
0.5
 25
0.5
 16
0.0
 26
0.0
 36
1.0
 17
0.0
 27
0.0
 37
0.0
 40
112.832316087192
 41
1.6
 42
50.0
 43
0.0
 44
0.0
 50
0.0
 51
0.0
 71
     0
 72
   100
 73
     1
 74
     3
 75
     0
 76
     0
 77
     0
 78
     0
  0
ENDTAB
  0
TABLE
  2
LTYPE
 70
     2
  0
LTYPE
  2
CONTINUOUS
 70
     0
  3
Solid line
 72
    65
 73
     0
 40
0.0
  0
LTYPE
  2
CENTER
 70
     0
  3

 72
    65
 73
     0
 40
0.0
  0
ENDTAB
  0
TABLE
  2
LAYER
 70
     2
  0
LAYER
  2
0
 70
     0
 62
     7
  6
CONTINUOUS
  0
LAYER
  2
1
 70
     0
 62
     7
  6
CONTINUOUS
  0
ENDTAB
  0
TABLE
  2
STYLE
 70
     2
  0
STYLE
  2
STANDARD
 70
     0
 40
0.0
 41
1.0
 50
0.0
 71
     0
 42
0.2
  3
txt
  4

  0
STYLE
  2
ＭＳ_ゴシック
 70
     0
 40
0.0
 41
1.0
 50
0.0
 71
     0
 42
0.2
  3
ＭＳ ゴシック.shx
  4

  0
ENDTAB
  0
TABLE
  2
VIEW
 70
     0
  0
ENDTAB
  0
TABLE
  2
UCS
 70
     0
  0
ENDTAB
  0
ENDSEC
  0
SECTION
  2
BLOCKS
  0
ENDSEC
  0
SECTION
  2
ENTITIES
  0
TEXT
  5
70
  8
1
  6
CONTINUOUS
 62
     7
 10
213.1827247717893
 20
61.90909090909092
 30
0.0
 40
5.0
  1
ＭＳＢ－Ｋ２Ｙ
  0
LINE
  5
71
  8
1
  6
CONTINUOUS
 62
     7
 10
262.95
 20
132.2600157048614
 30
0.0
 11
207.95
 21
132.5
 31
0.0
  0
LINE
  5
72
  8
1
  6
CONTINUOUS
 62
     7
 10
207.95
 20
132.5
 30
0.0
 11
207.95
 21
167.5
 31
0.0
  0
LINE
  5
73
  8
1
  6
CONTINUOUS
 62
     7
 10
262.95
 20
160.7
 30
0.0
 11
262.95
 21
167.7399842951386
 31
0.0
  0
LINE
  5
74
  8
1
  6
CONTINUOUS
 62
     7
 10
259.4197063908766
 20
160.7
 30
0.0
 11
262.95
 21
160.7
 31
0.0
  0
ARC
  5
75
  8
1
  6
CONTINUOUS
 62
     7
 10
259.4197063908766
 20
150.7
 30
0.0
 40
9.999999999999998
 50
90.0
 51
110.0715258645387
  0
LINE
  5
76
  8
1
  6
CONTINUOUS
 62
     7
 10
253.7636140941529
 20
159.2799743805558
 30
0.0
 11
255.9877768616413
 21
160.0926492379074
 31
0.0
  0
ARC
  5
77
  8
1
  6
CONTINUOUS
 62
     7
 10
254.45
 20
157.4014445329744
 30
0.0
 40
1.999999999999998
 50
110.0715258645388
 51
180.0
  0
LINE
  5
78
  8
1
  6
CONTINUOUS
 62
     7
 10
252.45
 20
142.5985554670256
 30
0.0
 11
252.45
 21
157.4014445329744
 31
0.0
  0
ARC
  5
79
  8
1
  6
CONTINUOUS
 62
     7
 10
254.45
 20
142.5985554670256
 30
0.0
 40
2.000000000000003
 50
180.0
 51
249.9284741354616
  0
LINE
  5
7A
  8
1
  6
CONTINUOUS
 62
     7
 10
255.9877768616413
 20
139.9073507620926
 30
0.0
 11
253.7636140941529
 21
140.7200256194441
 31
0.0
  0
ARC
  5
7B
  8
1
  6
CONTINUOUS
 62
     7
 10
259.4197063908766
 20
149.3
 30
0.0
 40
9.999999999999998
 50
249.9284741354613
 51
270.0
  0
LINE
  5
7C
  8
1
  6
CONTINUOUS
 62
     7
 10
262.95
 20
132.2600157048614
 30
0.0
 11
262.95
 21
139.3
 31
0.0
  0
LINE
  5
7D
  8
1
  6
CONTINUOUS
 62
     7
 10
262.95
 20
139.3
 30
0.0
 11
259.4197063908766
 21
139.3
 31
0.0
  0
LINE
  5
7E
  8
1
  6
CONTINUOUS
 62
     7
 10
262.95
 20
167.7399842951386
 30
0.0
 11
207.95
 21
167.5
 31
0.0
  0
LINE
  5
7F
  8
1
  6
CONTINUOUS
 62
     7
 10
262.95
 20
159.7
 30
0.0
 11
262.95
 21
160.7
 31
0.0
  0
LINE
  5
80
  8
1
  6
CONTINUOUS
 62
     7
 10
262.95
 20
139.3
 30
0.0
 11
262.95
 21
140.3
 31
0.0
  0
LINE
  5
81
  8
1
  6
CONTINUOUS
 62
     7
 10
262.95
 20
140.3
 30
0.0
 11
262.95
 21
159.7
 31
0.0
  0
LINE
  5
82
  8
1
  6
CONTINUOUS
 62
     7
 10
207.95
 20
156.0
 30
0.0
 11
207.95
 21
154.2057713659401
 31
0.0
  0
LINE
  5
83
  8
1
  6
CONTINUOUS
 62
     7
 10
207.95
 20
154.2057713659401
 30
0.0
 11
207.95
 21
153.9137244682213
 31
0.0
  0
LINE
  5
84
  8
1
  6
CONTINUOUS
 62
     7
 10
207.95
 20
153.9137244682213
 30
0.0
 11
207.95
 21
155.1961267437189
 31
0.0
  0
LINE
  5
85
  8
1
  6
CONTINUOUS
 62
     7
 10
207.95
 20
155.1961267437189
 30
0.0
 11
207.95
 21
153.99
 31
0.0
  0
LINE
  5
86
  8
1
  6
CONTINUOUS
 62
     7
 10
207.95
 20
153.99
 30
0.0
 11
207.95
 21
154.89
 31
0.0
  0
LINE
  5
87
  8
1
  6
CONTINUOUS
 62
     7
 10
207.95
 20
154.89
 30
0.0
 11
207.95
 21
153.5060190826185
 31
0.0
  0
LINE
  5
88
  8
1
  6
CONTINUOUS
 62
     7
 10
207.95
 20
153.5060190826185
 30
0.0
 11
207.95
 21
153.3259006231194
 31
0.0
  0
LINE
  5
89
  8
1
  6
CONTINUOUS
 62
     7
 10
207.95
 20
153.3259006231194
 30
0.0
 11
207.95
 21
156.0
 31
0.0
  0
LINE
  5
8A
  8
1
  6
CONTINUOUS
 62
     7
 10
207.95
 20
156.0
 30
0.0
 11
207.95
 21
154.89
 31
0.0
  0
LINE
  5
8B
  8
1
  6
CONTINUOUS
 62
     7
 10
207.95
 20
154.89
 30
0.0
 11
207.95
 21
156.0
 31
0.0
  0
LINE
  5
8C
  8
1
  6
CONTINUOUS
 62
     7
 10
207.95
 20
156.0
 30
0.0
 11
207.95
 21
153.1818369259805
 31
0.0
  0
LINE
  5
8D
  8
1
  6
CONTINUOUS
 62
     7
 10
207.95
 20
153.1818369259805
 30
0.0
 11
207.95
 21
153.0803587516089
 31
0.0
  0
LINE
  5
8E
  8
1
  6
CONTINUOUS
 62
     7
 10
207.95
 20
153.0803587516089
 30
0.0
 11
207.95
 21
156.0
 31
0.0
  0
LINE
  5
8F
  8
1
  6
CONTINUOUS
 62
     7
 10
207.95
 20
156.0
 30
0.0
 11
207.95
 21
153.0200222717425
 31
0.0
  0
LINE
  5
90
  8
1
  6
CONTINUOUS
 62
     7
 10
207.95
 20
153.0200222717425
 30
0.0
 11
207.95
 21
153.0000503351482
 31
0.0
  0
LINE
  5
91
  8
1
  6
CONTINUOUS
 62
     7
 10
207.95
 20
153.0000501673643
 30
0.0
 11
207.95
 21
153.0300501673644
 31
0.0
  0
LINE
  5
92
  8
1
  6
CONTINUOUS
 62
     7
 10
207.95
 20
153.0300501673643
 30
0.0
 11
207.95
 21
154.104
 31
0.0
  0
LINE
  5
93
  8
1
  6
CONTINUOUS
 62
     7
 10
207.95
 20
154.104
 30
0.0
 11
207.95
 21
153.0200222717425
 31
0.0
  0
LINE
  5
94
  8
1
  6
CONTINUOUS
 62
     7
 10
207.95
 20
153.0200222717425
 30
0.0
 11
207.95
 21
153.0579868038567
 31
0.0
  0
LINE
  5
95
  8
1
  6
CONTINUOUS
 62
     7
 10
207.95
 20
153.0579868038567
 30
0.0
 11
207.95
 21
154.5084330153103
 31
0.0
  0
LINE
  5
96
  8
1
  6
CONTINUOUS
 62
     7
 10
207.95
 20
154.5084330153103
 30
0.0
 11
207.95
 21
156.0
 31
0.0
  0
LINE
  5
97
  8
1
  6
CONTINUOUS
 62
     7
 10
207.95
 20
155.625
 30
0.0
 11
207.95
 21
154.875
 31
0.0
  0
LINE
  5
98
  8
1
  6
CONTINUOUS
 62
     7
 10
207.95
 20
154.875
 30
0.0
 11
207.95
 21
155.625
 31
0.0
  0
LINE
  5
99
  8
1
  6
CONTINUOUS
 62
     7
 10
207.95
 20
156.0
 30
0.0
 11
207.95
 21
153.0650349748865
 31
0.0
  0
LINE
  5
9A
  8
1
  6
CONTINUOUS
 62
     7
 10
207.95
 20
153.0650349748866
 30
0.0
 11
207.95
 21
153.1388840996181
 31
0.0
  0
LINE
  5
9B
  8
1
  6
CONTINUOUS
 62
     7
 10
207.95
 20
153.1388840996181
 30
0.0
 11
207.95
 21
153.915
 31
0.0
  0
LINE
  5
9C
  8
1
  6
CONTINUOUS
 62
     7
 10
207.95
 20
153.915
 30
0.0
 11
207.95
 21
154.05
 31
0.0
  0
LINE
  5
9D
  8
1
  6
CONTINUOUS
 62
     7
 10
207.95
 20
154.05
 30
0.0
 11
207.95
 21
154.38
 31
0.0
  0
LINE
  5
9E
  8
1
  6
CONTINUOUS
 62
     7
 10
207.95
 20
154.38
 30
0.0
 11
207.95
 21
154.287
 31
0.0
  0
LINE
  5
9F
  8
1
  6
CONTINUOUS
 62
     7
 10
207.95
 20
154.287
 30
0.0
 11
207.95
 21
155.3250594951639
 31
0.0
  0
LINE
  5
A0
  8
1
  6
CONTINUOUS
 62
     7
 10
207.95
 20
155.3250594951639
 30
0.0
 11
207.95
 21
153.5094302311329
 31
0.0
  0
LINE
  5
A1
  8
1
  6
CONTINUOUS
 62
     7
 10
207.95
 20
153.5094302311329
 30
0.0
 11
207.95
 21
153.6628602026834
 31
0.0
  0
LINE
  5
A2
  8
1
  6
CONTINUOUS
 62
     7
 10
207.95
 20
153.6628602026834
 30
0.0
 11
207.95
 21
156.0
 31
0.0
  0
LINE
  5
A3
  8
1
  6
CONTINUOUS
 62
     7
 10
207.95
 20
156.0
 30
0.0
 11
207.95
 21
153.9137244682213
 31
0.0
  0
LINE
  5
A4
  8
1
  6
CONTINUOUS
 62
     7
 10
207.95
 20
153.9137244682213
 30
0.0
 11
207.95
 21
154.2057713659401
 31
0.0
  0
LINE
  5
A5
  8
1
  6
CONTINUOUS
 62
     7
 10
207.95
 20
154.2057713659401
 30
0.0
 11
207.95
 21
156.0
 31
0.0
  0
LINE
  5
A6
  8
1
  6
CONTINUOUS
 62
     7
 10
207.95
 20
152.9653589838486
 30
0.0
 11
207.95
 21
147.0
 31
0.0
  0
LINE
  5
A7
  8
1
  6
CONTINUOUS
 62
     7
 10
207.95
 20
147.0
 30
0.0
 11
207.95
 21
146.7
 31
0.0
  0
LINE
  5
A8
  8
1
  6
CONTINUOUS
 62
     7
 10
207.95
 20
146.7
 30
0.0
 11
207.95
 21
144.0100111358713
 31
0.0
  0
LINE
  5
A9
  8
1
  6
CONTINUOUS
 62
     7
 10
207.95
 20
144.0100111358713
 30
0.0
 11
207.95
 21
144.0
 31
0.0
  0
LINE
  5
AA
  8
1
  6
CONTINUOUS
 62
     7
 10
207.95
 20
144.0100111358713
 30
0.0
 11
207.95
 21
146.7
 31
0.0
  0
LINE
  5
AB
  8
1
  6
CONTINUOUS
 62
     7
 10
207.95
 20
146.7
 30
0.0
 11
207.95
 21
147.0
 31
0.0
  0
LINE
  5
AC
  8
1
  6
CONTINUOUS
 62
     7
 10
207.95
 20
147.0
 30
0.0
 11
207.95
 21
152.9653589838486
 31
0.0
  0
LINE
  5
AD
  8
1
  6
CONTINUOUS
 62
     7
 10
207.95
 20
152.9653589838486
 30
0.0
 11
207.95
 21
152.9780384757729
 31
0.0
  0
LINE
  5
AE
  8
1
  6
CONTINUOUS
 62
     7
 10
207.95
 20
148.0732050807569
 30
0.0
 11
207.95
 21
149.9192692895361
 31
0.0
  0
LINE
  5
AF
  8
1
  6
CONTINUOUS
 62
     7
 10
207.95
 20
149.9192692895361
 30
0.0
 11
207.95
 21
149.7893654789684
 31
0.0
  0
LINE
  5
B0
  8
1
  6
CONTINUOUS
 62
     7
 10
207.95
 20
149.7893654789684
 30
0.0
 11
207.95
 21
147.9
 31
0.0
  0
LINE
  5
B1
  8
1
  6
CONTINUOUS
 62
     7
 10
207.95
 20
147.9
 30
0.0
 11
207.95
 21
147.6
 31
0.0
  0
LINE
  5
B2
  8
1
  6
CONTINUOUS
 62
     7
 10
207.95
 20
147.6
 30
0.0
 11
207.95
 21
148.0732050807569
 31
0.0
  0
LINE
  5
B3
  8
1
  6
CONTINUOUS
 62
     7
 10
207.95
 20
148.0732050807569
 30
0.0
 11
207.95
 21
149.9192692895361
 31
0.0
  0
LINE
  5
B4
  8
1
  6
CONTINUOUS
 62
     7
 10
207.95
 20
149.9192692895361
 30
0.0
 11
207.95
 21
149.7893654789684
 31
0.0
  0
LINE
  5
B5
  8
1
  6
CONTINUOUS
 62
     7
 10
207.95
 20
149.7893654789684
 30
0.0
 11
207.95
 21
147.9
 31
0.0
  0
LINE
  5
B6
  8
1
  6
CONTINUOUS
 62
     7
 10
207.95
 20
147.9
 30
0.0
 11
207.95
 21
147.6
 31
0.0
  0
LINE
  5
B7
  8
1
  6
CONTINUOUS
 62
     7
 10
207.95
 20
147.6
 30
0.0
 11
207.95
 21
148.0732050807569
 31
0.0
  0
CIRCLE
  5
B8
  8
1
  6
CONTINUOUS
 62
     7
 10
169.5
 20
150.0
 30
0.0
 40
1.649999999999999
  0
CIRCLE
  5
B9
  8
1
  6
CONTINUOUS
 62
     7
 10
60.50000000000001
 20
150.0
 30
0.0
 40
1.649999999999999
  0
LINE
  5
BA
  8
1
  6
CONTINUOUS
 62
     7
 10
55.50000000000001
 20
153.5
 30
0.0
 11
55.50000000000001
 21
146.5
 31
0.0
  0
LINE
  5
BB
  8
1
  6
CONTINUOUS
 62
     7
 10
52.50000000000001
 20
153.5
 30
0.0
 11
55.50000000000001
 21
153.5
 31
0.0
  0
LINE
  5
BC
  8
1
  6
CONTINUOUS
 62
     7
 10
52.50000000000001
 20
146.5
 30
0.0
 11
52.50000000000001
 21
153.5
 31
0.0
  0
LINE
  5
BD
  8
1
  6
CONTINUOUS
 62
     7
 10
55.50000000000001
 20
146.5
 30
0.0
 11
52.50000000000001
 21
146.5
 31
0.0
  0
LINE
  5
BE
  8
1
  6
CONTINUOUS
 62
     7
 10
174.5
 20
146.5
 30
0.0
 11
174.5
 21
153.5
 31
0.0
  0
LINE
  5
BF
  8
1
  6
CONTINUOUS
 62
     7
 10
177.5
 20
146.5
 30
0.0
 11
174.5
 21
146.5
 31
0.0
  0
LINE
  5
C0
  8
1
  6
CONTINUOUS
 62
     7
 10
177.5
 20
153.5
 30
0.0
 11
177.5
 21
146.5
 31
0.0
  0
LINE
  5
C1
  8
1
  6
CONTINUOUS
 62
     7
 10
174.5
 20
153.5
 30
0.0
 11
177.5
 21
153.5
 31
0.0
  0
CIRCLE
  5
C2
  8
1
  6
CONTINUOUS
 62
     7
 10
169.5
 20
150.0
 30
0.0
 40
3.928976825741747
  0
CIRCLE
  5
C3
  8
1
  6
CONTINUOUS
 62
     7
 10
60.50000000000001
 20
150.0
 30
0.0
 40
3.928976825741747
  0
LINE
  5
C4
  8
1
  6
CONTINUOUS
 62
     7
 10
176.5
 20
145.0
 30
0.0
 11
176.5
 21
136.0
 31
0.0
  0
LINE
  5
C5
  8
1
  6
CONTINUOUS
 62
     7
 10
169.5
 20
145.0
 30
0.0
 11
176.5
 21
145.0
 31
0.0
  0
ARC
  5
C6
  8
1
  6
CONTINUOUS
 62
     7
 10
169.5
 20
150.0
 30
0.0
 40
4.999999999999997
 50
90.0
 51
270.0
  0
LINE
  5
C7
  8
1
  6
CONTINUOUS
 62
     7
 10
176.5
 20
155.0
 30
0.0
 11
169.5
 21
155.0
 31
0.0
  0
LINE
  5
C8
  8
1
  6
CONTINUOUS
 62
     7
 10
176.5
 20
164.0
 30
0.0
 11
176.5
 21
155.0
 31
0.0
  0
LINE
  5
C9
  8
1
  6
CONTINUOUS
 62
     7
 10
53.50000000000001
 20
155.0
 30
0.0
 11
53.50000000000001
 21
164.0
 31
0.0
  0
LINE
  5
CA
  8
1
  6
CONTINUOUS
 62
     7
 10
53.50000000000001
 20
155.0
 30
0.0
 11
60.50000000000001
 21
155.0
 31
0.0
  0
ARC
  5
CB
  8
1
  6
CONTINUOUS
 62
     7
 10
60.50000000000001
 20
150.0
 30
0.0
 40
4.999999999999997
 50
270.0
 51
90.0
  0
LINE
  5
CC
  8
1
  6
CONTINUOUS
 62
     7
 10
60.50000000000001
 20
145.0
 30
0.0
 11
53.50000000000001
 21
145.0
 31
0.0
  0
LINE
  5
CD
  8
1
  6
CONTINUOUS
 62
     7
 10
53.50000000000001
 20
136.0
 30
0.0
 11
53.50000000000001
 21
145.0
 31
0.0
  0
LINE
  5
CE
  8
1
  6
CONTINUOUS
 62
     7
 10
49.7754196143781
 20
139.3
 30
0.0
 11
49.79039432690609
 21
139.9073507620926
 31
0.0
  0
LINE
  5
CF
  8
1
  6
CONTINUOUS
 62
     7
 10
49.79039432690609
 20
139.9073507620926
 30
0.0
 11
49.80009912934298
 21
140.7200256194441
 31
0.0
  0
LINE
  5
D0
  8
1
  6
CONTINUOUS
 62
     7
 10
49.80009912934297
 20
140.7200256194441
 30
0.0
 11
49.80583088847877
 21
142.5985554670256
 31
0.0
  0
LINE
  5
D1
  8
1
  6
CONTINUOUS
 62
     7
 10
49.80583088847879
 20
142.5985554670256
 30
0.0
 11
49.80583088847879
 21
157.4014445329744
 31
0.0
  0
LINE
  5
D2
  8
1
  6
CONTINUOUS
 62
     7
 10
49.80583088847877
 20
157.4014445329744
 30
0.0
 11
49.80009912934297
 21
159.2799743805558
 31
0.0
  0
LINE
  5
D3
  8
1
  6
CONTINUOUS
 62
     7
 10
49.80009912934298
 20
159.2799743805558
 30
0.0
 11
49.79039432690609
 21
160.0926492379074
 31
0.0
  0
LINE
  5
D4
  8
1
  6
CONTINUOUS
 62
     7
 10
49.79039432690609
 20
160.0926492379074
 30
0.0
 11
49.7754196143781
 21
160.7
 31
0.0
  0
LINE
  5
D5
  8
1
  6
CONTINUOUS
 62
     7
 10
49.7754196143781
 20
160.7
 30
0.0
 11
49.76001570486141
 21
160.7
 31
0.0
  0
LINE
  5
D6
  8
1
  6
CONTINUOUS
 62
     7
 10
49.76001570486141
 20
167.7399842951386
 30
0.0
 11
49.76001570486141
 21
160.7
 31
0.0
  0
LINE
  5
D7
  8
1
  6
CONTINUOUS
 62
     7
 10
49.76001570486141
 20
139.3
 30
0.0
 11
49.76001570486141
 21
132.2600157048614
 31
0.0
  0
LINE
  5
D8
  8
1
  6
CONTINUOUS
 62
     7
 10
49.76001570486141
 20
139.3
 30
0.0
 11
49.7754196143781
 21
139.3
 31
0.0
  0
LINE
  5
D9
  8
1
  6
CONTINUOUS
 62
     7
 10
49.76001570486141
 20
132.2600157048614
 30
0.0
 11
180.2399842951386
 21
132.2600157048614
 31
0.0
  0
LINE
  5
DA
  8
1
  6
CONTINUOUS
 62
     7
 10
176.0462028748805
 20
160.7
 30
0.0
 11
176.0508306770977
 21
160.7
 31
0.0
  0
LINE
  5
DB
  8
1
  6
CONTINUOUS
 62
     7
 10
180.2399842951386
 20
167.7399842951386
 30
0.0
 11
49.76001570486141
 21
167.7399842951386
 31
0.0
  0
LINE
  5
DC
  8
1
  6
CONTINUOUS
 62
     7
 10
180.2399842951386
 20
160.7
 30
0.0
 11
180.2399842951386
 21
167.7399842951386
 31
0.0
  0
LINE
  5
DD
  8
1
  6
CONTINUOUS
 62
     7
 10
180.2245803856219
 20
160.7
 30
0.0
 11
180.2399842951386
 21
160.7
 31
0.0
  0
LINE
  5
DE
  8
1
  6
CONTINUOUS
 62
     7
 10
180.2096056730939
 20
160.0926492379074
 30
0.0
 11
180.2245803856219
 21
160.7
 31
0.0
  0
LINE
  5
DF
  8
1
  6
CONTINUOUS
 62
     7
 10
180.199900870657
 20
159.2799743805558
 30
0.0
 11
180.2096056730939
 21
160.0926492379074
 31
0.0
  0
LINE
  5
E0
  8
1
  6
CONTINUOUS
 62
     7
 10
180.1941691115213
 20
157.4014445329744
 30
0.0
 11
180.1999008706571
 21
159.2799743805558
 31
0.0
  0
LINE
  5
E1
  8
1
  6
CONTINUOUS
 62
     7
 10
180.1941691115212
 20
142.5985554670256
 30
0.0
 11
180.1941691115212
 21
157.4014445329744
 31
0.0
  0
LINE
  5
E2
  8
1
  6
CONTINUOUS
 62
     7
 10
180.199900870657
 20
140.7200256194441
 30
0.0
 11
180.1941691115213
 21
142.5985554670256
 31
0.0
  0
LINE
  5
E3
  8
1
  6
CONTINUOUS
 62
     7
 10
180.2096056730939
 20
139.9073507620926
 30
0.0
 11
180.199900870657
 21
140.7200256194441
 31
0.0
  0
LINE
  5
E4
  8
1
  6
CONTINUOUS
 62
     7
 10
180.2245803856219
 20
139.3
 30
0.0
 11
180.2096056730939
 21
139.9073507620926
 31
0.0
  0
LINE
  5
E5
  8
1
  6
CONTINUOUS
 62
     7
 10
180.2399842951386
 20
139.3
 30
0.0
 11
180.2245803856219
 21
139.3
 31
0.0
  0
LINE
  5
E6
  8
1
  6
CONTINUOUS
 62
     7
 10
180.2399842951386
 20
132.2600157048614
 30
0.0
 11
180.2399842951386
 21
139.3
 31
0.0
  0
LINE
  5
E7
  8
1
  6
CONTINUOUS
 62
     7
 10
53.94916932290236
 20
139.3
 30
0.0
 11
53.95379712511946
 21
139.3
 31
0.0
  0
ARC
  5
E8
  8
1
  6
CONTINUOUS
 62
     7
 10
105.3
 20
158.5
 30
0.0
 40
0.9999999999999991
 50
180.0
 51
269.9999999999994
  0
LINE
  5
E9
  8
1
  6
CONTINUOUS
 62
     7
 10
105.3
 20
157.5
 30
0.0
 11
124.7
 21
157.5
 31
0.0
  0
ARC
  5
EA
  8
1
  6
CONTINUOUS
 62
     7
 10
124.7
 20
158.5
 30
0.0
 40
0.9999999999999991
 50
270.0000000000007
 51
0.0
  0
ARC
  5
EB
  8
1
  6
CONTINUOUS
 62
     7
 10
124.7
 20
141.5
 30
0.0
 40
0.9999999999999991
 50
0.0
 51
89.9999999999994
  0
LINE
  5
EC
  8
1
  6
CONTINUOUS
 62
     7
 10
124.7
 20
142.5
 30
0.0
 11
105.3
 21
142.5
 31
0.0
  0
ARC
  5
ED
  8
1
  6
CONTINUOUS
 62
     7
 10
105.3
 20
141.5
 30
0.0
 40
0.9999999999999991
 50
90.0000000000006
 51
180.0
  0
LINE
  5
EE
  8
1
  6
CONTINUOUS
 62
     7
 10
104.3
 20
163.5462028748805
 30
0.0
 11
104.3
 21
158.5
 31
0.0
  0
LINE
  5
EF
  8
1
  6
CONTINUOUS
 62
     7
 10
125.7
 20
136.4537971251195
 30
0.0
 11
125.7
 21
141.5
 31
0.0
  0
LINE
  5
F0
  8
1
  6
CONTINUOUS
 62
     7
 10
104.3
 20
141.5
 30
0.0
 11
104.3
 21
136.4537971251194
 31
0.0
  0
LINE
  5
F1
  8
1
  6
CONTINUOUS
 62
     7
 10
125.7
 20
158.5
 30
0.0
 11
125.7
 21
163.5462028748805
 31
0.0
  0
ARC
  5
F2
  8
1
  6
CONTINUOUS
 62
     7
 10
156.5
 20
150.0
 30
0.0
 40
2.0
 50
0.0
 51
90.0
  0
LINE
  5
F3
  8
1
  6
CONTINUOUS
 62
     7
 10
137.5
 20
152.0
 30
0.0
 11
156.5
 21
152.0
 31
0.0
  0
ARC
  5
F4
  8
1
  6
CONTINUOUS
 62
     7
 10
137.5
 20
150.0
 30
0.0
 40
2.000000000000002
 50
90.0
 51
180.0
  0
ARC
  5
F5
  8
1
  6
CONTINUOUS
 62
     7
 10
137.5
 20
150.0
 30
0.0
 40
2.0
 50
180.0
 51
270.0000000000001
  0
LINE
  5
F6
  8
1
  6
CONTINUOUS
 62
     7
 10
156.5
 20
148.0
 30
0.0
 11
137.5
 21
148.0
 31
0.0
  0
ARC
  5
F7
  8
1
  6
CONTINUOUS
 62
     7
 10
156.5
 20
150.0
 30
0.0
 40
2.000000000000002
 50
270.0
 51
0.0
  0
ARC
  5
F8
  8
1
  6
CONTINUOUS
 62
     7
 10
92.5
 20
150.0
 30
0.0
 40
2.000000000000002
 50
0.0
 51
90.0
  0
LINE
  5
F9
  8
1
  6
CONTINUOUS
 62
     7
 10
73.50000000000001
 20
152.0
 30
0.0
 11
92.5
 21
152.0
 31
0.0
  0
ARC
  5
FA
  8
1
  6
CONTINUOUS
 62
     7
 10
73.50000000000001
 20
150.0
 30
0.0
 40
2.000000000000002
 50
90.0
 51
180.0
  0
ARC
  5
FB
  8
1
  6
CONTINUOUS
 62
     7
 10
73.50000000000001
 20
150.0
 30
0.0
 40
2.000000000000002
 50
180.0
 51
270.0
  0
LINE
  5
FC
  8
1
  6
CONTINUOUS
 62
     7
 10
92.5
 20
148.0
 30
0.0
 11
73.50000000000001
 21
148.0
 31
0.0
  0
ARC
  5
FD
  8
1
  6
CONTINUOUS
 62
     7
 10
92.5
 20
150.0
 30
0.0
 40
1.999999999999998
 50
269.9999999999999
 51
0.0
  0
LINE
  5
FE
  8
1
  6
CONTINUOUS
 62
     7
 10
180.2399842951386
 20
57.05000000000002
 30
0.0
 11
180.0
 21
112.05
 31
0.0
  0
LINE
  5
FF
  8
1
  6
CONTINUOUS
 62
     7
 10
49.76001570486141
 20
57.05000000000002
 30
0.0
 11
180.2399842951386
 21
57.05000000000002
 31
0.0
  0
LINE
  5
100
  8
1
  6
CONTINUOUS
 62
     7
 10
49.76001570486141
 20
57.05000000000002
 30
0.0
 11
50.0
 21
112.05
 31
0.0
  0
LINE
  5
101
  8
1
  6
CONTINUOUS
 62
     7
 10
50.0
 20
112.05
 30
0.0
 11
180.0
 21
112.05
 31
0.0
  0
LINE
  5
102
  8
1
  6
CONTINUOUS
 62
     4
 10
72.50000000000001
 20
112.05
 30
0.0
 11
77.50000000000003
 21
112.05
 31
0.0
  0
LINE
  5
103
  8
1
  6
CONTINUOUS
 62
     4
 10
72.68115942030002
 20
112.05
 30
0.0
 11
77.31884057970002
 21
112.05
 31
0.0
  0
LINE
  5
104
  8
1
  6
CONTINUOUS
 62
     4
 10
83.57575757579096
 20
112.05
 30
0.0
 11
83.75757575760913
 21
112.05
 31
0.0
  0
LINE
  5
105
  8
1
  6
CONTINUOUS
 62
     4
 10
83.75757575760913
 20
112.05
 30
0.0
 11
83.57575757579096
 21
112.05
 31
0.0
  0
LINE
  5
106
  8
1
  6
CONTINUOUS
 62
     4
 10
91.57575757579093
 20
112.05
 30
0.0
 11
91.7575757576091
 21
112.05
 31
0.0
  0
LINE
  5
107
  8
1
  6
CONTINUOUS
 62
     4
 10
91.7575757576091
 20
112.05
 30
0.0
 11
91.57575757579093
 21
112.05
 31
0.0
  0
LINE
  5
108
  8
1
  6
CONTINUOUS
 62
     7
 10
112.1841142693757
 20
112.05
 30
0.0
 11
110.5
 21
112.05
 31
0.0
  0
LINE
  5
109
  8
1
  6
CONTINUOUS
 62
     7
 10
110.5
 20
112.05
 30
0.0
 11
111.0487789198581
 21
112.05
 31
0.0
  0
LINE
  5
10A
  8
1
  6
CONTINUOUS
 62
     7
 10
111.0487789198581
 20
112.05
 30
0.0
 11
112.045
 21
112.05
 31
0.0
  0
LINE
  5
10B
  8
1
  6
CONTINUOUS
 62
     7
 10
112.045
 20
112.05
 30
0.0
 11
111.88
 21
112.05
 31
0.0
  0
LINE
  5
10C
  8
1
  6
CONTINUOUS
 62
     7
 10
111.88
 20
112.05
 30
0.0
 11
112.7742189172755
 21
112.05
 31
0.0
  0
LINE
  5
10D
  8
1
  6
CONTINUOUS
 62
     7
 10
112.7742189172755
 20
112.05
 30
0.0
 11
112.0247204878937
 21
112.05
 31
0.0
  0
LINE
  5
10E
  8
1
  6
CONTINUOUS
 62
     7
 10
112.0247204878937
 20
112.05
 30
0.0
 11
112.6
 21
112.05
 31
0.0
  0
LINE
  5
10F
  8
1
  6
CONTINUOUS
 62
     7
 10
112.6
 20
112.05
 30
0.0
 11
113.7310761546869
 21
112.05
 31
0.0
  0
LINE
  5
110
  8
1
  6
CONTINUOUS
 62
     7
 10
113.7310761546869
 20
112.05
 30
0.0
 11
113.3753422753836
 21
112.05
 31
0.0
  0
LINE
  5
111
  8
1
  6
CONTINUOUS
 62
     7
 10
113.3753422753836
 20
112.05
 30
0.0
 11
112.42
 21
112.05
 31
0.0
  0
LINE
  5
112
  8
1
  6
CONTINUOUS
 62
     7
 10
112.42
 20
112.05
 30
0.0
 11
112.6694807101257
 21
112.05
 31
0.0
  0
LINE
  5
113
  8
1
  6
CONTINUOUS
 62
     7
 10
112.6694807101257
 20
112.05
 30
0.0
 11
112.1841142693756
 21
112.05
 31
0.0
  0
LINE
  5
114
  8
1
  6
CONTINUOUS
 62
     7
 10
114.3918550383474
 20
112.05
 30
0.0
 11
114.0718720098938
 21
112.05
 31
0.0
  0
LINE
  5
115
  8
1
  6
CONTINUOUS
 62
     7
 10
114.0718720098938
 20
112.05
 30
0.0
 11
113.2
 21
112.05
 31
0.0
  0
LINE
  5
116
  8
1
  6
CONTINUOUS
 62
     7
 10
113.2
 20
112.05
 30
0.0
 11
113.8
 21
112.05
 31
0.0
  0
LINE
  5
117
  8
1
  6
CONTINUOUS
 62
     7
 10
113.8
 20
112.05
 30
0.0
 11
114.3918550383474
 21
112.05
 31
0.0
  0
LINE
  5
118
  8
1
  6
CONTINUOUS
 62
     7
 10
114.6989955344659
 20
112.05
 30
0.0
 11
114.4
 21
112.05
 31
0.0
  0
LINE
  5
119
  8
1
  6
CONTINUOUS
 62
     7
 10
114.4
 20
112.05
 30
0.0
 11
114.9698996655518
 21
112.05
 31
0.0
  0
LINE
  5
11A
  8
1
  6
CONTINUOUS
 62
     7
 10
114.9698996655518
 20
112.05
 30
0.0
 11
115.0
 21
112.05
 31
0.0
  0
LINE
  5
11B
  8
1
  6
CONTINUOUS
 62
     7
 10
115.0
 20
112.05
 30
0.0
 11
115.6
 21
112.05
 31
0.0
  0
LINE
  5
11C
  8
1
  6
CONTINUOUS
 62
     7
 10
115.6
 20
112.05
 30
0.0
 11
116.02
 21
112.05
 31
0.0
  0
LINE
  5
11D
  8
1
  6
CONTINUOUS
 62
     7
 10
116.02
 20
112.05
 30
0.0
 11
115.2171534984662
 21
112.05
 31
0.0
  0
LINE
  5
11E
  8
1
  6
CONTINUOUS
 62
     7
 10
115.2171534984662
 20
112.05
 30
0.0
 11
115.105
 21
112.05
 31
0.0
  0
LINE
  5
11F
  8
1
  6
CONTINUOUS
 62
     7
 10
115.105
 20
112.05
 30
0.0
 11
114.6989955344659
 21
112.05
 31
0.0
  0
LINE
  5
120
  8
1
  6
CONTINUOUS
 62
     7
 10
115.0
 20
112.05
 30
0.0
 11
115.105
 21
112.05
 31
0.0
  0
LINE
  5
121
  8
1
  6
CONTINUOUS
 62
     7
 10
115.105
 20
112.05
 30
0.0
 11
115.48
 21
112.05
 31
0.0
  0
LINE
  5
122
  8
1
  6
CONTINUOUS
 62
     7
 10
115.105
 20
112.05
 30
0.0
 11
115.0
 21
112.05
 31
0.0
  0
LINE
  5
123
  8
1
  6
CONTINUOUS
 62
     7
 10
116.08
 20
112.05
 30
0.0
 11
116.575
 21
112.05
 31
0.0
  0
LINE
  5
124
  8
1
  6
CONTINUOUS
 62
     7
 10
116.575
 20
112.05
 30
0.0
 11
117.1629032258065
 21
112.05
 31
0.0
  0
LINE
  5
125
  8
1
  6
CONTINUOUS
 62
     7
 10
117.1629032258065
 20
112.05
 30
0.0
 11
116.98
 21
112.05
 31
0.0
  0
LINE
  5
126
  8
1
  6
CONTINUOUS
 62
     7
 10
116.98
 20
112.05
 30
0.0
 11
116.575
 21
112.05
 31
0.0
  0
LINE
  5
127
  8
1
  6
CONTINUOUS
 62
     7
 10
116.575
 20
112.05
 30
0.0
 11
117.985
 21
112.05
 31
0.0
  0
LINE
  5
128
  8
1
  6
CONTINUOUS
 62
     7
 10
117.985
 20
112.05
 30
0.0
 11
118.39
 21
112.05
 31
0.0
  0
LINE
  5
129
  8
1
  6
CONTINUOUS
 62
     7
 10
118.39
 20
112.05
 30
0.0
 11
116.575
 21
112.05
 31
0.0
  0
LINE
  5
12A
  8
1
  6
CONTINUOUS
 62
     7
 10
116.575
 20
112.05
 30
0.0
 11
116.08
 21
112.05
 31
0.0
  0
LINE
  5
12B
  8
1
  6
CONTINUOUS
 62
     7
 10
117.8158857306243
 20
112.05
 30
0.0
 11
117.3305192898743
 21
112.05
 31
0.0
  0
LINE
  5
12C
  8
1
  6
CONTINUOUS
 62
     7
 10
117.3305192898743
 20
112.05
 30
0.0
 11
118.951221080142
 21
112.05
 31
0.0
  0
LINE
  5
12D
  8
1
  6
CONTINUOUS
 62
     7
 10
118.951221080142
 20
112.05
 30
0.0
 11
119.5
 21
112.05
 31
0.0
  0
LINE
  5
12E
  8
1
  6
CONTINUOUS
 62
     7
 10
119.5
 20
112.05
 30
0.0
 11
117.8158857306243
 21
112.05
 31
0.0
  0
LINE
  5
12F
  8
1
  6
CONTINUOUS
 62
     7
 10
114.9755051025722
 20
112.05
 30
0.0
 11
110.7573593128807
 21
112.05
 31
0.0
  0
LINE
  5
130
  8
1
  6
CONTINUOUS
 62
     7
 10
110.7573593128807
 20
112.05
 30
0.0
 11
114.4
 21
112.05
 31
0.0
  0
LINE
  5
131
  8
1
  6
CONTINUOUS
 62
     7
 10
114.4
 20
112.05
 30
0.0
 11
114.7
 21
112.05
 31
0.0
  0
LINE
  5
132
  8
1
  6
CONTINUOUS
 62
     7
 10
114.7
 20
112.05
 30
0.0
 11
115.3
 21
112.05
 31
0.0
  0
LINE
  5
133
  8
1
  6
CONTINUOUS
 62
     7
 10
115.3
 20
112.05
 30
0.0
 11
115.6
 21
112.05
 31
0.0
  0
LINE
  5
134
  8
1
  6
CONTINUOUS
 62
     7
 10
115.6
 20
112.05
 30
0.0
 11
119.2426406871193
 21
112.05
 31
0.0
  0
LINE
  5
135
  8
1
  6
CONTINUOUS
 62
     7
 10
119.2426406871193
 20
112.05
 30
0.0
 11
115.0244948974278
 21
112.05
 31
0.0
  0
LINE
  5
136
  8
1
  6
CONTINUOUS
 62
     7
 10
115.0244948974278
 20
112.05
 30
0.0
 11
114.9755051025722
 21
112.05
 31
0.0
  0
LINE
  5
137
  8
1
  6
CONTINUOUS
 62
     7
 10
117.0140762512423
 20
112.05
 30
0.0
 11
115.7087117307087
 21
112.05
 31
0.0
  0
LINE
  5
138
  8
1
  6
CONTINUOUS
 62
     7
 10
115.7087117307088
 20
112.05
 30
0.0
 11
115.3
 21
112.05
 31
0.0
  0
LINE
  5
139
  8
1
  6
CONTINUOUS
 62
     7
 10
115.3
 20
112.05
 30
0.0
 11
115.6
 21
112.05
 31
0.0
  0
LINE
  5
13A
  8
1
  6
CONTINUOUS
 62
     7
 10
115.6
 20
112.05
 30
0.0
 11
116.769127276964
 21
112.05
 31
0.0
  0
LINE
  5
13B
  8
1
  6
CONTINUOUS
 62
     7
 10
116.769127276964
 20
112.05
 30
0.0
 11
117.069127276964
 21
112.05
 31
0.0
  0
LINE
  5
13C
  8
1
  6
CONTINUOUS
 62
     7
 10
112.9859237487577
 20
112.05
 30
0.0
 11
114.2912882692913
 21
112.05
 31
0.0
  0
LINE
  5
13D
  8
1
  6
CONTINUOUS
 62
     7
 10
114.2912882692913
 20
112.05
 30
0.0
 11
114.7
 21
112.05
 31
0.0
  0
LINE
  5
13E
  8
1
  6
CONTINUOUS
 62
     7
 10
114.7
 20
112.05
 30
0.0
 11
114.4
 21
112.05
 31
0.0
  0
LINE
  5
13F
  8
1
  6
CONTINUOUS
 62
     7
 10
114.4
 20
112.05
 30
0.0
 11
113.230872723036
 21
112.05
 31
0.0
  0
LINE
  5
140
  8
1
  6
CONTINUOUS
 62
     7
 10
113.230872723036
 20
112.05
 30
0.0
 11
112.930872723036
 21
112.05
 31
0.0
  0
LINE
  5
141
  8
1
  6
CENTER
 62
     1
 10
115.0
 20
136.0
 30
0.0
 11
115.0
 21
164.0
 31
0.0
  0
LINE
  5
143
  8
1
  6
CONTINUOUS
 62
     7
 10
176.5
 20
136.0
 30
0.0
 11
53.50000000000001
 21
136.0
 31
0.0
  0
LINE
  5
144
  8
1
  6
CENTER
 62
     1
 10
264.9887027033035
 20
150.0
 30
0.0
 11
205.9881791379607
 21
150.0
 31
0.0
  0
LINE
  5
145
  8
1
  6
CENTER
 62
     1
 10
182.2399842951386
 20
150.0
 30
0.0
 11
47.76001570486141
 21
150.0
 31
0.0
  0
LINE
  5
146
  8
1
  6
CONTINUOUS
 62
     7
 10
53.50000000000001
 20
164.0
 30
0.0
 11
176.5
 21
164.0
 31
0.0
  0
LINE
  5
147
  8
1
  6
CENTER
 62
     1
 10
115.0
 20
54.90766820794657
 30
0.0
 11
115.0
 21
113.9081917732903
 31
0.0
  0
ENDSEC
  0
EOF
