  0
SECTION
  2
HEADER
  9
$ACADVER
  1
AC1006
  9
$DWGCODEPAGE
  3
ansi_932
  9
$INSBASE
 10
0.0
 20
0.0
 30
0.0
  9
$EXTMIN
 10
-362.35
 20
358.4409090909091
  9
$EXTMAX
 10
-336.35
 20
454.1
  9
$LIMMIN
 10
0.0
 20
0.0
  9
$LIMMAX
 10
12.0
 20
9.0
  9
$ORTHOMODE
 70
     0
  9
$REGENMODE
 70
     1
  9
$FILLMODE
 70
     1
  9
$QTEXTMODE
 70
     0
  9
$MIRRTEXT
 70
     1
  9
$DRAGMODE
 70
     2
  9
$LTSCALE
 40
1.0
  9
$OSMODE
 70
    37
  9
$ATTMODE
 70
     1
  9
$TEXTSIZE
 40
0.2
  9
$TRACEWID
 40
0.05
  9
$TEXTSTYLE
  7
STANDARD
  9
$CLAYER
  8
0
  9
$CELTYPE
  6
BYLAYER
  9
$CECOLOR
 62
   256
  9
$DIMSCALE
 40
1.0
  9
$DIMASZ
 40
3.0
  9
$DIMEXO
 40
0.0625
  9
$DIMDLI
 40
0.38
  9
$DIMRND
 40
0.0
  9
$DIMDLE
 40
0.0
  9
$DIMEXE
 40
1.5
  9
$DIMTP
 40
0.0
  9
$DIMTM
 40
0.0
  9
$DIMTXT
 40
3.0
  9
$DIMCEN
 40
0.09
  9
$DIMTSZ
 40
0.0
  9
$DIMTOL
 70
     0
  9
$DIMLIM
 70
     0
  9
$DIMTIH
 70
     1
  9
$DIMTOH
 70
     1
  9
$DIMSE1
 70
     0
  9
$DIMSE2
 70
     0
  9
$DIMTAD
 70
     1
  9
$DIMZIN
 70
     0
  9
$DIMBLK
  1

  9
$DIMASO
 70
     1
  9
$DIMSHO
 70
     1
  9
$DIMPOST
  1

  9
$DIMAPOST
  1

  9
$DIMALT
 70
     0
  9
$DIMALTD
 70
     2
  9
$DIMALTF
 40
25.4
  9
$DIMLFAC
 40
1.0
  9
$DIMTOFL
 70
     0
  9
$DIMTVP
 40
0.0
  9
$DIMTIX
 70
     0
  9
$DIMSOXD
 70
     0
  9
$DIMSAH
 70
     0
  9
$DIMBLK1
  1

  9
$DIMBLK2
  1

  9
$LUNITS
 70
     2
  9
$LUPREC
 70
     4
  9
$SKETCHINC
 40
0.1
  9
$FILLETRAD
 40
0.5
  9
$AUNITS
 70
     0
  9
$AUPREC
 70
     0
  9
$MENU
  1
.
  9
$ELEVATION
 40
0.0
  9
$THICKNESS
 40
0.0
  9
$LIMCHECK
 70
     0
  9
$CHAMFERA
 40
0.0
  9
$CHAMFERB
 40
0.0
  9
$SKPOLY
 70
     0
  9
$TDCREATE
 40
2459422.331795336
  9
$TDUPDATE
 40
2459422.331795706
  9
$TDINDWG
 40
0.0000000116
  9
$TDUSRTIMER
 40
0.0000000116
  9
$USRTIMER
 70
     1
  9
$ANGBASE
 50
0.0
  9
$ANGDIR
 70
     0
  9
$PDMODE
 70
     0
  9
$PDSIZE
 40
0.0
  9
$PLINEWID
 40
0.0
  9
$COORDS
 70
     1
  9
$SPLFRAME
 70
     0
  9
$SPLINETYPE
 70
     6
  9
$SPLINESEGS
 70
     8
  9
$ATTDIA
 70
     0
  9
$ATTREQ
 70
     1
  9
$HANDLING
 70
     1
  9
$HANDSEED
  5
92
  9
$SURFTAB1
 70
     6
  9
$SURFTAB2
 70
     6
  9
$SURFTYPE
 70
     6
  9
$SURFU
 70
     6
  9
$SURFV
 70
     6
  9
$UCSNAME
  2

  9
$UCSORG
 10
0.0
 20
0.0
 30
0.0
  9
$UCSXDIR
 10
1.0
 20
0.0
 30
0.0
  9
$UCSYDIR
 10
0.0
 20
1.0
 30
0.0
  9
$USERI1
 70
     0
  9
$USERI2
 70
     0
  9
$USERI3
 70
     0
  9
$USERI4
 70
     0
  9
$USERI5
 70
     0
  9
$USERR1
 40
0.0
  9
$USERR2
 40
0.0
  9
$USERR3
 40
0.0
  9
$USERR4
 40
0.0
  9
$USERR5
 40
0.0
  9
$WORLDVIEW
 70
     1
  0
ENDSEC
  0
SECTION
  2
TABLES
  0
TABLE
  2
VPORT
 70
     1
  0
VPORT
  2
*ACTIVE
 70
     0
 10
0.0
 20
0.0
 11
1.0
 21
1.0
 12
-349.35
 22
406.2704545454545
 13
0.0
 23
0.0
 14
0.5
 24
0.5
 15
0.5
 25
0.5
 16
0.0
 26
0.0
 36
1.0
 17
0.0
 27
0.0
 37
0.0
 40
95.65909090909088
 41
1.6
 42
50.0
 43
0.0
 44
0.0
 50
0.0
 51
0.0
 71
     0
 72
   100
 73
     1
 74
     3
 75
     0
 76
     0
 77
     0
 78
     0
  0
ENDTAB
  0
TABLE
  2
LTYPE
 70
     1
  0
LTYPE
  2
CONTINUOUS
 70
     0
  3
Solid line
 72
    65
 73
     0
 40
0.0
  0
ENDTAB
  0
TABLE
  2
LAYER
 70
     2
  0
LAYER
  2
0
 70
     0
 62
     7
  6
CONTINUOUS
  0
LAYER
  2
1
 70
     0
 62
     7
  6
CONTINUOUS
  0
ENDTAB
  0
TABLE
  2
STYLE
 70
     2
  0
STYLE
  2
STANDARD
 70
     0
 40
0.0
 41
1.0
 50
0.0
 71
     0
 42
0.2
  3
txt
  4

  0
STYLE
  2
ＭＳ_ゴシック
 70
     0
 40
0.0
 41
1.0
 50
0.0
 71
     0
 42
0.2
  3
ＭＳ ゴシック.shx
  4

  0
ENDTAB
  0
TABLE
  2
VIEW
 70
     0
  0
ENDTAB
  0
TABLE
  2
UCS
 70
     0
  0
ENDTAB
  0
ENDSEC
  0
SECTION
  2
BLOCKS
  0
BLOCK
  8
0
  2
D_FRAME_VIEW_2741
 70
     0
 10
0.0
 20
0.0
 30
0.0
  0
ENDBLK
  8
0
  0
BLOCK
  8
0
  2
D_FRAME_VIEW_2934
 70
     0
 10
0.0
 20
0.0
 30
0.0
  0
ARC
  5
7F
  8
1
  6
CONTINUOUS
 62
     7
 10
-338.15
 20
411.2
 30
0.0
 40
1.800000000000024
 50
0.0000000000000035
 51
90.0
  0
LINE
  5
80
  8
1
  6
CONTINUOUS
 62
     7
 10
-336.35
 20
409.0
 30
0.0
 11
-336.35
 21
411.2
 31
0.0
  0
LINE
  5
81
  8
1
  6
CONTINUOUS
 62
     7
 10
-340.8418055362694
 20
379.491667823833
 30
0.0
 11
-340.35
 21
409.0
 31
0.0
  0
ARC
  5
82
  8
1
  6
CONTINUOUS
 62
     7
 10
-341.3417361062893
 20
379.5000000000001
 30
0.0
 40
0.500000000000056
 50
270.0
 51
359.0451587461278
  0
ARC
  5
83
  8
1
  6
CONTINUOUS
 62
     7
 10
-360.55
 20
411.2
 30
0.0
 40
1.800000000000024
 50
90.00000000000001
 51
180.0
  0
LINE
  5
84
  8
1
  6
CONTINUOUS
 62
     7
 10
-362.35
 20
411.2
 30
0.0
 11
-362.35
 21
409.0
 31
0.0
  0
LINE
  5
85
  8
1
  6
CONTINUOUS
 62
     7
 10
-358.35
 20
409.0
 30
0.0
 11
-357.8581944637306
 21
379.491667823833
 31
0.0
  0
ARC
  5
86
  8
1
  6
CONTINUOUS
 62
     7
 10
-357.3582638937107
 20
379.5000000000001
 30
0.0
 40
0.500000000000047
 50
180.9548412538723
 51
270.0
  0
ENDBLK
  8
0
  0
ENDSEC
  0
SECTION
  2
ENTITIES
  0
CIRCLE
  5
70
  8
1
  6
CONTINUOUS
 62
     7
 10
-349.35
 20
441.1
 30
0.0
 40
13.0
  0
CIRCLE
  5
71
  8
1
  6
CONTINUOUS
 62
     7
 10
-349.35
 20
441.1
 30
0.0
 40
6.699999999999998
  0
LINE
  5
72
  8
1
  6
CONTINUOUS
 62
     7
 10
-349.35
 20
428.1
 30
0.0
 11
-349.35
 21
435.2
 31
0.0
  0
LINE
  5
73
  8
1
  6
CONTINUOUS
 62
     7
 10
-352.5247069282003
 20
447.0
 30
0.0
 11
-346.1751426593751
 21
447.0
 31
0.0
  0
LINE
  5
74
  8
1
  6
CONTINUOUS
 62
     7
 10
-346.1752930717997
 20
435.2
 30
0.0
 11
-352.5248573406249
 21
435.2
 31
0.0
  0
LINE
  5
75
  8
1
  6
CONTINUOUS
 62
     7
 10
-341.3417361062893
 20
379.0
 30
0.0
 11
-357.3582638937107
 21
379.0
 31
0.0
  0
LINE
  5
76
  8
1
  6
CONTINUOUS
 62
     7
 10
-336.35
 20
409.0
 30
0.0
 11
-362.35
 21
409.0
 31
0.0
  0
LINE
  5
77
  8
1
  6
CONTINUOUS
 62
     7
 10
-360.55
 20
413.0
 30
0.0
 11
-338.15
 21
413.0
 31
0.0
  0
LINE
  5
78
  8
1
  6
CONTINUOUS
 62
     7
 10
-349.35
 20
413.0
 30
0.0
 11
-349.35
 21
379.0
 31
0.0
  0
LINE
  5
79
  8
1
  6
CONTINUOUS
 62
     7
 10
-349.35
 20
446.9999999999999
 30
0.0
 11
-349.35
 21
454.1
 31
0.0
  0
INSERT
  5
7B
  8
1
  6
CONTINUOUS
 62
     7
  2
D_FRAME_VIEW_2741
 10
0.0
 20
0.0
 30
0.0
  0
INSERT
  5
87
  8
1
  6
CONTINUOUS
 62
     7
  2
D_FRAME_VIEW_2934
 10
0.0
 20
0.0
 30
0.0
  0
TEXT
  5
88
  8
1
  6
CONTINUOUS
 62
     7
 10
-359.6788420657747
 20
357.7568400650243
 30
0.0
 40
6.0
  1
MTH-18
  0
ENDSEC
  0
EOF
