  0
SECTION
  2
HEADER
  9
$ACADVER
  1
AC1006
  9
$DWGCODEPAGE
  3
ansi_932
  9
$INSBASE
 10
0.0
 20
0.0
 30
0.0
  9
$EXTMIN
 10
-367.85
 20
368.4409090909091
  9
$EXTMAX
 10
-340.85
 20
464.6
  9
$LIMMIN
 10
0.0
 20
0.0
  9
$LIMMAX
 10
12.0
 20
9.0
  9
$ORTHOMODE
 70
     0
  9
$REGENMODE
 70
     1
  9
$FILLMODE
 70
     1
  9
$QTEXTMODE
 70
     0
  9
$MIRRTEXT
 70
     1
  9
$DRAGMODE
 70
     2
  9
$LTSCALE
 40
1.0
  9
$OSMODE
 70
    37
  9
$ATTMODE
 70
     1
  9
$TEXTSIZE
 40
0.2
  9
$TRACEWID
 40
0.05
  9
$TEXTSTYLE
  7
STANDARD
  9
$CLAYER
  8
0
  9
$CELTYPE
  6
BYLAYER
  9
$CECOLOR
 62
   256
  9
$DIMSCALE
 40
1.0
  9
$DIMASZ
 40
3.0
  9
$DIMEXO
 40
0.0625
  9
$DIMDLI
 40
0.38
  9
$DIMRND
 40
0.0
  9
$DIMDLE
 40
0.0
  9
$DIMEXE
 40
1.5
  9
$DIMTP
 40
0.0
  9
$DIMTM
 40
0.0
  9
$DIMTXT
 40
3.0
  9
$DIMCEN
 40
0.09
  9
$DIMTSZ
 40
0.0
  9
$DIMTOL
 70
     0
  9
$DIMLIM
 70
     0
  9
$DIMTIH
 70
     1
  9
$DIMTOH
 70
     1
  9
$DIMSE1
 70
     0
  9
$DIMSE2
 70
     0
  9
$DIMTAD
 70
     1
  9
$DIMZIN
 70
     0
  9
$DIMBLK
  1

  9
$DIMASO
 70
     1
  9
$DIMSHO
 70
     1
  9
$DIMPOST
  1

  9
$DIMAPOST
  1

  9
$DIMALT
 70
     0
  9
$DIMALTD
 70
     2
  9
$DIMALTF
 40
25.4
  9
$DIMLFAC
 40
1.0
  9
$DIMTOFL
 70
     0
  9
$DIMTVP
 40
0.0
  9
$DIMTIX
 70
     0
  9
$DIMSOXD
 70
     0
  9
$DIMSAH
 70
     0
  9
$DIMBLK1
  1

  9
$DIMBLK2
  1

  9
$LUNITS
 70
     2
  9
$LUPREC
 70
     4
  9
$SKETCHINC
 40
0.1
  9
$FILLETRAD
 40
0.5
  9
$AUNITS
 70
     0
  9
$AUPREC
 70
     0
  9
$MENU
  1
.
  9
$ELEVATION
 40
0.0
  9
$THICKNESS
 40
0.0
  9
$LIMCHECK
 70
     0
  9
$CHAMFERA
 40
0.0
  9
$CHAMFERB
 40
0.0
  9
$SKPOLY
 70
     0
  9
$TDCREATE
 40
2459422.333292604
  9
$TDUPDATE
 40
2459422.333292789
  9
$TDINDWG
 40
0.0000000116
  9
$TDUSRTIMER
 40
0.0000000116
  9
$USRTIMER
 70
     1
  9
$ANGBASE
 50
0.0
  9
$ANGDIR
 70
     0
  9
$PDMODE
 70
     0
  9
$PDSIZE
 40
0.0
  9
$PLINEWID
 40
0.0
  9
$COORDS
 70
     1
  9
$SPLFRAME
 70
     0
  9
$SPLINETYPE
 70
     6
  9
$SPLINESEGS
 70
     8
  9
$ATTDIA
 70
     0
  9
$ATTREQ
 70
     1
  9
$HANDLING
 70
     1
  9
$HANDSEED
  5
B0
  9
$SURFTAB1
 70
     6
  9
$SURFTAB2
 70
     6
  9
$SURFTYPE
 70
     6
  9
$SURFU
 70
     6
  9
$SURFV
 70
     6
  9
$UCSNAME
  2

  9
$UCSORG
 10
0.0
 20
0.0
 30
0.0
  9
$UCSXDIR
 10
1.0
 20
0.0
 30
0.0
  9
$UCSYDIR
 10
0.0
 20
1.0
 30
0.0
  9
$USERI1
 70
     0
  9
$USERI2
 70
     0
  9
$USERI3
 70
     0
  9
$USERI4
 70
     0
  9
$USERI5
 70
     0
  9
$USERR1
 40
0.0
  9
$USERR2
 40
0.0
  9
$USERR3
 40
0.0
  9
$USERR4
 40
0.0
  9
$USERR5
 40
0.0
  9
$WORLDVIEW
 70
     1
  0
ENDSEC
  0
SECTION
  2
TABLES
  0
TABLE
  2
VPORT
 70
     1
  0
VPORT
  2
*ACTIVE
 70
     0
 10
0.0
 20
0.0
 11
1.0
 21
1.0
 12
-354.35
 22
416.5204545454545
 13
0.0
 23
0.0
 14
0.5
 24
0.5
 15
0.5
 25
0.5
 16
0.0
 26
0.0
 36
1.0
 17
0.0
 27
0.0
 37
0.0
 40
96.15909090909093
 41
1.6
 42
50.0
 43
0.0
 44
0.0
 50
0.0
 51
0.0
 71
     0
 72
   100
 73
     1
 74
     3
 75
     0
 76
     0
 77
     0
 78
     0
  0
ENDTAB
  0
TABLE
  2
LTYPE
 70
     1
  0
LTYPE
  2
CONTINUOUS
 70
     0
  3
Solid line
 72
    65
 73
     0
 40
0.0
  0
ENDTAB
  0
TABLE
  2
LAYER
 70
     2
  0
LAYER
  2
0
 70
     0
 62
     7
  6
CONTINUOUS
  0
LAYER
  2
1
 70
     0
 62
     7
  6
CONTINUOUS
  0
ENDTAB
  0
TABLE
  2
STYLE
 70
     2
  0
STYLE
  2
STANDARD
 70
     0
 40
0.0
 41
1.0
 50
0.0
 71
     0
 42
0.2
  3
txt
  4

  0
STYLE
  2
ＭＳ_ゴシック
 70
     0
 40
0.0
 41
1.0
 50
0.0
 71
     0
 42
0.2
  3
ＭＳ ゴシック.shx
  4

  0
ENDTAB
  0
TABLE
  2
VIEW
 70
     0
  0
ENDTAB
  0
TABLE
  2
UCS
 70
     0
  0
ENDTAB
  0
ENDSEC
  0
SECTION
  2
BLOCKS
  0
BLOCK
  8
0
  2
D_FRAME_VIEW_3278
 70
     0
 10
0.0
 20
0.0
 30
0.0
  0
LINE
  5
71
  8
1
  6
CONTINUOUS
 62
     7
 10
-340.85
 20
419.0
 30
0.0
 11
-354.35
 21
419.0
 31
0.0
  0
LINE
  5
72
  8
1
  6
CONTINUOUS
 62
     7
 10
-354.35
 20
422.1999999999999
 30
0.0
 11
-354.35
 21
419.0
 31
0.0
  0
LINE
  5
73
  8
1
  6
CONTINUOUS
 62
     7
 10
-354.35
 20
423.0
 30
0.0
 11
-341.65
 21
423.0
 31
0.0
  0
LINE
  5
74
  8
1
  6
CONTINUOUS
 62
     7
 10
-354.35
 20
422.1999999999999
 30
0.0
 11
-354.35
 21
423.0
 31
0.0
  0
LINE
  5
75
  8
1
  6
CONTINUOUS
 62
     7
 10
-354.35
 20
419.0
 30
0.0
 11
-354.35
 21
389.491667823833
 31
0.0
  0
LINE
  5
76
  8
1
  6
CONTINUOUS
 62
     7
 10
-344.3417361062893
 20
389.0
 30
0.0
 11
-354.35
 21
389.0
 31
0.0
  0
LINE
  5
77
  8
1
  6
CONTINUOUS
 62
     7
 10
-354.35
 20
389.0
 30
0.0
 11
-354.35
 21
389.491667823833
 31
0.0
  0
LINE
  5
78
  8
1
  6
CONTINUOUS
 62
     7
 10
-367.05
 20
423.0
 30
0.0
 11
-354.35
 21
423.0
 31
0.0
  0
LINE
  5
79
  8
1
  6
CONTINUOUS
 62
     7
 10
-354.35
 20
423.0
 30
0.0
 11
-354.35
 21
422.1999999999999
 31
0.0
  0
LINE
  5
7A
  8
1
  6
CONTINUOUS
 62
     7
 10
-354.35
 20
419.0
 30
0.0
 11
-367.85
 21
419.0
 31
0.0
  0
LINE
  5
7B
  8
1
  6
CONTINUOUS
 62
     7
 10
-354.35
 20
422.1999999999999
 30
0.0
 11
-354.35
 21
419.0
 31
0.0
  0
LINE
  5
7C
  8
1
  6
CONTINUOUS
 62
     7
 10
-354.35
 20
419.0
 30
0.0
 11
-354.35
 21
389.491667823833
 31
0.0
  0
LINE
  5
7D
  8
1
  6
CONTINUOUS
 62
     7
 10
-354.35
 20
389.0
 30
0.0
 11
-364.3582638937107
 21
389.0
 31
0.0
  0
LINE
  5
7E
  8
1
  6
CONTINUOUS
 62
     7
 10
-354.35
 20
389.491667823833
 30
0.0
 11
-354.35
 21
389.0
 31
0.0
  0
LINE
  5
7F
  8
1
  6
CONTINUOUS
 62
     7
 10
-340.85
 20
419.0
 30
0.0
 11
-340.85
 21
422.2
 31
0.0
  0
ARC
  5
80
  8
1
  6
CONTINUOUS
 62
     7
 10
-341.65
 20
422.2
 30
0.0
 40
0.8000000000000229
 50
0.0000000000000035
 51
90.0
  0
LINE
  5
81
  8
1
  6
CONTINUOUS
 62
     7
 10
-343.8418055362695
 20
389.491667823833
 30
0.0
 11
-343.35
 21
419.0
 31
0.0
  0
ARC
  5
82
  8
1
  6
CONTINUOUS
 62
     7
 10
-344.3417361062893
 20
389.4999999999999
 30
0.0
 40
0.4999999999999449
 50
270.0
 51
359.0451587461278
  0
ARC
  5
83
  8
1
  6
CONTINUOUS
 62
     7
 10
-367.05
 20
422.1999999999999
 30
0.0
 40
0.8000000000000229
 50
90.00000000000001
 51
180.0
  0
LINE
  5
84
  8
1
  6
CONTINUOUS
 62
     7
 10
-367.85
 20
422.1999999999999
 30
0.0
 11
-367.85
 21
419.0
 31
0.0
  0
LINE
  5
85
  8
1
  6
CONTINUOUS
 62
     7
 10
-365.35
 20
419.0
 30
0.0
 11
-364.8581944637305
 21
389.491667823833
 31
0.0
  0
ARC
  5
86
  8
1
  6
CONTINUOUS
 62
     7
 10
-364.3582638937107
 20
389.4999999999999
 30
0.0
 40
0.4999999999999905
 50
180.9548412538723
 51
270.0
  0
ENDBLK
  8
0
  0
BLOCK
  8
0
  2
D_FRAME_VIEW_3081
 70
     0
 10
0.0
 20
0.0
 30
0.0
  0
ARC
  5
8B
  8
1
  6
CONTINUOUS
 62
     7
 10
-354.35
 20
451.1
 30
0.0
 40
8.7
 50
0.000000000000007
 51
90.0
  0
LINE
  5
8C
  8
1
  6
CONTINUOUS
 62
     7
 10
-354.35
 20
441.8
 30
0.0
 11
-354.35
 21
442.4
 31
0.0
  0
ARC
  5
8D
  8
1
  6
CONTINUOUS
 62
     7
 10
-354.35
 20
451.1
 30
0.0
 40
8.7
 50
270.0
 51
0.0
  0
LINE
  5
8E
  8
1
  6
CONTINUOUS
 62
     7
 10
-354.35
 20
459.8
 30
0.0
 11
-354.35
 21
460.4
 31
0.0
  0
ARC
  5
8F
  8
1
  6
CONTINUOUS
 62
     7
 10
-354.35
 20
451.1
 30
0.0
 40
13.5
 50
270.0
 51
90.0
  0
LINE
  5
90
  8
1
  6
CONTINUOUS
 62
     7
 10
-354.35
 20
437.6
 30
0.0
 11
-354.35
 21
438.4
 31
0.0
  0
LINE
  5
91
  8
1
  6
CONTINUOUS
 62
     7
 10
-354.35
 20
463.8
 30
0.0
 11
-354.35
 21
464.6
 31
0.0
  0
LINE
  5
92
  8
1
  6
CONTINUOUS
 62
     7
 10
-354.35
 20
441.8
 30
0.0
 11
-354.35
 21
438.4
 31
0.0
  0
LINE
  5
93
  8
1
  6
CONTINUOUS
 62
     7
 10
-354.35
 20
460.4
 30
0.0
 11
-354.35
 21
463.8
 31
0.0
  0
LINE
  5
94
  8
1
  6
CONTINUOUS
 62
     7
 10
-354.35
 20
443.675
 30
0.0
 11
-354.35
 21
442.4
 31
0.0
  0
LINE
  5
95
  8
1
  6
CONTINUOUS
 62
     7
 10
-354.35
 20
459.8
 30
0.0
 11
-354.35
 21
458.525
 31
0.0
  0
ARC
  5
96
  8
1
  6
CONTINUOUS
 62
     7
 10
-354.35
 20
451.1
 30
0.0
 40
8.7
 50
180.0
 51
270.0
  0
LINE
  5
97
  8
1
  6
CONTINUOUS
 62
     7
 10
-354.35
 20
460.4
 30
0.0
 11
-354.35
 21
459.8
 31
0.0
  0
ARC
  5
98
  8
1
  6
CONTINUOUS
 62
     7
 10
-354.35
 20
451.1
 30
0.0
 40
8.7
 50
90.0
 51
180.0
  0
LINE
  5
99
  8
1
  6
CONTINUOUS
 62
     7
 10
-354.35
 20
442.4
 30
0.0
 11
-354.35
 21
441.8
 31
0.0
  0
ARC
  5
9A
  8
1
  6
CONTINUOUS
 62
     7
 10
-354.35
 20
451.1
 30
0.0
 40
13.5
 50
90.0
 51
270.0
  0
LINE
  5
9B
  8
1
  6
CONTINUOUS
 62
     7
 10
-354.35
 20
464.6
 30
0.0
 11
-354.35
 21
463.8
 31
0.0
  0
LINE
  5
9C
  8
1
  6
CONTINUOUS
 62
     7
 10
-354.35
 20
438.4
 30
0.0
 11
-354.35
 21
437.6
 31
0.0
  0
LINE
  5
9D
  8
1
  6
CONTINUOUS
 62
     7
 10
-354.35
 20
460.4
 30
0.0
 11
-354.35
 21
463.8
 31
0.0
  0
LINE
  5
9E
  8
1
  6
CONTINUOUS
 62
     7
 10
-354.35
 20
441.8
 30
0.0
 11
-354.35
 21
438.4
 31
0.0
  0
LINE
  5
9F
  8
1
  6
CONTINUOUS
 62
     7
 10
-354.35
 20
458.525
 30
0.0
 11
-354.35
 21
459.8
 31
0.0
  0
LINE
  5
A0
  8
1
  6
CONTINUOUS
 62
     7
 10
-354.35
 20
442.4
 30
0.0
 11
-354.35
 21
443.675
 31
0.0
  0
LINE
  5
A1
  8
1
  6
CONTINUOUS
 62
     7
 10
-349.8158254548849
 20
443.675
 30
0.0
 11
-354.35
 21
443.675
 31
0.0
  0
LINE
  5
A2
  8
1
  6
CONTINUOUS
 62
     7
 10
-354.35
 20
458.525
 30
0.0
 11
-349.815893392624
 21
458.525
 31
0.0
  0
LINE
  5
A3
  8
1
  6
CONTINUOUS
 62
     7
 10
-358.8841745451151
 20
458.525
 30
0.0
 11
-354.35
 21
458.525
 31
0.0
  0
LINE
  5
A4
  8
1
  6
CONTINUOUS
 62
     7
 10
-354.35
 20
443.675
 30
0.0
 11
-358.8841066073759
 21
443.675
 31
0.0
  0
ENDBLK
  8
0
  0
ENDSEC
  0
SECTION
  2
ENTITIES
  0
INSERT
  5
87
  8
1
  6
CONTINUOUS
 62
     7
  2
D_FRAME_VIEW_3278
 10
0.0
 20
0.0
 30
0.0
  0
INSERT
  5
A5
  8
1
  6
CONTINUOUS
 62
     7
  2
D_FRAME_VIEW_3081
 10
0.0
 20
0.0
 30
0.0
  0
TEXT
  5
A6
  8
1
  6
CONTINUOUS
 62
     7
 10
-364.6652057021383
 20
367.7568400650243
 30
0.0
 40
6.0
  1
MTH-22
  0
ENDSEC
  0
EOF
