  0
SECTION
  2
HEADER
  9
$ACADVER
  1
AC1006
  9
$DWGCODEPAGE
  3
ansi_932
  9
$INSBASE
 10
0.0
 20
0.0
 30
0.0
  9
$EXTMIN
 10
522.9999999999999
 20
-20.0
  9
$EXTMAX
 10
672.1499999999999
 20
291.9999999999999
  9
$LIMMIN
 10
0.0
 20
0.0
  9
$LIMMAX
 10
12.0
 20
9.0
  9
$ORTHOMODE
 70
     0
  9
$REGENMODE
 70
     1
  9
$FILLMODE
 70
     1
  9
$QTEXTMODE
 70
     0
  9
$MIRRTEXT
 70
     1
  9
$DRAGMODE
 70
     2
  9
$LTSCALE
 40
1.0
  9
$OSMODE
 70
    37
  9
$ATTMODE
 70
     1
  9
$TEXTSIZE
 40
0.2
  9
$TRACEWID
 40
0.05
  9
$TEXTSTYLE
  7
STANDARD
  9
$CLAYER
  8
0
  9
$CELTYPE
  6
BYLAYER
  9
$CECOLOR
 62
   256
  9
$DIMSCALE
 40
1.0
  9
$DIMASZ
 40
3.0
  9
$DIMEXO
 40
0.0625
  9
$DIMDLI
 40
0.38
  9
$DIMRND
 40
0.0
  9
$DIMDLE
 40
0.0
  9
$DIMEXE
 40
1.5
  9
$DIMTP
 40
0.0
  9
$DIMTM
 40
0.0
  9
$DIMTXT
 40
3.0
  9
$DIMCEN
 40
0.09
  9
$DIMTSZ
 40
0.0
  9
$DIMTOL
 70
     0
  9
$DIMLIM
 70
     0
  9
$DIMTIH
 70
     1
  9
$DIMTOH
 70
     1
  9
$DIMSE1
 70
     0
  9
$DIMSE2
 70
     0
  9
$DIMTAD
 70
     1
  9
$DIMZIN
 70
     0
  9
$DIMBLK
  1

  9
$DIMASO
 70
     1
  9
$DIMSHO
 70
     1
  9
$DIMPOST
  1

  9
$DIMAPOST
  1

  9
$DIMALT
 70
     0
  9
$DIMALTD
 70
     2
  9
$DIMALTF
 40
25.4
  9
$DIMLFAC
 40
1.0
  9
$DIMTOFL
 70
     0
  9
$DIMTVP
 40
0.0
  9
$DIMTIX
 70
     0
  9
$DIMSOXD
 70
     0
  9
$DIMSAH
 70
     0
  9
$DIMBLK1
  1

  9
$DIMBLK2
  1

  9
$LUNITS
 70
     2
  9
$LUPREC
 70
     4
  9
$SKETCHINC
 40
0.1
  9
$FILLETRAD
 40
0.5
  9
$AUNITS
 70
     0
  9
$AUPREC
 70
     0
  9
$MENU
  1
.
  9
$ELEVATION
 40
0.0
  9
$THICKNESS
 40
0.0
  9
$LIMCHECK
 70
     0
  9
$CHAMFERA
 40
0.0
  9
$CHAMFERB
 40
0.0
  9
$SKPOLY
 70
     0
  9
$TDCREATE
 40
2460613.797706736
  9
$TDUPDATE
 40
2460613.79770706
  9
$TDINDWG
 40
0.0000000116
  9
$TDUSRTIMER
 40
0.0000000116
  9
$USRTIMER
 70
     1
  9
$ANGBASE
 50
0.0
  9
$ANGDIR
 70
     0
  9
$PDMODE
 70
     0
  9
$PDSIZE
 40
0.0
  9
$PLINEWID
 40
0.0
  9
$COORDS
 70
     1
  9
$SPLFRAME
 70
     0
  9
$SPLINETYPE
 70
     6
  9
$SPLINESEGS
 70
     8
  9
$ATTDIA
 70
     0
  9
$ATTREQ
 70
     1
  9
$HANDLING
 70
     1
  9
$HANDSEED
  5
3D1
  9
$SURFTAB1
 70
     6
  9
$SURFTAB2
 70
     6
  9
$SURFTYPE
 70
     6
  9
$SURFU
 70
     6
  9
$SURFV
 70
     6
  9
$UCSNAME
  2

  9
$UCSORG
 10
0.0
 20
0.0
 30
0.0
  9
$UCSXDIR
 10
1.0
 20
0.0
 30
0.0
  9
$UCSYDIR
 10
0.0
 20
1.0
 30
0.0
  9
$USERI1
 70
     0
  9
$USERI2
 70
     0
  9
$USERI3
 70
     0
  9
$USERI4
 70
     0
  9
$USERI5
 70
     0
  9
$USERR1
 40
0.0
  9
$USERR2
 40
0.0
  9
$USERR3
 40
0.0
  9
$USERR4
 40
0.0
  9
$USERR5
 40
0.0
  9
$WORLDVIEW
 70
     1
  0
ENDSEC
  0
SECTION
  2
TABLES
  0
TABLE
  2
VPORT
 70
     1
  0
VPORT
  2
*ACTIVE
 70
     0
 10
0.0
 20
0.0
 11
1.0
 21
1.0
 12
597.5749999999998
 22
135.9999999999999
 13
0.0
 23
0.0
 14
0.5
 24
0.5
 15
0.5
 25
0.5
 16
0.0
 26
0.0
 36
1.0
 17
0.0
 27
0.0
 37
0.0
 40
311.9999999999999
 41
1.6
 42
50.0
 43
0.0
 44
0.0
 50
0.0
 51
0.0
 71
     0
 72
   100
 73
     1
 74
     3
 75
     0
 76
     0
 77
     0
 78
     0
  0
ENDTAB
  0
TABLE
  2
LTYPE
 70
     3
  0
LTYPE
  2
CONTINUOUS
 70
     0
  3
Solid line
 72
    65
 73
     0
 40
0.0
  0
LTYPE
  2
________________
 70
     0
  3

 72
    65
 73
     4
 40
6.0
 49
4.000000000000001
 49
-0.6666666666666665
 49
0.6666666666666665
 49
-0.6666666666666665
  0
LTYPE
  2
CENTER
 70
     0
  3

 72
    65
 73
     0
 40
0.0
  0
ENDTAB
  0
TABLE
  2
LAYER
 70
     3
  0
LAYER
  2
0
 70
     0
 62
     7
  6
CONTINUOUS
  0
LAYER
  2
1
 70
     0
 62
     7
  6
CONTINUOUS
  0
LAYER
  2
2
 70
     0
 62
     7
  6
CONTINUOUS
  0
ENDTAB
  0
TABLE
  2
STYLE
 70
     2
  0
STYLE
  2
STANDARD
 70
     0
 40
0.0
 41
1.0
 50
0.0
 71
     0
 42
0.2
  3
txt
  4

  0
STYLE
  2
ＭＳ_ゴシック
 70
     0
 40
0.0
 41
1.0
 50
0.0
 71
     0
 42
0.2
  3
ＭＳ ゴシック.shx
  4

  0
ENDTAB
  0
TABLE
  2
VIEW
 70
     0
  0
ENDTAB
  0
TABLE
  2
UCS
 70
     0
  0
ENDTAB
  0
ENDSEC
  0
SECTION
  2
BLOCKS
  0
ENDSEC
  0
SECTION
  2
ENTITIES
  0
ARC
  5
71
  8
1
  6
CONTINUOUS
 62
     7
 10
579.0
 20
283.9999999999998
 30
0.0
 40
8.000000000000007
 50
359.9999999999998
 51
90.0
  0
ARC
  5
72
  8
1
  6
CONTINUOUS
 62
     7
 10
546.0
 20
192.15
 30
0.0
 40
4.199999999999982
 50
0.0
 51
84.44035130152378
  0
ARC
  5
73
  8
1
  6
CONTINUOUS
 62
     7
 10
546.0
 20
192.15
 30
0.0
 40
2.249999999999863
 50
346.7683351757007
 51
13.23166482429929
  0
LINE
  5
74
  8
1
  6
CONTINUOUS
 62
     7
 10
543.8097317515884
 20
191.635
 30
0.0
 11
545.485
 21
191.635
 31
0.0
  0
LINE
  5
75
  8
1
  6
CONTINUOUS
 62
     7
 10
563.485
 20
277.335
 30
0.0
 11
563.485
 21
275.6597317515884
 31
0.0
  0
ARC
  5
76
  8
1
  6
CONTINUOUS
 62
     7
 10
554.9999999999999
 20
193.25
 30
0.0
 40
2.250000000000085
 50
76.76833517570076
 51
103.2316648242992
  0
ARC
  5
77
  8
1
  6
CONTINUOUS
 62
     7
 10
564.0
 20
277.85
 30
0.0
 40
1.030668528585243
 50
330.0214543835138
 51
29.97854561648614
  0
LINE
  5
78
  8
1
  6
CONTINUOUS
 62
     7
 10
557.1902682484116
 20
193.765
 30
0.0
 11
555.515
 21
193.765
 31
0.0
  0
LINE
  5
79
  8
1
  6
CONTINUOUS
 62
     7
 10
563.485
 20
278.365
 30
0.0
 11
561.8097317515884
 21
278.365
 31
0.0
  0
ARC
  5
7A
  8
1
  6
CONTINUOUS
 62
     7
 10
564.0
 20
277.85
 30
0.0
 40
4.199999999999982
 50
180.0
 51
264.4403513015241
  0
ARC
  5
7B
  8
1
  6
CONTINUOUS
 62
     7
 10
564.0
 20
277.85
 30
0.0
 40
4.199999999999982
 50
109.4961621812334
 51
180.0
  0
LINE
  5
7C
  8
1
  6
CONTINUOUS
 62
     7
 10
555.515
 20
193.765
 30
0.0
 11
555.515
 21
195.4402682484116
 31
0.0
  0
ARC
  5
7D
  8
1
  6
CONTINUOUS
 62
     7
 10
546.0
 20
192.15
 30
0.0
 40
2.249999999999863
 50
256.7683351757008
 51
283.2316648242992
  0
ARC
  5
7E
  8
1
  6
CONTINUOUS
 62
     7
 10
564.0
 20
277.85
 30
0.0
 40
2.249999999999863
 50
76.76833517570076
 51
103.2316648242992
  0
ARC
  5
7F
  8
1
  6
CONTINUOUS
 62
     7
 10
564.0
 20
277.85
 30
0.0
 40
1.030668528585243
 50
240.0214543835139
 51
299.9785456164861
  0
LINE
  5
80
  8
1
  6
CONTINUOUS
 62
     7
 10
529.5696479684473
 20
208.0
 30
0.0
 11
529.5
 21
208.0
 31
0.0
  0
ARC
  5
81
  8
1
  6
CONTINUOUS
 62
     7
 10
554.9999999999999
 20
193.25
 30
0.0
 40
2.250000000000085
 50
256.7683351757008
 51
283.2316648242992
  0
LINE
  5
82
  8
1
  6
CONTINUOUS
 62
     7
 10
578.0000000000001
 20
266.5999999999999
 30
0.0
 11
532.0000000000002
 21
266.5999999999999
 31
0.0
  0
LINE
  5
83
  8
1
  6
CONTINUOUS
 62
     7
 10
545.5025903371425
 20
196.2197154233799
 30
0.0
 11
553.5982763846858
 21
197.2091881625241
 31
0.0
  0
ARC
  5
84
  8
1
  6
CONTINUOUS
 62
     7
 10
546.0
 20
192.15
 30
0.0
 40
1.030668528585243
 50
150.0214543835138
 51
209.9785456164862
  0
LINE
  5
85
  8
1
  6
CONTINUOUS
 62
     7
 10
580.2766690843553
 20
262.0
 30
0.0
 11
580.4303520315527
 21
262.0
 31
0.0
  0
ARC
  5
86
  8
1
  6
CONTINUOUS
 62
     7
 10
546.0
 20
192.15
 30
0.0
 40
1.030668528585243
 50
240.0214543835139
 51
299.9785456164861
  0
LINE
  5
87
  8
1
  6
CONTINUOUS
 62
     7
 10
546.5149999999999
 20
189.9597317515884
 30
0.0
 11
546.5149999999999
 21
191.635
 31
0.0
  0
LINE
  5
88
  8
1
  6
CONTINUOUS
 62
     7
 10
530.9999999999999
 20
177.9999999999999
 30
0.0
 11
578.9999999999998
 21
177.9999999999999
 31
0.0
  0
LINE
  5
89
  8
1
  6
CONTINUOUS
 62
     7
 10
552.8097317515883
 20
192.735
 30
0.0
 11
554.4849999999999
 21
192.735
 31
0.0
  0
ARC
  5
8A
  8
1
  6
CONTINUOUS
 62
     7
 10
554.9999999999999
 20
276.75
 30
0.0
 40
1.030668528585466
 50
60.0214543835139
 51
119.9785456164861
  0
ARC
  5
8B
  8
1
  6
CONTINUOUS
 62
     7
 10
526.0
 20
256.5
 30
0.0
 40
0.9999999999998899
 50
270.0
 51
0.0
  0
LINE
  5
8C
  8
1
  6
CONTINUOUS
 62
     7
 10
545.485
 20
191.635
 30
0.0
 11
545.485
 21
189.9597317515884
 31
0.0
  0
LINE
  5
8D
  8
1
  6
CONTINUOUS
 62
     7
 10
546.5149999999999
 20
191.635
 30
0.0
 11
548.1902682484114
 21
191.635
 31
0.0
  0
ARC
  5
8E
  8
1
  6
CONTINUOUS
 62
     7
 10
530.9999999999999
 20
185.9999999999999
 30
0.0
 40
8.000000000000007
 50
179.9999999999999
 51
270.0000000000001
  0
ARC
  5
8F
  8
1
  6
CONTINUOUS
 62
     7
 10
546.0
 20
192.15
 30
0.0
 40
4.199999999999982
 50
289.4961621812339
 51
0.0
  0
LINE
  5
90
  8
1
  6
CONTINUOUS
 62
     7
 10
579.0
 20
291.9999999999998
 30
0.0
 11
530.9999999999999
 21
291.9999999999998
 31
0.0
  0
LINE
  5
91
  8
1
  6
CONTINUOUS
 62
     7
 10
554.4849999999999
 20
193.765
 30
0.0
 11
552.8097317515883
 21
193.765
 31
0.0
  0
LINE
  5
92
  8
1
  6
CONTINUOUS
 62
     7
 10
530.9999999999999
 20
230.1999999999999
 30
0.0
 11
527.9999999999999
 21
230.1999999999999
 31
0.0
  0
ARC
  5
93
  8
1
  6
CONTINUOUS
 62
     7
 10
554.9999999999999
 20
276.75
 30
0.0
 40
2.250000000000085
 50
76.76833517570076
 51
103.2316648242992
  0
ARC
  5
94
  8
1
  6
CONTINUOUS
 62
     7
 10
564.0
 20
277.85
 30
0.0
 40
2.249999999999863
 50
256.7683351757008
 51
283.2316648242992
  0
CIRCLE
  5
95
  8
1
  6
CONTINUOUS
 62
     7
 10
554.9999999999999
 20
193.25
 30
0.0
 40
4.199999999999982
  0
ARC
  5
96
  8
1
  6
CONTINUOUS
 62
     7
 10
564.0
 20
277.85
 30
0.0
 40
2.249999999999863
 50
166.7683351757007
 51
193.2316648242993
  0
LINE
  5
97
  8
1
  6
CONTINUOUS
 62
     7
 10
582.0000000000001
 20
239.7999999999999
 30
0.0
 11
582.0000000000001
 21
240.0
 31
0.0
  0
ARC
  5
98
  8
1
  6
CONTINUOUS
 62
     7
 10
554.9999999999999
 20
193.25
 30
0.0
 40
1.030668528585466
 50
240.0214543835139
 51
299.9785456164861
  0
LINE
  5
99
  8
1
  6
CONTINUOUS
 62
     7
 10
554.4849999999999
 20
195.4402682484116
 30
0.0
 11
554.4849999999999
 21
193.765
 31
0.0
  0
LINE
  5
9A
  8
1
  6
CONTINUOUS
 62
     7
 10
522.9999999999999
 20
283.9999999999998
 30
0.0
 11
522.9999999999999
 21
185.9999999999999
 31
0.0
  0
LINE
  5
9B
  8
1
  6
CONTINUOUS
 62
     7
 10
546.5149999999999
 20
192.665
 30
0.0
 11
546.5149999999999
 21
194.3402682484116
 31
0.0
  0
LINE
  5
9C
  8
1
  6
CONTINUOUS
 62
     7
 10
563.485
 20
280.0402682484116
 30
0.0
 11
563.485
 21
278.365
 31
0.0
  0
LINE
  5
9D
  8
1
  6
CONTINUOUS
 62
     7
 10
555.515
 20
274.5597317515884
 30
0.0
 11
555.515
 21
276.235
 31
0.0
  0
ARC
  5
9E
  8
1
  6
CONTINUOUS
 62
     7
 10
530.9999999999999
 20
283.9999999999998
 30
0.0
 40
8.000000000000007
 50
90.0
 51
180.0
  0
LINE
  5
9F
  8
1
  6
CONTINUOUS
 62
     7
 10
554.4849999999999
 20
192.735
 30
0.0
 11
554.4849999999999
 21
191.0597317515884
 31
0.0
  0
ARC
  5
A0
  8
1
  6
CONTINUOUS
 62
     7
 10
546.0
 20
192.15
 30
0.0
 40
1.030668528585243
 50
60.02145438351391
 51
119.9785456164861
  0
ARC
  5
A1
  8
1
  6
CONTINUOUS
 62
     7
 10
579.0
 20
185.9999999999999
 30
0.0
 40
8.000000000000007
 50
269.9999999999999
 51
0.0
  0
LINE
  5
A2
  8
1
  6
CONTINUOUS
 62
     7
 10
564.5149999999999
 20
275.6597317515884
 30
0.0
 11
564.5149999999999
 21
277.335
 31
0.0
  0
LINE
  5
A3
  8
1
  6
CONTINUOUS
 62
     7
 10
545.485
 20
194.3402682484116
 30
0.0
 11
545.485
 21
192.665
 31
0.0
  0
ARC
  5
A4
  8
1
  6
CONTINUOUS
 62
     7
 10
564.0
 20
277.85
 30
0.0
 40
1.030668528585243
 50
150.0214543835138
 51
209.9785456164862
  0
ARC
  5
A5
  8
1
  6
CONTINUOUS
 62
     7
 10
564.0
 20
277.85
 30
0.0
 40
1.030668528585243
 50
60.02145438351391
 51
119.9785456164861
  0
ARC
  5
A6
  8
1
  6
CONTINUOUS
 62
     7
 10
554.9999999999999
 20
193.25
 30
0.0
 40
1.030668528585466
 50
330.0214543835138
 51
29.97854561648614
  0
LINE
  5
A7
  8
1
  6
CONTINUOUS
 62
     7
 10
545.485
 20
192.665
 30
0.0
 11
543.8097317515884
 21
192.665
 31
0.0
  0
ARC
  5
A8
  8
1
  6
CONTINUOUS
 62
     7
 10
554.9999999999999
 20
276.75
 30
0.0
 40
2.250000000000085
 50
166.7683351757008
 51
193.2316648242993
  0
LINE
  5
A9
  8
1
  6
CONTINUOUS
 62
     7
 10
564.5149999999999
 20
277.335
 30
0.0
 11
566.1902682484115
 21
277.335
 31
0.0
  0
LINE
  5
AA
  8
1
  6
CONTINUOUS
 62
     7
 10
577.9999999999999
 20
203.3999999999999
 30
0.0
 11
580.5
 21
203.3999999999999
 31
0.0
  0
LINE
  5
AB
  8
1
  6
CONTINUOUS
 62
     7
 10
548.1902682484116
 20
192.665
 30
0.0
 11
546.5150000000001
 21
192.665
 31
0.0
  0
LINE
  5
AC
  8
1
  6
CONTINUOUS
 62
     7
 10
555.515
 20
192.735
 30
0.0
 11
557.1902682484116
 21
192.735
 31
0.0
  0
LINE
  5
AD
  8
1
  6
CONTINUOUS
 62
     7
 10
555.515
 20
191.0597317515884
 30
0.0
 11
555.515
 21
192.735
 31
0.0
  0
ARC
  5
AE
  8
1
  6
CONTINUOUS
 62
     7
 10
564.0
 20
277.85
 30
0.0
 40
2.249999999999863
 50
346.7683351757007
 51
13.23166482429929
  0
ARC
  5
AF
  8
1
  6
CONTINUOUS
 62
     7
 10
546.0
 20
192.15
 30
0.0
 40
2.249999999999863
 50
166.7683351757007
 51
193.2316648242993
  0
ARC
  5
B0
  8
1
  6
CONTINUOUS
 62
     7
 10
554.9999999999999
 20
193.25
 30
0.0
 40
2.250000000000085
 50
166.7683351757008
 51
193.2316648242993
  0
LINE
  5
B1
  8
1
  6
CONTINUOUS
 62
     7
 10
529.7233309156449
 20
208.0
 30
0.0
 11
529.5696479684473
 21
208.0
 31
0.0
  0
LINE
  5
B2
  8
1
  6
CONTINUOUS
 62
     7
 10
526.9999999999999
 20
213.5
 30
0.0
 11
526.9999999999999
 21
212.5
 31
0.0
  0
ARC
  5
B3
  8
1
  6
CONTINUOUS
 62
     7
 10
584.0000000000001
 20
213.5
 30
0.0
 40
0.9999999999998899
 50
90.0
 51
180.0
  0
ARC
  5
B4
  8
1
  6
CONTINUOUS
 62
     7
 10
554.9999999999999
 20
210.5
 30
0.0
 40
25.40000000000009
 50
180.0
 51
185.6484935169196
  0
ARC
  5
B5
  8
1
  6
CONTINUOUS
 62
     7
 10
526.0
 20
212.5
 30
0.0
 40
0.9999999999998899
 50
270.0
 51
0.0
  0
ARC
  5
B6
  8
1
  6
CONTINUOUS
 62
     7
 10
583.0
 20
201.0
 30
0.0
 40
2.000000000000002
 50
269.9999999999999
 51
0.0
  0
CIRCLE
  5
B7
  8
1
  6
CONTINUOUS
 62
     7
 10
554.9999999999999
 20
276.75
 30
0.0
 40
4.199999999999982
  0
ARC
  5
B8
  8
1
  6
CONTINUOUS
 62
     7
 10
554.9999999999999
 20
193.25
 30
0.0
 40
2.250000000000085
 50
346.7683351757009
 51
13.23166482429929
  0
ARC
  5
B9
  8
1
  6
CONTINUOUS
 62
     7
 10
526.0
 20
229.0
 30
0.0
 40
0.9999999999998899
 50
90.0
 51
180.0
  0
LINE
  5
BA
  8
1
  6
CONTINUOUS
 62
     7
 10
580.4126871547966
 20
208.0
 30
0.0
 11
580.2766690843554
 21
208.0
 31
0.0
  0
LINE
  5
BB
  8
1
  6
CONTINUOUS
 62
     7
 10
580.5
 20
200.204369859013
 30
0.0
 11
580.5
 21
208.0
 31
0.0
  0
LINE
  5
BC
  8
1
  6
CONTINUOUS
 62
     7
 10
580.4303520315526
 20
262.0
 30
0.0
 11
580.4999999999999
 21
262.0
 31
0.0
  0
LINE
  5
BD
  8
1
  6
CONTINUOUS
 62
     7
 10
524.9999999999999
 20
229.0
 30
0.0
 11
524.9999999999999
 21
214.5000000000001
 31
0.0
  0
ARC
  5
BE
  8
1
  6
CONTINUOUS
 62
     7
 10
554.9999999999999
 20
210.5
 30
0.0
 40
27.50000000000008
 50
338.0135970028062
 51
0.0
  0
ARC
  5
BF
  8
1
  6
CONTINUOUS
 62
     7
 10
554.9999999999999
 20
276.75
 30
0.0
 40
1.030668528585466
 50
240.0214543835139
 51
299.9785456164861
  0
ARC
  5
C0
  8
1
  6
CONTINUOUS
 62
     7
 10
546.0
 20
192.15
 30
0.0
 40
2.249999999999863
 50
76.76833517570076
 51
103.2316648242992
  0
ARC
  5
C1
  8
1
  6
CONTINUOUS
 62
     7
 10
554.9999999999999
 20
276.75
 30
0.0
 40
1.030668528585466
 50
330.0214543835139
 51
29.97854561648619
  0
LINE
  5
C2
  8
1
  6
CONTINUOUS
 62
     7
 10
527.5000000000001
 20
210.5
 30
0.0
 11
527.5000000000001
 21
230.0
 31
0.0
  0
LINE
  5
C3
  8
1
  6
CONTINUOUS
 62
     7
 10
580.5
 20
200.204369859013
 30
0.0
 11
580.5
 21
199.0
 31
0.0
  0
LINE
  5
C4
  8
1
  6
CONTINUOUS
 62
     7
 10
529.5000000000001
 20
262.0
 30
0.0
 11
529.5873128452035
 21
262.0
 31
0.0
  0
ARC
  5
C5
  8
1
  6
CONTINUOUS
 62
     7
 10
554.9999999999999
 20
210.5
 30
0.0
 40
27.50000000000008
 50
180.0
 51
201.9864029971938
  0
LINE
  5
C6
  8
1
  6
CONTINUOUS
 62
     7
 10
580.5
 20
208.0
 30
0.0
 11
580.4126871547966
 21
208.0
 31
0.0
  0
LINE
  5
C7
  8
1
  6
CONTINUOUS
 62
     7
 10
583.0
 20
213.5
 30
0.0
 11
583.0
 21
212.5
 31
0.0
  0
LINE
  5
C8
  8
1
  6
CONTINUOUS
 62
     7
 10
524.9999999999999
 20
211.5
 30
0.0
 11
524.9999999999999
 21
201.0
 31
0.0
  0
ARC
  5
C9
  8
1
  6
CONTINUOUS
 62
     7
 10
554.9999999999999
 20
276.75
 30
0.0
 40
2.250000000000085
 50
346.7683351757009
 51
13.23166482429929
  0
LINE
  5
CA
  8
1
  6
CONTINUOUS
 62
     7
 10
585.0
 20
229.0
 30
0.0
 11
585.0
 21
214.5000000000001
 31
0.0
  0
ARC
  5
CB
  8
1
  6
CONTINUOUS
 62
     7
 10
546.0
 20
192.15
 30
0.0
 40
1.030668528585243
 50
330.0214543835138
 51
29.97854561648614
  0
LINE
  5
CC
  8
1
  6
CONTINUOUS
 62
     7
 10
554.4849999999999
 20
276.2350000000001
 30
0.0
 11
554.4849999999999
 21
274.5597317515884
 31
0.0
  0
ARC
  5
CD
  8
1
  6
CONTINUOUS
 62
     7
 10
554.9999999999999
 20
259.5
 30
0.0
 40
25.40000000000009
 50
174.3515064830804
 51
180.0
  0
LINE
  5
CE
  8
1
  6
CONTINUOUS
 62
     7
 10
555.515
 20
276.2350000000001
 30
0.0
 11
557.1902682484116
 21
276.2350000000001
 31
0.0
  0
LINE
  5
CF
  8
1
  6
CONTINUOUS
 62
     7
 10
529.5000000000001
 20
200.204369859013
 30
0.0
 11
529.5000000000001
 21
199.0
 31
0.0
  0
ARC
  5
D0
  8
1
  6
CONTINUOUS
 62
     7
 10
554.9999999999999
 20
276.75
 30
0.0
 40
1.030668528585466
 50
150.0214543835138
 51
209.9785456164862
  0
LINE
  5
D1
  8
1
  6
CONTINUOUS
 62
     7
 10
584.0000000000001
 20
211.5
 30
0.0
 11
585.0000000000001
 21
211.5
 31
0.0
  0
LINE
  5
D2
  8
1
  6
CONTINUOUS
 62
     7
 10
529.5000000000001
 20
199.0
 30
0.0
 11
527.0000000000001
 21
199.0
 31
0.0
  0
LINE
  5
D3
  8
1
  6
CONTINUOUS
 62
     7
 10
582.5
 20
230.0
 30
0.0
 11
582.5
 21
210.5000000000001
 31
0.0
  0
ARC
  5
D4
  8
1
  6
CONTINUOUS
 62
     7
 10
526.0
 20
213.5
 30
0.0
 40
0.9999999999998899
 50
0.0
 51
90.0
  0
LINE
  5
D5
  8
1
  6
CONTINUOUS
 62
     7
 10
529.5000000000001
 20
269.795630140987
 30
0.0
 11
529.5000000000001
 21
262.0
 31
0.0
  0
ARC
  5
D6
  8
1
  6
CONTINUOUS
 62
     7
 10
554.9999999999999
 20
259.5
 30
0.0
 40
27.50000000000008
 50
0.0000000000000568
 51
21.98640299719386
  0
ARC
  5
D7
  8
1
  6
CONTINUOUS
 62
     7
 10
554.9999999999999
 20
193.25
 30
0.0
 40
1.030668528585466
 50
60.0214543835139
 51
119.9785456164861
  0
LINE
  5
D8
  8
1
  6
CONTINUOUS
 62
     7
 10
585.0
 20
214.5
 30
0.0
 11
584.0
 21
214.5
 31
0.0
  0
ARC
  5
D9
  8
1
  6
CONTINUOUS
 62
     7
 10
554.9999999999999
 20
276.75
 30
0.0
 40
2.250000000000085
 50
256.7683351757008
 51
283.2316648242992
  0
LINE
  5
DA
  8
1
  6
CONTINUOUS
 62
     7
 10
580.5
 20
262.0
 30
0.0
 11
580.5
 21
269.795630140987
 31
0.0
  0
LINE
  5
DB
  8
1
  6
CONTINUOUS
 62
     7
 10
564.5149999999999
 20
278.365
 30
0.0
 11
564.5149999999999
 21
280.0402682484116
 31
0.0
  0
LINE
  5
DC
  8
1
  6
CONTINUOUS
 62
     7
 10
529.5000000000001
 20
208.0
 30
0.0
 11
529.5000000000001
 21
200.204369859013
 31
0.0
  0
LINE
  5
DD
  8
1
  6
CONTINUOUS
 62
     7
 10
527.5000000000001
 20
230.0
 30
0.0
 11
526.0
 21
230.0
 31
0.0
  0
ARC
  5
DE
  8
1
  6
CONTINUOUS
 62
     7
 10
526.9999999999999
 20
201.0
 30
0.0
 40
2.000000000000002
 50
180.0
 51
270.0000000000001
  0
LINE
  5
DF
  8
1
  6
CONTINUOUS
 62
     7
 10
552.8097317515883
 20
276.2350000000001
 30
0.0
 11
554.4849999999999
 21
276.2350000000001
 31
0.0
  0
LINE
  5
E0
  8
1
  6
CONTINUOUS
 62
     7
 10
526.0
 20
211.5
 30
0.0
 11
525.0
 21
211.5
 31
0.0
  0
ARC
  5
E1
  8
1
  6
CONTINUOUS
 62
     7
 10
554.9999999999999
 20
259.5
 30
0.0
 40
25.40000000000009
 50
0.0000000000000157
 51
5.648493516919538
  0
LINE
  5
E2
  8
1
  6
CONTINUOUS
 62
     7
 10
554.4849999999999
 20
278.9402682484116
 30
0.0
 11
554.4849999999999
 21
277.265
 31
0.0
  0
LINE
  5
E3
  8
1
  6
CONTINUOUS
 62
     7
 10
529.5873128452035
 20
262.0
 30
0.0
 11
529.7233309156449
 21
262.0
 31
0.0
  0
ARC
  5
E4
  8
1
  6
CONTINUOUS
 62
     7
 10
554.9999999999999
 20
193.25
 30
0.0
 40
1.030668528585466
 50
150.0214543835138
 51
209.9785456164862
  0
LINE
  5
E5
  8
1
  6
CONTINUOUS
 62
     7
 10
566.1902682484117
 20
278.365
 30
0.0
 11
564.5150000000001
 21
278.365
 31
0.0
  0
ARC
  5
E6
  8
1
  6
CONTINUOUS
 62
     7
 10
584.0000000000001
 20
212.5
 30
0.0
 40
0.9999999999998899
 50
180.0
 51
270.0
  0
LINE
  5
E7
  8
1
  6
CONTINUOUS
 62
     7
 10
585.0
 20
211.5
 30
0.0
 11
585.0
 21
201.0
 31
0.0
  0
LINE
  5
E8
  8
1
  6
CONTINUOUS
 62
     7
 10
582.5
 20
230.0
 30
0.0
 11
584.0000000000001
 21
230.0
 31
0.0
  0
LINE
  5
E9
  8
1
  6
CONTINUOUS
 62
     7
 10
555.515
 20
277.265
 30
0.0
 11
555.515
 21
278.9402682484117
 31
0.0
  0
LINE
  5
EA
  8
1
  6
CONTINUOUS
 62
     7
 10
557.1902682484116
 20
277.265
 30
0.0
 11
555.515
 21
277.265
 31
0.0
  0
LINE
  5
EB
  8
1
  6
CONTINUOUS
 62
     7
 10
554.4849999999999
 20
277.265
 30
0.0
 11
552.8097317515883
 21
277.265
 31
0.0
  0
LINE
  5
EC
  8
1
  6
CONTINUOUS
 62
     7
 10
561.8097317515884
 20
277.335
 30
0.0
 11
563.485
 21
277.335
 31
0.0
  0
ARC
  5
ED
  8
1
  6
CONTINUOUS
 62
     7
 10
554.9999999999999
 20
210.5
 30
0.0
 40
25.40000000000009
 50
354.3515064830804
 51
0.0
  0
LINE
  5
EE
  8
1
  6
CONTINUOUS
 62
     7
 10
580.5
 20
199.0
 30
0.0
 11
583.0
 21
199.0
 31
0.0
  0
ARC
  5
EF
  8
1
  6
CONTINUOUS
 62
     7
 10
584.0000000000001
 20
229.0
 30
0.0
 40
0.9999999999998899
 50
0.0
 51
90.0
  0
LINE
  5
F0
  8
1
  6
CONTINUOUS
 62
     7
 10
524.9999999999999
 20
214.5
 30
0.0
 11
525.9999999999999
 21
214.5
 31
0.0
  0
ARC
  5
F1
  8
1
  6
CONTINUOUS
 62
     7
 10
554.9999999999999
 20
259.5
 30
0.0
 40
27.50000000000008
 50
158.0135970028061
 51
180.0
  0
LINE
  5
F2
  8
2
  6
CONTINUOUS
 62
     7
 10
548.0857864376001
 20
71.49999999999999
 30
0.0
 11
542.0597970996
 21
71.49999999999999
 31
0.0
  0
LINE
  5
F3
  8
2
  6
CONTINUOUS
 62
     7
 10
553.5645837401999
 20
81.11632969419999
 30
0.0
 11
553.5645837401999
 21
82.82389032619999
 31
0.0
  0
LINE
  5
F4
  8
2
  6
CONTINUOUS
 62
     7
 10
540.3182957449999
 20
74.01592280149995
 30
0.0
 11
540.2969948803999
 21
73.99999999999999
 31
0.0
  0
LINE
  5
F5
  8
2
  6
CONTINUOUS
 62
     7
 10
559.8177245123
 20
27.69873476279997
 30
0.0
 11
559.8621980551
 21
27.7051420852
 31
0.0
  0
ARC
  5
F6
  8
2
  6
CONTINUOUS
 62
     7
 10
548.0857864376001
 20
69.99999999999997
 30
0.0
 40
0.4999999999999449
 50
315.0
 51
90.0
  0
ARC
  5
F7
  8
2
  6
CONTINUOUS
 62
     7
 10
551.4999999999999
 20
68.58578643760002
 30
0.0
 40
0.500000000000167
 50
45.0
 51
180.0
  0
LINE
  5
F8
  8
2
  6
CONTINUOUS
 62
     7
 10
553.5645837401999
 20
59.17610967380002
 30
0.0
 11
553.5645837401999
 21
60.88367030580002
 31
0.0
  0
CIRCLE
  5
F9
  8
2
  6
CONTINUOUS
 62
     7
 10
550.5
 20
70.99999999999997
 30
0.0
 40
8.650000000000047
  0
LINE
  5
FA
  8
2
  6
________________
 62
     1
 10
550.5
 20
34.39048383349999
 30
0.0
 11
550.5
 21
26.39048383350004
 31
0.0
  0
LINE
  5
FC
  8
2
  6
CONTINUOUS
 62
     7
 10
560.6632730677
 20
67.97032638960002
 30
0.0
 11
560.6163296942
 21
67.93541625979995
 31
0.0
  0
ARC
  5
FD
  8
2
  6
CONTINUOUS
 62
     7
 10
550.5
 20
70.99999999999997
 30
0.0
 40
7.749999999999924
 50
183.6990710632
 51
221.3009289368
  0
LINE
  5
FE
  8
2
  6
CONTINUOUS
 62
     7
 10
544.1783219039
 20
76.61457131489999
 30
0.0
 11
548.4393398286
 21
72.35355339099998
 31
0.0
  0
LINE
  5
FF
  8
2
  6
CONTINUOUS
 62
     7
 10
659.7476196079999
 20
-14.96778991060002
 30
0.0
 11
660.1499999999999
 21
8.084567308700025
 31
0.0
  0
LINE
  5
100
  8
2
  6
CONTINUOUS
 62
     7
 10
547.4703263895999
 20
81.16327306770002
 30
0.0
 11
547.4354162597999
 21
81.1163296942
 31
0.0
  0
LINE
  5
101
  8
2
  6
CONTINUOUS
 62
     7
 10
547.2639384971001
 20
31.10022052820002
 30
0.0
 11
547.2854790134
 21
31.07904920480001
 31
0.0
  0
LINE
  5
102
  8
2
  6
CONTINUOUS
 62
     7
 10
550.0
 20
79.44020290039997
 30
0.0
 11
550.0
 21
73.4142135624
 31
0.0
  0
ARC
  5
103
  8
2
  6
CONTINUOUS
 62
     7
 10
552.9142135623999
 20
69.99999999999997
 30
0.0
 40
0.500000000000167
 50
90.0
 51
225.0
  0
LINE
  5
104
  8
2
  6
CONTINUOUS
 62
     7
 10
540.8115300412
 20
27.81469108380005
 30
0.0
 11
540.8516844869999
 21
27.79455187219995
 31
0.0
  0
LINE
  5
105
  8
2
  6
CONTINUOUS
 62
     7
 10
540.2969948803999
 20
67.99999999999997
 30
0.0
 11
540.3182957449999
 21
67.9840771985
 31
0.0
  0
LINE
  5
106
  8
2
  6
CONTINUOUS
 62
     7
 10
614.85
 20
10.08456730870003
 30
0.0
 11
614.85
 21
8.084567308700025
 31
0.0
  0
LINE
  5
107
  8
2
  6
CONTINUOUS
 62
     7
 10
553.6328154592001
 20
30.9779167299
 30
0.0
 11
553.6491106122002
 21
31.00138706620001
 31
0.0
  0
LINE
  5
108
  8
2
  6
CONTINUOUS
 62
     7
 10
540.3367269323
 20
74.0296736104
 30
0.0
 11
540.3836703058
 21
74.0645837402
 31
0.0
  0
LINE
  5
109
  8
2
  6
CONTINUOUS
 62
     7
 10
540.8516844869999
 20
27.79455187219995
 30
0.0
 11
540.8926207938999
 21
27.77615257000001
 31
0.0
  0
ARC
  5
10A
  8
2
  6
CONTINUOUS
 62
     7
 10
550.5
 20
70.99999999999997
 30
0.0
 40
7.749999999999924
 50
93.6990710632
 51
131.3009289368
  0
LINE
  5
10B
  8
2
  6
CONTINUOUS
 62
     7
 10
553.5477715142001
 20
30.79955937940002
 30
0.0
 11
553.5569791370001
 21
30.82698698380002
 31
0.0
  0
LINE
  5
10C
  8
2
  6
CONTINUOUS
 62
     7
 10
552.5606601718
 20
72.35355339059998
 30
0.0
 11
556.8216780961001
 21
76.61457131489999
 31
0.0
  0
ARC
  5
10D
  8
2
  6
CONTINUOUS
 62
     7
 10
550.5
 20
70.99999999999997
 30
0.0
 40
7.749999999999924
 50
138.6990710632
 51
176.3009289368
  0
LINE
  5
10E
  8
2
  6
CONTINUOUS
 62
     7
 10
540.7340212478999
 20
27.85999780110002
 30
0.0
 11
540.7722710851999
 21
27.83652234629999
 31
0.0
  0
LINE
  5
10F
  8
2
  6
CONTINUOUS
 62
     7
 10
540.6627818623999
 20
27.91024781139997
 30
0.0
 11
540.6978873012999
 21
27.88435998720005
 31
0.0
  0
LINE
  5
110
  8
2
  6
CONTINUOUS
 62
     7
 10
560.6817042550001
 20
67.9840771985
 30
0.0
 11
560.7030051196
 21
67.99999999999997
 31
0.0
  0
ARC
  5
111
  8
2
  6
CONTINUOUS
 62
     7
 10
550.5
 20
70.99999999999997
 30
0.0
 40
8.455000000000101
 50
41.60974409309999
 51
48.39025590689999
  0
LINE
  5
112
  8
2
  6
CONTINUOUS
 62
     7
 10
540.3836703058
 20
74.0645837402
 30
0.0
 11
538.6761096738
 21
74.0645837402
 31
0.0
  0
LINE
  5
113
  8
2
  6
CONTINUOUS
 62
     7
 10
560.7030051196
 20
73.99999999999999
 30
0.0
 11
560.6817042550001
 21
74.01592280149995
 31
0.0
  0
ARC
  5
114
  8
2
  6
CONTINUOUS
 62
     7
 10
550.5
 20
70.99999999999997
 30
0.0
 40
10.57032638959998
 50
163.1466367937
 51
196.8533632063
  0
LINE
  5
115
  8
2
  6
CONTINUOUS
 62
     7
 10
547.2854790134
 20
31.07904920480001
 30
0.0
 11
547.3061377477001
 21
31.05691728320001
 31
0.0
  0
ARC
  5
116
  8
2
  6
CONTINUOUS
 62
     7
 10
550.5
 20
70.99999999999997
 30
0.0
 40
10.57032638959998
 50
343.1466367937
 51
16.8533632063
  0
LINE
  5
117
  8
2
  6
CONTINUOUS
 62
     7
 10
553.8329443453999
 20
31.17649505529998
 30
0.0
 11
553.8574130835
 21
31.19176940049998
 31
0.0
  0
LINE
  5
118
  8
2
  6
CONTINUOUS
 62
     7
 10
649.5
 20
10.08456730870003
 30
0.0
 11
649.5
 21
13.08456730870003
 31
0.0
  0
LINE
  5
119
  8
2
  6
CONTINUOUS
 62
     7
 10
547.4703263895999
 20
60.8367269323
 30
0.0
 11
547.4354162597999
 21
60.88367030580002
 31
0.0
  0
LINE
  5
11A
  8
2
  6
CONTINUOUS
 62
     7
 10
562.3238903262
 20
74.0645837402
 30
0.0
 11
560.6163296942
 21
74.0645837402
 31
0.0
  0
ARC
  5
11B
  8
2
  6
CONTINUOUS
 62
     7
 10
550.5
 20
70.99999999999997
 30
0.0
 40
10.63491012989992
 50
343.6150279779
 51
16.38497202209999
  0
LINE
  5
11C
  8
2
  6
CONTINUOUS
 62
     7
 10
670.1499999999999
 20
8.084567308700025
 30
0.0
 11
670.1499999999999
 21
10.08456730870003
 31
0.0
  0
LINE
  5
11D
  8
2
  6
CONTINUOUS
 62
     7
 10
540.5960546741999
 20
27.96634590240002
 30
0.0
 11
540.6288044728
 21
27.93759765580003
 31
0.0
  0
LINE
  5
11E
  8
2
  6
CONTINUOUS
 62
     7
 10
542.0597970995999
 20
70.49999999999997
 30
0.0
 11
548.0857864376
 21
70.49999999999997
 31
0.0
  0
LINE
  5
11F
  8
2
  6
CONTINUOUS
 62
     7
 10
642.7499999999999
 20
10.08456730870003
 30
0.0
 11
642.2499999999999
 21
10.08456730870003
 31
0.0
  0
LINE
  5
120
  8
2
  6
CONTINUOUS
 62
     7
 10
554.2492736821001
 20
31.2904838335
 30
0.0
 11
554.2158161881001
 21
31.2904838335
 31
0.0
  0
ARC
  5
121
  8
2
  6
CONTINUOUS
 62
     7
 10
550.5
 20
70.99999999999997
 30
0.0
 40
8.455000000000101
 50
221.6097440931
 51
228.3902559069001
  0
ARC
  5
122
  8
2
  6
CONTINUOUS
 62
     7
 10
550.5
 20
70.99999999999997
 30
0.0
 40
10.63491012989992
 50
73.61502797789998
 51
106.3849720221
  0
LINE
  5
123
  8
2
  6
CONTINUOUS
 62
     7
 10
658.0999999999999
 20
10.08456730870003
 30
0.0
 11
658.0999999999999
 21
13.08456730870003
 31
0.0
  0
LINE
  5
124
  8
2
  6
CONTINUOUS
 62
     7
 10
538.6761096737999
 20
67.93541625979995
 30
0.0
 11
540.3836703057999
 21
67.93541625979995
 31
0.0
  0
LINE
  5
125
  8
2
  6
CONTINUOUS
 62
     7
 10
554.1125135411
 20
31.28280437040001
 30
0.0
 11
554.1468883125
 21
31.28706696789999
 31
0.0
  0
LINE
  5
126
  8
2
  6
CONTINUOUS
 62
     7
 10
564.1499999999999
 20
31.39048383350004
 30
0.0
 11
536.8499999999999
 21
31.39048383350004
 31
0.0
  0
LINE
  5
127
  8
2
  6
CONTINUOUS
 62
     7
 10
553.5159228015001
 20
81.18170425500001
 30
0.0
 11
553.5000000000001
 21
81.20300511960002
 31
0.0
  0
LINE
  5
128
  8
2
  6
CONTINUOUS
 62
     7
 10
553.9610603389
 20
31.24247813940004
 30
0.0
 11
553.9885614926
 21
31.25256401259999
 31
0.0
  0
LINE
  5
129
  8
2
  6
CONTINUOUS
 62
     7
 10
550.9999999999999
 20
73.4142135624
 30
0.0
 11
550.9999999999999
 21
79.44020290039997
 31
0.0
  0
LINE
  5
12A
  8
2
  6
CONTINUOUS
 62
     7
 10
558.9402029004
 20
71.49999999999999
 30
0.0
 11
552.9142135623999
 21
71.49999999999999
 31
0.0
  0
ARC
  5
12B
  8
2
  6
CONTINUOUS
 62
     7
 10
550.5
 20
70.99999999999997
 30
0.0
 40
7.749999999999924
 50
318.6990710632
 51
356.3009289368
  0
ARC
  5
12C
  8
2
  6
CONTINUOUS
 62
     7
 10
549.4999999999999
 20
73.4142135624
 30
0.0
 40
0.500000000000167
 50
225.0
 51
0.0
  0
ARC
  5
12D
  8
2
  6
CONTINUOUS
 62
     7
 10
550.5
 20
70.99999999999997
 30
0.0
 40
8.455000000000101
 50
131.6097440931
 51
138.3902559069
  0
LINE
  5
12E
  8
2
  6
CONTINUOUS
 62
     7
 10
546.4705950695
 20
31.23198519009998
 30
0.0
 11
546.497789153
 21
31.24318464369999
 31
0.0
  0
LINE
  5
12F
  8
2
  6
CONTINUOUS
 62
     7
 10
547.4688770992
 20
30.7360540038
 30
0.0
 11
547.4745396280999
 21
30.70628040999998
 31
0.0
  0
LINE
  5
130
  8
2
  6
CONTINUOUS
 62
     7
 10
560.1655145146001
 20
27.80291449650005
 30
0.0
 11
560.2053188253
 21
27.82378468259996
 31
0.0
  0
ARC
  5
131
  8
2
  6
CONTINUOUS
 62
     7
 10
550.5
 20
70.99999999999997
 30
0.0
 40
7.749999999999924
 50
228.6990710632
 51
266.3009289368
  0
LINE
  5
132
  8
2
  6
CONTINUOUS
 62
     7
 10
553.8094261836999
 20
31.16043483950001
 30
0.0
 11
553.8329443453998
 21
31.17649505529998
 31
0.0
  0
LINE
  5
133
  8
2
  6
CONTINUOUS
 62
     7
 10
553.5569791370001
 20
30.82698698380002
 30
0.0
 11
553.5669883744001
 21
30.85319909549997
 31
0.0
  0
LINE
  5
134
  8
2
  6
CONTINUOUS
 62
     7
 10
559.9076204175
 20
27.71364273980001
 30
0.0
 11
559.9526812542999
 21
27.72407629940002
 31
0.0
  0
LINE
  5
135
  8
2
  6
CONTINUOUS
 62
     7
 10
546.8144230400001
 20
31.28982820739998
 30
0.0
 11
546.8446637091
 21
31.28786234790001
 31
0.0
  0
LINE
  5
136
  8
2
  6
CONTINUOUS
 62
     7
 10
550.0
 20
68.58578643760002
 30
0.0
 11
550.0
 21
62.5597970996
 31
0.0
  0
LINE
  5
137
  8
2
  6
CONTINUOUS
 62
     7
 10
540.3367269323
 20
67.97032638960002
 30
0.0
 11
540.3836703058
 21
67.93541625979995
 31
0.0
  0
LINE
  5
138
  8
2
  6
CONTINUOUS
 62
     7
 10
550.9999999999999
 20
62.5597970996
 30
0.0
 11
550.9999999999999
 21
68.58578643760002
 31
0.0
  0
LINE
  5
139
  8
2
  6
CONTINUOUS
 62
     7
 10
540.8926207938999
 20
27.77615257000002
 30
0.0
 11
540.9330667809
 21
27.7599686766
 31
0.0
  0
LINE
  5
13A
  8
2
  6
CONTINUOUS
 62
     7
 10
547.4794238387
 20
30.67195682580001
 30
0.0
 11
547.4826083892999
 21
30.63738431190002
 31
0.0
  0
ARC
  5
13B
  8
2
  6
CONTINUOUS
 62
     7
 10
550.5
 20
70.99999999999997
 30
0.0
 40
8.455000000000101
 50
176.6097440931
 51
183.3902559069
  0
LINE
  5
13C
  8
2
  6
CONTINUOUS
 62
     7
 10
540.6978873012999
 20
27.88435998720004
 30
0.0
 11
540.7340212478999
 21
27.85999780110001
 31
0.0
  0
LINE
  5
13D
  8
2
  6
CONTINUOUS
 62
     7
 10
553.6662978161999
 20
31.0241075863
 30
0.0
 11
553.6842021757999
 21
31.0458777106
 31
0.0
  0
LINE
  5
13E
  8
2
  6
CONTINUOUS
 62
     7
 10
642.7499999999999
 20
-17.9154326913
 30
0.0
 11
642.7499999999999
 21
13.08456730870003
 31
0.0
  0
LINE
  5
13F
  8
2
  6
CONTINUOUS
 62
     7
 10
560.6632730677
 20
74.0296736104
 30
0.0
 11
560.6163296942
 21
74.0645837402
 31
0.0
  0
LINE
  5
140
  8
2
  6
CONTINUOUS
 62
     7
 10
560.0412189877999
 20
27.75065252209999
 30
0.0
 11
560.0833496718999
 21
27.76630851139997
 31
0.0
  0
LINE
  5
141
  8
2
  6
CONTINUOUS
 62
     7
 10
553.6030892342001
 20
30.92895935709997
 30
0.0
 11
553.6174593391002
 21
30.95375476449999
 31
0.0
  0
LINE
  5
142
  8
2
  6
CONTINUOUS
 62
     7
 10
556.8216780961
 20
65.38542868510002
 30
0.0
 11
552.5606601714
 21
69.64644660900002
 31
0.0
  0
ARC
  5
143
  8
2
  6
CONTINUOUS
 62
     7
 10
548.0857864376001
 20
71.99999999999999
 30
0.0
 40
0.4999999999999449
 50
270.0
 51
45.0
  0
LINE
  5
144
  8
2
  6
CONTINUOUS
 62
     7
 10
559.7729879210001
 20
27.69415342989998
 30
0.0
 11
559.8177245123001
 21
27.69873476279997
 31
0.0
  0
LINE
  5
145
  8
2
  6
CONTINUOUS
 62
     7
 10
540.8580186540999
 20
30.60270051799998
 30
0.0
 11
540.8368785535998
 21
28.7079362399
 31
0.0
  0
LINE
  5
146
  8
2
  6
CONTINUOUS
 62
     7
 10
556.1145713149
 20
77.32167809609999
 30
0.0
 11
551.8535533910001
 21
73.06066017140003
 31
0.0
  0
LINE
  5
147
  8
2
  6
CONTINUOUS
 62
     7
 10
559.9972557246999
 20
27.7364203611
 30
0.0
 11
560.0412189877999
 21
27.75065252209999
 31
0.0
  0
LINE
  5
148
  8
2
  6
CONTINUOUS
 62
     7
 10
560.3588282623
 20
27.92735909509999
 30
0.0
 11
560.3816623088001
 21
27.94651427410002
 31
0.0
  0
LINE
  5
149
  8
2
  6
CONTINUOUS
 62
     7
 10
541.2756884768999
 20
27.69125075690001
 30
0.0
 11
541.3168228775999
 21
27.69048383350001
 31
0.0
  0
LINE
  5
14A
  8
2
  6
CONTINUOUS
 62
     7
 10
541.1901158567999
 20
27.69779727679997
 30
0.0
 11
541.2346685605
 21
27.6935484271
 31
0.0
  0
LINE
  5
14B
  8
2
  6
CONTINUOUS
 62
     7
 10
560.3222493702999
 20
27.89892702150001
 30
0.0
 11
560.3588282623
 21
27.92735909509999
 31
0.0
  0
LINE
  5
14C
  8
2
  6
CONTINUOUS
 62
     7
 10
553.5327539483
 20
30.74352713969999
 30
0.0
 11
553.5396882389999
 21
30.77171398799996
 31
0.0
  0
LINE
  5
14D
  8
2
  6
CONTINUOUS
 62
     7
 10
560.2843900414001
 20
27.87214226370002
 30
0.0
 11
560.3222493703
 21
27.89892702150001
 31
0.0
  0
ARC
  5
14E
  8
2
  6
CONTINUOUS
 62
     7
 10
551.4999999999999
 20
73.4142135624
 30
0.0
 40
0.500000000000167
 50
180.0
 51
315.0
  0
LINE
  5
14F
  8
2
  6
CONTINUOUS
 62
     7
 10
553.6174593390999
 20
30.95375476449999
 30
0.0
 11
553.6328154591998
 21
30.97791672989999
 31
0.0
  0
LINE
  5
150
  8
2
  6
CONTINUOUS
 62
     7
 10
553.5159228015001
 20
30.60270051799998
 30
0.0
 11
553.5169891367001
 21
30.63094786660001
 31
0.0
  0
LINE
  5
151
  8
2
  6
CONTINUOUS
 62
     7
 10
553.5169891367
 20
30.63094786660001
 30
0.0
 11
553.5191958121
 21
30.65914223980001
 31
0.0
  0
ARC
  5
152
  8
2
  6
CONTINUOUS
 62
     7
 10
550.5
 20
70.99999999999997
 30
0.0
 40
7.749999999999924
 50
3.6990710632
 51
41.3009289368
  0
LINE
  5
153
  8
2
  6
CONTINUOUS
 62
     7
 10
551.8535533905999
 20
68.93933982819996
 30
0.0
 11
556.1145713148999
 21
64.67832190389997
 31
0.0
  0
LINE
  5
154
  8
2
  6
CONTINUOUS
 62
     7
 10
544.885428685
 20
64.678321904
 30
0.0
 11
549.1464466094001
 21
68.93933982819996
 31
0.0
  0
ARC
  5
155
  8
2
  6
CONTINUOUS
 62
     7
 10
550.5
 20
70.99999999999997
 30
0.0
 40
8.455000000000101
 50
311.6097440931
 51
318.3902559069
  0
LINE
  5
156
  8
2
  6
CONTINUOUS
 62
     7
 10
553.6491106121999
 20
31.00138706620001
 30
0.0
 11
553.6662978161999
 21
31.0241075863
 31
0.0
  0
LINE
  5
157
  8
2
  6
CONTINUOUS
 62
     7
 10
553.5296736104001
 20
60.8367269323
 30
0.0
 11
553.5645837402
 21
60.88367030580002
 31
0.0
  0
ARC
  5
158
  8
2
  6
CONTINUOUS
 62
     7
 10
550.5
 20
70.99999999999997
 30
0.0
 40
8.455000000000101
 50
86.6097440931
 51
93.39025590689998
  0
LINE
  5
159
  8
2
  6
CONTINUOUS
 62
     7
 10
541.0158356109999
 20
27.73257941490001
 30
0.0
 11
541.0579486437999
 21
27.72142569120004
 31
0.0
  0
LINE
  5
15A
  8
2
  6
CONTINUOUS
 62
     7
 10
540.974173355
 20
27.74543568410001
 30
0.0
 11
541.0158356109999
 21
27.73257941490001
 31
0.0
  0
LINE
  5
15B
  8
2
  6
CONTINUOUS
 62
     7
 10
553.7427178904
 20
31.10640824730002
 30
0.0
 11
553.7642518508999
 21
31.12535451790003
 31
0.0
  0
LINE
  5
15C
  8
2
  6
CONTINUOUS
 62
     7
 10
553.7642518509
 20
31.12535451790002
 30
0.0
 11
553.7865083171
 21
31.14337568780004
 31
0.0
  0
LINE
  5
15D
  8
2
  6
CONTINUOUS
 62
     7
 10
553.539688239
 20
30.77171398799997
 30
0.0
 11
553.5477715142001
 21
30.79955937940002
 31
0.0
  0
LINE
  5
15E
  8
2
  6
CONTINUOUS
 62
     7
 10
560.1515882151
 20
28.55314849080001
 30
0.0
 11
560.1444961542
 21
28.51441871690005
 31
0.0
  0
LINE
  5
15F
  8
2
  6
CONTINUOUS
 62
     7
 10
547.4840771984999
 20
60.818295745
 30
0.0
 11
547.4999999999999
 21
60.79699488039999
 31
0.0
  0
LINE
  5
160
  8
2
  6
CONTINUOUS
 62
     7
 10
540.7722710851999
 20
27.83652234629999
 30
0.0
 11
540.8115300411998
 21
27.81469108380005
 31
0.0
  0
LINE
  5
161
  8
2
  6
CONTINUOUS
 62
     7
 10
540.9330667809
 20
27.75996867659999
 30
0.0
 11
540.9741733550001
 21
27.74543568410002
 31
0.0
  0
LINE
  5
162
  8
2
  6
CONTINUOUS
 62
     7
 10
553.7865083170999
 20
31.14337568780004
 30
0.0
 11
553.8094261836999
 21
31.16043483950001
 31
0.0
  0
LINE
  5
163
  8
2
  6
CONTINUOUS
 62
     7
 10
560.3129312832
 20
31.23198519009998
 30
0.0
 11
560.3968918406
 21
31.28728954739998
 31
0.0
  0
LINE
  5
164
  8
2
  6
CONTINUOUS
 62
     7
 10
559.7281011636
 20
27.6914018618
 30
0.0
 11
559.772987921
 21
27.69415342989997
 31
0.0
  0
ARC
  5
165
  8
2
  6
CONTINUOUS
 62
     7
 10
550.5
 20
70.99999999999997
 30
0.0
 40
7.749999999999924
 50
48.69907106320003
 51
86.30092893680002
  0
LINE
  5
166
  8
2
  6
CONTINUOUS
 62
     7
 10
540.6288044728001
 20
27.93759765580003
 30
0.0
 11
540.6627818624
 21
27.91024781139997
 31
0.0
  0
LINE
  5
167
  8
2
  6
CONTINUOUS
 62
     7
 10
540.5960546741999
 20
27.96634590240002
 30
0.0
 11
538.7261943280998
 21
29.69048383350001
 31
0.0
  0
LINE
  5
168
  8
2
  6
CONTINUOUS
 62
     7
 10
559.9526812542998
 20
27.72407629940002
 30
0.0
 11
559.9972557246999
 21
27.73642036109999
 31
0.0
  0
LINE
  5
169
  8
2
  6
CONTINUOUS
 62
     7
 10
553.590077551
 20
30.90424806110001
 30
0.0
 11
553.6030892342001
 21
30.92895935709996
 31
0.0
  0
LINE
  5
16A
  8
2
  6
CONTINUOUS
 62
     7
 10
546.5533437207998
 20
31.26207903179998
 30
0.0
 11
546.5855101959999
 21
31.27069859379996
 31
0.0
  0
LINE
  5
16B
  8
2
  6
CONTINUOUS
 62
     7
 10
559.6831771224
 20
27.69048383350001
 30
0.0
 11
559.7281011636001
 21
27.6914018618
 31
0.0
  0
LINE
  5
16C
  8
2
  6
CONTINUOUS
 62
     7
 10
560.2453724636999
 20
27.8470723185
 30
0.0
 11
560.2843900414
 21
27.87214226370003
 31
0.0
  0
ARC
  5
16D
  8
2
  6
CONTINUOUS
 62
     7
 10
563.15
 20
32.39048383349999
 30
0.0
 40
0.9999999999998899
 50
0.0
 51
90.0
  0
LINE
  5
16E
  8
2
  6
CONTINUOUS
 62
     7
 10
541.2346685605
 20
27.6935484271
 30
0.0
 11
541.2756884769001
 21
27.69125075690001
 31
0.0
  0
LINE
  5
16F
  8
2
  6
CONTINUOUS
 62
     7
 10
547.0544720198001
 20
31.23619317570001
 30
0.0
 11
547.0825979883
 21
31.22368393090001
 31
0.0
  0
LINE
  5
170
  8
2
  6
CONTINUOUS
 62
     7
 10
554.0783497952999
 20
31.27684653819998
 30
0.0
 11
554.1125135410999
 21
31.28280437040001
 31
0.0
  0
LINE
  5
171
  8
2
  6
CONTINUOUS
 62
     7
 10
546.0979977316
 20
30.84335239870003
 30
0.0
 11
546.1081569248
 21
30.86815169520005
 31
0.0
  0
LINE
  5
172
  8
2
  6
CONTINUOUS
 62
     7
 10
554.0164015966001
 20
31.2614763248
 30
0.0
 11
554.0445107613
 21
31.26919912779999
 31
0.0
  0
LINE
  5
173
  8
2
  6
CONTINUOUS
 62
     7
 10
559.1342979698999
 20
27.69404714609999
 30
0.0
 11
559.0867360537
 21
27.69137520630002
 31
0.0
  0
LINE
  5
174
  8
2
  6
CONTINUOUS
 62
     7
 10
560.3968918405999
 20
31.28728954739998
 30
0.0
 11
560.4222484626999
 21
31.2904838335
 31
0.0
  0
LINE
  5
175
  8
2
  6
CONTINUOUS
 62
     7
 10
553.5191958121
 20
30.65914223980001
 30
0.0
 11
553.5225336015
 21
30.68720941369998
 31
0.0
  0
LINE
  5
176
  8
2
  6
CONTINUOUS
 62
     7
 10
540.2969948803999
 20
29.69048383350001
 30
0.0
 11
538.3499999999999
 21
29.69048383350001
 31
0.0
  0
LINE
  5
177
  8
2
  6
CONTINUOUS
 62
     7
 10
553.9079903472999
 20
31.21916527510002
 30
0.0
 11
553.9339680248999
 21
31.23123465319996
 31
0.0
  0
LINE
  5
178
  8
2
  6
CONTINUOUS
 62
     7
 10
541.1457366275001
 20
27.70386704539998
 30
0.0
 11
541.1901158568
 21
27.69779727679997
 31
0.0
  0
LINE
  5
179
  8
2
  6
CONTINUOUS
 62
     7
 10
560.1248198221999
 20
27.7837424712
 30
0.0
 11
560.1655145146
 21
27.80291449650006
 31
0.0
  0
LINE
  5
17A
  8
2
  6
CONTINUOUS
 62
     7
 10
553.9339680249
 20
31.23123465319996
 30
0.0
 11
553.9610603389
 21
31.24247813940004
 31
0.0
  0
LINE
  5
17B
  8
2
  6
CONTINUOUS
 62
     7
 10
547.325848124
 20
31.03387956310003
 30
0.0
 11
547.3451668801999
 21
31.00916403920004
 31
0.0
  0
LINE
  5
17C
  8
2
  6
CONTINUOUS
 62
     7
 10
553.4999999999999
 20
60.79699488039999
 30
0.0
 11
553.5159228014999
 21
60.81829574500001
 31
0.0
  0
LINE
  5
17D
  8
2
  6
CONTINUOUS
 62
     7
 10
553.5780325551001
 20
30.87897371420004
 30
0.0
 11
553.590077551
 21
30.90424806110002
 31
0.0
  0
LINE
  5
17E
  8
2
  6
CONTINUOUS
 62
     7
 10
548.4393398281999
 20
69.64644660940003
 30
0.0
 11
544.1783219038999
 21
65.38542868510002
 31
0.0
  0
LINE
  5
17F
  8
2
  6
CONTINUOUS
 62
     7
 10
560.3816623088001
 20
27.94651427410002
 30
0.0
 11
560.4039453258
 21
27.96634590240003
 31
0.0
  0
LINE
  5
180
  8
2
  6
CONTINUOUS
 62
     7
 10
546.0802894645001
 20
30.79175657890001
 30
0.0
 11
546.0887819142
 21
30.81814499920003
 31
0.0
  0
LINE
  5
181
  8
2
  6
CONTINUOUS
 62
     7
 10
547.3451668802
 20
31.00916403920004
 30
0.0
 11
547.3634186311
 21
30.98352118140005
 31
0.0
  0
LINE
  5
182
  8
2
  6
CONTINUOUS
 62
     7
 10
547.0825979883
 20
31.2236839309
 30
0.0
 11
547.1102140932
 21
31.20991950119997
 31
0.0
  0
LINE
  5
183
  8
2
  6
CONTINUOUS
 62
     7
 10
553.7224647956999
 20
31.08707363659999
 30
0.0
 11
553.7427178904
 21
31.10640824730001
 31
0.0
  0
ARC
  5
184
  8
2
  6
CONTINUOUS
 62
     7
 10
550.5
 20
70.99999999999997
 30
0.0
 40
8.455000000000101
 50
266.6097440931
 51
273.3902559069
  0
LINE
  5
185
  8
2
  6
CONTINUOUS
 62
     7
 10
541.0579486437998
 20
27.72142569120004
 30
0.0
 11
541.1016433855998
 21
27.71174682079999
 31
0.0
  0
LINE
  5
186
  8
2
  6
CONTINUOUS
 62
     7
 10
549.1464466094001
 20
73.0606601718
 30
0.0
 11
544.8854286851
 21
77.32167809609999
 31
0.0
  0
LINE
  5
187
  8
2
  6
CONTINUOUS
 62
     7
 10
560.112809539
 20
28.39878253849995
 30
0.0
 11
560.1029492486
 21
28.37155009600003
 31
0.0
  0
LINE
  5
188
  8
2
  6
CONTINUOUS
 62
     7
 10
560.7030051196
 20
29.69048383350001
 30
0.0
 11
562.6500000000001
 21
29.69048383350001
 31
0.0
  0
LINE
  5
189
  8
2
  6
CONTINUOUS
 62
     7
 10
553.8824502255
 20
31.20600149900002
 30
0.0
 11
553.9079903473
 21
31.21916527510002
 31
0.0
  0
LINE
  5
18A
  8
2
  6
CONTINUOUS
 62
     7
 10
547.4619317058999
 20
30.76555498890002
 30
0.0
 11
547.4688770992
 21
30.7360540038
 31
0.0
  0
LINE
  5
18B
  8
2
  6
CONTINUOUS
 62
     7
 10
546.9659883586999
 20
31.26645756369997
 30
0.0
 11
546.9961476937
 21
31.25761770249999
 31
0.0
  0
LINE
  5
18C
  8
2
  6
CONTINUOUS
 62
     7
 10
547.0259173062999
 20
31.24741984079996
 30
0.0
 11
547.0544720197998
 21
31.23619317570001
 31
0.0
  0
LINE
  5
18D
  8
2
  6
CONTINUOUS
 62
     7
 10
554.0445107612999
 20
31.26919912779999
 30
0.0
 11
554.0783497952999
 21
31.27684653819998
 31
0.0
  0
LINE
  5
18E
  8
2
  6
CONTINUOUS
 62
     7
 10
554.1468883125
 20
31.28706696789999
 30
0.0
 11
554.1813604235
 21
31.2896286743
 31
0.0
  0
LINE
  5
18F
  8
2
  6
CONTINUOUS
 62
     7
 10
554.1813604235
 20
31.28962867429999
 30
0.0
 11
554.2158161881
 21
31.2904838335
 31
0.0
  0
LINE
  5
190
  8
2
  6
CONTINUOUS
 62
     7
 10
553.9885614925998
 20
31.25256401259999
 30
0.0
 11
554.0164015965998
 21
31.2614763248
 31
0.0
  0
LINE
  5
191
  8
2
  6
CONTINUOUS
 62
     7
 10
547.4443008751
 20
30.82339038759999
 30
0.0
 11
547.4537305855
 21
30.79469617889999
 31
0.0
  0
LINE
  5
192
  8
2
  6
CONTINUOUS
 62
     7
 10
540.7409693476
 20
31.15613230470002
 30
0.0
 11
540.7892171381
 21
31.04967534479999
 31
0.0
  0
LINE
  5
193
  8
2
  6
CONTINUOUS
 62
     7
 10
540.5777515373001
 20
31.2904838335
 30
0.0
 11
540.6734570424
 21
31.24576508579999
 31
0.0
  0
LINE
  5
194
  8
2
  6
CONTINUOUS
 62
     7
 10
546.0728280842
 20
30.76497565990002
 30
0.0
 11
546.0802894645001
 21
30.79175657890001
 31
0.0
  0
LINE
  5
195
  8
2
  6
CONTINUOUS
 62
     7
 10
541.1016433855999
 20
27.71174682079999
 30
0.0
 11
541.1457366275
 21
27.70386704539998
 31
0.0
  0
ARC
  5
196
  8
2
  6
CONTINUOUS
 62
     7
 10
560.1499999999999
 20
28.69048383350001
 30
0.0
 40
1.000000000000112
 50
270.0
 51
313.6028189727
  0
LINE
  5
197
  8
2
  6
CONTINUOUS
 62
     7
 10
560.4348265085998
 20
31.2904838335
 30
0.0
 11
560.5327714055999
 21
31.2361931757
 31
0.0
  0
LINE
  5
198
  8
2
  6
CONTINUOUS
 62
     7
 10
546.0518331224999
 20
30.62978766420002
 30
0.0
 11
546.0538827199998
 21
30.65683709780001
 31
0.0
  0
LINE
  5
199
  8
2
  6
CONTINUOUS
 62
     7
 10
554.8353104260999
 20
30.97330394509998
 30
0.0
 11
554.8524714254999
 21
30.94565569119997
 31
0.0
  0
LINE
  5
19A
  8
2
  6
CONTINUOUS
 62
     7
 10
546.0664223445
 20
30.7378757325
 30
0.0
 11
546.0728280842
 21
30.76497565990002
 31
0.0
  0
LINE
  5
19B
  8
2
  6
CONTINUOUS
 62
     7
 10
546.4438755468999
 20
31.21964407090003
 30
0.0
 11
546.4705950695
 21
31.23198519009997
 31
0.0
  0
ARC
  5
19C
  8
2
  6
CONTINUOUS
 62
     7
 10
550.5
 20
70.99999999999997
 30
0.0
 40
7.749999999999924
 50
273.6990710632
 51
311.3009289368001
  0
LINE
  5
19D
  8
2
  6
CONTINUOUS
 62
     7
 10
553.5669883743999
 20
30.85319909549997
 30
0.0
 11
553.5780325550999
 21
30.87897371420004
 31
0.0
  0
LINE
  5
19E
  8
2
  6
CONTINUOUS
 62
     7
 10
547.3964669830999
 20
30.92976147540002
 30
0.0
 11
547.4100384714999
 21
30.90401565979997
 31
0.0
  0
ARC
  5
19F
  8
2
  6
CONTINUOUS
 62
     7
 10
537.8499999999999
 20
32.39048383349999
 30
0.0
 40
1.000000000000112
 50
90.0
 51
180.0
  0
LINE
  5
1A0
  8
2
  6
CONTINUOUS
 62
     7
 10
547.3061377477
 20
31.05691728320001
 30
0.0
 11
547.325848124
 21
31.03387956310002
 31
0.0
  0
LINE
  5
1A1
  8
2
  6
CONTINUOUS
 62
     7
 10
547.3805398433001
 20
30.95702799239999
 30
0.0
 11
547.3964669831
 21
30.92976147540002
 31
0.0
  0
LINE
  5
1A2
  8
2
  6
CONTINUOUS
 62
     7
 10
561.1349101298999
 20
29.69048383350001
 30
0.0
 11
561.1052365195
 21
31.39048383350003
 31
0.0
  0
LINE
  5
1A3
  8
2
  6
CONTINUOUS
 62
     7
 10
560.2063199603999
 20
31.037098314
 30
0.0
 11
560.2497602359999
 21
31.1390702365
 31
0.0
  0
LINE
  5
1A4
  8
2
  6
CONTINUOUS
 62
     7
 10
546.9355254235999
 20
31.27392511360003
 30
0.0
 11
546.9659883586999
 21
31.26645756369998
 31
0.0
  0
LINE
  5
1A5
  8
2
  6
CONTINUOUS
 62
     7
 10
560.2053188253
 20
27.82378468259997
 30
0.0
 11
560.2453724636999
 21
27.84707231850001
 31
0.0
  0
LINE
  5
1A6
  8
2
  6
CONTINUOUS
 62
     7
 10
547.2415827749999
 20
31.12037645340002
 30
0.0
 11
547.2639384970998
 21
31.10022052820002
 31
0.0
  0
ARC
  5
1A7
  8
2
  6
CONTINUOUS
 62
     7
 10
539.5594462707
 20
30.63159772409998
 30
0.0
 40
1.298893869099871
 50
358.7252041117
 51
18.77617583099999
  0
LINE
  5
1A8
  8
2
  6
CONTINUOUS
 62
     7
 10
553.8574130834999
 20
31.19176940049998
 30
0.0
 11
553.8824502254998
 21
31.20600149900002
 31
0.0
  0
ARC
  5
1A9
  8
2
  6
CONTINUOUS
 62
     7
 10
552.9142135623999
 20
71.99999999999999
 30
0.0
 40
0.500000000000167
 50
135.0
 51
270.0
  0
LINE
  5
1AA
  8
2
  6
CONTINUOUS
 62
     7
 10
553.5159228015001
 20
60.818295745
 30
0.0
 11
553.5339563472
 21
60.82631615350001
 31
0.0
  0
LINE
  5
1AB
  8
2
  6
CONTINUOUS
 62
     7
 10
553.7029420299
 20
31.06688159250001
 30
0.0
 11
553.7224647956999
 21
31.08707363659999
 31
0.0
  0
LINE
  5
1AC
  8
2
  6
CONTINUOUS
 62
     7
 10
624.85
 20
8.084567308700025
 30
0.0
 11
625.252380392
 21
-14.96778991060002
 31
0.0
  0
ARC
  5
1AD
  8
2
  6
CONTINUOUS
 62
     7
 10
549.4999999999999
 20
68.58578643760002
 30
0.0
 40
0.500000000000167
 50
0.0
 51
135.0
  0
ARC
  5
1AE
  8
2
  6
CONTINUOUS
 62
     7
 10
550.5
 20
70.99999999999997
 30
0.0
 40
12.2145837401999
 50
165.4694921388
 51
194.5305078612
  0
ARC
  5
1AF
  8
2
  6
CONTINUOUS
 62
     7
 10
656.7480765224999
 20
-14.9154326913
 30
0.0
 40
3.000000000000114
 50
270.0
 51
358.9999999999999
  0
LINE
  5
1B0
  8
2
  6
CONTINUOUS
 62
     7
 10
560.0833496719
 20
27.76630851139997
 30
0.0
 11
560.1248198221999
 21
27.78374247119999
 31
0.0
  0
LINE
  5
1B1
  8
2
  6
CONTINUOUS
 62
     7
 10
552.9142135623999
 20
70.49999999999997
 30
0.0
 11
558.9402029003999
 21
70.49999999999997
 31
0.0
  0
ARC
  5
1B2
  8
2
  6
CONTINUOUS
 62
     7
 10
550.5
 20
70.99999999999997
 30
0.0
 40
8.455000000000101
 50
356.6097440931
 51
3.390255906899994
  0
LINE
  5
1B3
  8
2
  6
CONTINUOUS
 62
     7
 10
547.4354162598
 20
60.88367030580002
 30
0.0
 11
547.4354162598
 21
59.17610967380003
 31
0.0
  0
LINE
  5
1B4
  8
2
  6
CONTINUOUS
 62
     7
 10
626.9
 20
13.08456730870003
 30
0.0
 11
626.9
 21
10.08456730870003
 31
0.0
  0
ARC
  5
1B5
  8
2
  6
CONTINUOUS
 62
     7
 10
550.5
 20
70.99999999999997
 30
0.0
 40
10.63491012989992
 50
253.6150279779
 51
286.3849720221
  0
LINE
  5
1B6
  8
2
  6
CONTINUOUS
 62
     7
 10
560.6163296942
 20
67.93541625979995
 30
0.0
 11
562.3238903262
 21
67.93541625979995
 31
0.0
  0
LINE
  5
1B7
  8
2
  6
CONTINUOUS
 62
     7
 10
547.4999999999999
 20
81.20300511960002
 30
0.0
 11
547.4840771984999
 21
81.18170425500001
 31
0.0
  0
ARC
  5
1B8
  8
2
  6
CONTINUOUS
 62
     7
 10
628.2519234775
 20
-14.9154326913
 30
0.0
 40
2.999999999999892
 50
181.0
 51
270.0
  0
LINE
  5
1B9
  8
1
  6
CONTINUOUS
 62
     7
 10
587.0
 20
185.9999999999999
 30
0.0
 11
587.0
 21
283.9999999999998
 31
0.0
  0
ARC
  5
1BA
  8
1
  6
CONTINUOUS
 62
     7
 10
564.0
 20
277.85
 30
0.0
 40
4.099999999999993
 50
276.9682567413781
 51
96.96825674137784
  0
ARC
  5
1BB
  8
1
  6
CONTINUOUS
 62
     7
 10
526.9999999999999
 20
269.0
 30
0.0
 40
2.000000000000002
 50
89.9999999999999
 51
180.0
  0
LINE
  5
1BC
  8
1
  6
CONTINUOUS
 62
     7
 10
555.4069042895991
 20
280.9302426842357
 30
0.0
 11
563.5025903371425
 21
281.9197154233799
 31
0.0
  0
LINE
  5
1BD
  8
1
  6
CONTINUOUS
 62
     7
 10
582.5
 20
240.0
 30
0.0
 11
580.4
 21
240.0
 31
0.0
  0
LINE
  5
1BE
  8
1
  6
CONTINUOUS
 62
     7
 10
579.0
 20
230.1999999999999
 30
0.0
 11
579.0
 21
239.7999999999999
 31
0.0
  0
LINE
  5
1BF
  8
1
  6
CONTINUOUS
 62
     7
 10
524.9999999999999
 20
255.5
 30
0.0
 11
525.9999999999999
 21
255.5
 31
0.0
  0
LINE
  5
1C0
  8
1
  6
CONTINUOUS
 62
     7
 10
532.0
 20
203.3999999999999
 30
0.0
 11
577.9999999999999
 21
203.3999999999999
 31
0.0
  0
LINE
  5
1C1
  8
1
  6
CONTINUOUS
 62
     7
 10
532.0
 20
266.5999999999999
 30
0.0
 11
529.4999999999999
 21
266.5999999999999
 31
0.0
  0
LINE
  5
1C2
  8
1
  6
CONTINUOUS
 62
     7
 10
580.5
 20
266.5999999999999
 30
0.0
 11
578.0000000000001
 21
266.5999999999999
 31
0.0
  0
LINE
  5
1C3
  8
1
  6
CONTINUOUS
 62
     7
 10
580.4
 20
210.5
 30
0.0
 11
580.4
 21
230.0
 31
0.0
  0
POINT
  5
1C4
  8
0
 62
     1
 10
642.5
 20
13.08456730870003
 30
0.0
  0
LINE
  5
1C5
  8
1
  6
CONTINUOUS
 62
     7
 10
579.4627569260717
 20
210.4999999999999
 30
0.0
 11
579.4621925027836
 21
210.5000203893939
 31
0.0
  0
LINE
  5
1C6
  8
1
  6
CONTINUOUS
 62
     7
 10
524.9999999999999
 20
258.5
 30
0.0
 11
524.9999999999999
 21
269.0
 31
0.0
  0
LINE
  5
1C7
  8
1
  6
CONTINUOUS
 62
     7
 10
579.4163879392509
 20
266.5
 30
0.0
 11
580.4999999999999
 21
266.5
 31
0.0
  0
LINE
  5
1C8
  8
1
  6
CONTINUOUS
 62
     7
 10
580.5
 20
271.0
 30
0.0
 11
583.0
 21
271.0
 31
0.0
  0
LINE
  5
1C9
  8
1
  6
CONTINUOUS
 62
     7
 10
530.1806527080182
 20
205.1
 30
0.0
 11
530.5836120607489
 21
203.5
 31
0.0
  0
ARC
  5
1CA
  8
1
  6
CONTINUOUS
 62
     7
 10
583.0
 20
269.0
 30
0.0
 40
2.000000000000002
 50
0.0
 51
90.00000000000011
  0
LINE
  5
1CB
  8
1
  6
CONTINUOUS
 62
     7
 10
573.2188402551808
 20
266.4222616449854
 30
0.0
 11
573.6857948430173
 21
266.6000166199264
 31
0.0
  0
LINE
  5
1CC
  8
1
  6
CONTINUOUS
 62
     7
 10
585.0
 20
255.5
 30
0.0
 11
584.0
 21
255.5
 31
0.0
  0
ARC
  5
1CD
  8
1
  6
CONTINUOUS
 62
     7
 10
584.0000000000001
 20
257.5
 30
0.0
 40
0.9999999999998899
 50
90.0
 51
180.0
  0
ARC
  5
1CE
  8
1
  6
CONTINUOUS
 62
     7
 10
554.9999999999999
 20
210.5
 30
0.0
 40
25.40000000000009
 50
195.9972102400518
 51
196.2320099886318
  0
ARC
  5
1CF
  8
1
  6
CONTINUOUS
 62
     7
 10
554.9999999999999
 20
259.5
 30
0.0
 40
25.40000000000009
 50
5.648493516919522
 51
12.2746702145863
  0
LINE
  5
1D0
  8
1
  6
CONTINUOUS
 62
     7
 10
580.5
 20
264.9
 30
0.0
 11
579.8193472919817
 21
264.9
 31
0.0
  0
LINE
  5
1D1
  8
1
  6
CONTINUOUS
 62
     7
 10
530.583612060749
 20
266.5
 30
0.0
 11
530.1806527080183
 21
264.9
 31
0.0
  0
ARC
  5
1D2
  8
1
  6
CONTINUOUS
 62
     7
 10
526.0
 20
241.0
 30
0.0
 40
0.9999999999998899
 50
180.0
 51
270.0
  0
LINE
  5
1D3
  8
1
  6
CONTINUOUS
 62
     7
 10
526.0
 20
258.5
 30
0.0
 11
525.0
 21
258.5
 31
0.0
  0
LINE
  5
1D4
  8
1
  6
CONTINUOUS
 62
     7
 10
530.1806527080182
 20
264.9
 30
0.0
 11
529.4999999999999
 21
264.9
 31
0.0
  0
CIRCLE
  5
1D5
  8
1
  6
CONTINUOUS
 62
     7
 10
554.9999999999999
 20
220.0
 30
0.0
 40
10.65000000000005
  0
LINE
  5
1D6
  8
1
  6
CONTINUOUS
 62
     7
 10
530.583612060749
 20
203.5
 30
0.0
 11
529.5
 21
203.5
 31
0.0
  0
LINE
  5
1D7
  8
1
  6
CONTINUOUS
 62
     7
 10
580.4
 20
240.0
 30
0.0
 11
580.4
 21
239.7999999999999
 31
0.0
  0
ARC
  5
1D8
  8
1
  6
CONTINUOUS
 62
     7
 10
554.9999999999999
 20
259.5
 30
0.0
 40
25.40000000000009
 50
163.7679900113687
 51
164.0027897599481
  0
LINE
  5
1D9
  8
1
  6
CONTINUOUS
 62
     7
 10
582.0000000000001
 20
229.9999999999999
 30
0.0
 11
582.0
 21
230.2
 31
0.0
  0
LINE
  5
1DA
  8
1
  6
CONTINUOUS
 62
     7
 10
529.5000000000001
 20
266.5
 30
0.0
 11
530.5836120607491
 21
266.5
 31
0.0
  0
ARC
  5
1DB
  8
1
  6
CONTINUOUS
 62
     7
 10
554.9999999999999
 20
259.5
 30
0.0
 40
25.40000000000009
 50
15.99721024005186
 51
16.23200998863132
  0
LINE
  5
1DC
  8
1
  6
CONTINUOUS
 62
     7
 10
573.2188402551808
 20
266.4222616449854
 30
0.0
 11
573.1193537269463
 21
266.6000444768737
 31
0.0
  0
ARC
  5
1DD
  8
1
  6
CONTINUOUS
 62
     7
 10
554.9999999999999
 20
259.5
 30
0.0
 40
25.40000000000009
 50
167.7253297854137
 51
174.3515064830805
  0
LINE
  5
1DE
  8
1
  6
CONTINUOUS
 62
     7
 10
584.0000000000001
 20
258.5
 30
0.0
 11
585.0000000000001
 21
258.5
 31
0.0
  0
LINE
  5
1DF
  8
1
  6
CONTINUOUS
 62
     7
 10
582.5
 20
259.5
 30
0.0
 11
582.5
 21
240.0
 31
0.0
  0
LINE
  5
1E0
  8
0
  6
CONTINUOUS
 62
     7
 10
637.4999999999999
 20
58.35247059699996
 30
0.0
 11
637.4999999999999
 21
45.84204897049995
 31
0.0
  0
ARC
  5
1E1
  8
0
  6
CONTINUOUS
 62
     7
 10
642.4999999999999
 20
70.99999999999997
 30
0.0
 40
25.65000000000006
 50
258.759261959
 51
269.4415527612
  0
LINE
  5
1E2
  8
0
  6
CONTINUOUS
 62
     7
 10
642.2499999999999
 20
65.39644660939997
 30
0.0
 11
642.2499999999999
 21
43.35113022199996
 31
0.0
  0
ARC
  5
1E3
  8
0
  6
CONTINUOUS
 62
     7
 10
642.4999999999999
 20
70.99999999999997
 30
0.0
 40
27.65000000000006
 50
270.5180520814
 51
269.4819479186
  0
LINE
  5
1E4
  8
0
  6
CONTINUOUS
 62
     7
 10
635.4999999999999
 20
44.25074767399997
 30
0.0
 11
635.4999999999999
 21
57.05869446569994
 31
0.0
  0
ARC
  5
1E5
  8
0
  6
CONTINUOUS
 62
     7
 10
642.4999999999999
 20
70.99999999999997
 30
0.0
 40
15.60000000000006
 50
296.6614585815
 51
243.3385414185
  0
LINE
  5
1E6
  8
0
  6
CONTINUOUS
 62
     7
 10
649.5
 20
57.05869446569994
 30
0.0
 11
649.5
 21
44.25074767399997
 31
0.0
  0
LINE
  5
1E7
  8
0
  6
CONTINUOUS
 62
     7
 10
642.7499999999999
 20
43.35113022199996
 30
0.0
 11
642.7499999999999
 21
65.39644660939997
 31
0.0
  0
ARC
  5
1E8
  8
0
  6
CONTINUOUS
 62
     7
 10
642.4999999999999
 20
70.99999999999997
 30
0.0
 40
25.65000000000006
 50
270.5584472388
 51
281.240738041
  0
LINE
  5
1E9
  8
0
  6
CONTINUOUS
 62
     7
 10
647.5
 20
45.84204897049995
 30
0.0
 11
647.5
 21
58.35247059699996
 31
0.0
  0
ARC
  5
1EA
  8
0
  6
CONTINUOUS
 62
     7
 10
642.4999999999999
 20
70.99999999999997
 30
0.0
 40
13.60000000000006
 50
291.5705783016001
 51
248.4294216984001
  0
LINE
  5
1EB
  8
0
  6
CONTINUOUS
 62
     7
 10
642.9999999999999
 20
69.79289321879995
 30
0.0
 11
642.7499999999999
 21
65.39644660939997
 31
0.0
  0
LINE
  5
1EC
  8
0
  6
CONTINUOUS
 62
     7
 10
649.5710678118999
 20
63.92893218809997
 30
0.0
 11
642.9999999999999
 21
69.79289321879995
 31
0.0
  0
LINE
  5
1ED
  8
0
  6
CONTINUOUS
 62
     7
 10
643.7071067811999
 20
70.49999999999997
 30
0.0
 11
649.5710678118999
 21
63.92893218809997
 31
0.0
  0
LINE
  5
1EE
  8
0
  6
CONTINUOUS
 62
     7
 10
652.4999999999999
 20
70.99999999999997
 30
0.0
 11
643.7071067811999
 21
70.49999999999997
 31
0.0
  0
LINE
  5
1EF
  8
0
  6
CONTINUOUS
 62
     7
 10
643.7071067811999
 20
71.49999999999999
 30
0.0
 11
652.4999999999999
 21
70.99999999999997
 31
0.0
  0
LINE
  5
1F0
  8
0
  6
CONTINUOUS
 62
     7
 10
649.5710678118999
 20
78.07106781189995
 30
0.0
 11
643.7071067811999
 21
71.49999999999999
 31
0.0
  0
LINE
  5
1F1
  8
0
  6
CONTINUOUS
 62
     7
 10
642.9999999999999
 20
72.20710678119998
 30
0.0
 11
649.5710678118999
 21
78.07106781189995
 31
0.0
  0
LINE
  5
1F2
  8
0
  6
CONTINUOUS
 62
     7
 10
642.7499999999999
 20
76.60355339059996
 30
0.0
 11
642.9999999999999
 21
72.20710678119998
 31
0.0
  0
LINE
  5
1F3
  8
0
  6
CONTINUOUS
 62
     7
 10
642.7499999999999
 20
76.60355339059996
 30
0.0
 11
642.7499999999999
 21
82.09718432759996
 31
0.0
  0
LINE
  5
1F4
  8
0
  6
CONTINUOUS
 62
     7
 10
642.2499999999999
 20
82.09718432759996
 30
0.0
 11
642.2499999999999
 21
76.60355339059996
 31
0.0
  0
LINE
  5
1F5
  8
0
  6
CONTINUOUS
 62
     7
 10
641.9999999999999
 20
72.20710678119998
 30
0.0
 11
642.2499999999999
 21
76.60355339059996
 31
0.0
  0
LINE
  5
1F6
  8
0
  6
CONTINUOUS
 62
     7
 10
635.4289321880999
 20
78.07106781189995
 30
0.0
 11
641.9999999999999
 21
72.20710678119998
 31
0.0
  0
LINE
  5
1F7
  8
0
  6
CONTINUOUS
 62
     7
 10
641.2928932187999
 20
71.49999999999999
 30
0.0
 11
635.4289321880999
 21
78.07106781189995
 31
0.0
  0
LINE
  5
1F8
  8
0
  6
CONTINUOUS
 62
     7
 10
632.4999999999998
 20
70.99999999999997
 30
0.0
 11
641.2928932187999
 21
71.49999999999999
 31
0.0
  0
LINE
  5
1F9
  8
0
  6
CONTINUOUS
 62
     7
 10
641.2928932187999
 20
70.49999999999997
 30
0.0
 11
632.4999999999998
 21
70.99999999999997
 31
0.0
  0
LINE
  5
1FA
  8
0
  6
CONTINUOUS
 62
     7
 10
635.4289321880999
 20
63.92893218809997
 30
0.0
 11
641.2928932187999
 21
70.49999999999997
 31
0.0
  0
LINE
  5
1FB
  8
0
  6
CONTINUOUS
 62
     7
 10
641.9999999999999
 20
69.79289321879995
 30
0.0
 11
635.4289321880999
 21
63.92893218809997
 31
0.0
  0
LINE
  5
1FC
  8
0
  6
CONTINUOUS
 62
     7
 10
642.2499999999999
 20
65.39644660939997
 30
0.0
 11
641.9999999999999
 21
69.79289321879995
 31
0.0
  0
ARC
  5
1FD
  8
0
  6
CONTINUOUS
 62
     7
 10
642.4999999999999
 20
70.99999999999997
 30
0.0
 40
11.10000000000011
 50
88.7094453911
 51
91.29055460890002
  0
TEXT
  5
1FE
  8
0
  6
CONTINUOUS
 62
     7
 10
629.3970957859196
 20
140.365202575966
 30
0.0
 40
7.0
  1
MTKB-1SBP
  0
LINE
  5
1FF
  8
1
  6
CONTINUOUS
 62
     7
 10
581.9121307108475
 20
164.2467791569009
 30
0.0
 11
581.9193945656401
 21
164.2661694434758
 31
0.0
  0
LINE
  5
200
  8
1
  6
CONTINUOUS
 62
     7
 10
579.8016896488738
 20
162.5797609997802
 30
0.0
 11
579.8193472919816
 21
162.5818066754715
 31
0.0
  0
LINE
  5
201
  8
1
  6
CONTINUOUS
 62
     7
 10
528.9231903791894
 20
160.9818066754715
 30
0.0
 11
528.9231903791894
 21
156.0818066754715
 31
0.0
  0
LINE
  5
202
  8
1
  6
CONTINUOUS
 62
     7
 10
530.9999999999999
 20
164.5318066754715
 30
0.0
 11
579.0
 21
164.5318066754715
 31
0.0
  0
LINE
  5
203
  8
1
  6
CONTINUOUS
 62
     7
 10
528.1119382988367
 20
164.1451901911077
 30
0.0
 11
528.1139161295999
 21
164.1271954958931
 31
0.0
  0
LINE
  5
204
  8
1
  6
CONTINUOUS
 62
     7
 10
528.0931776632474
 20
164.2307865485566
 30
0.0
 11
528.0991290663617
 21
164.2102772483372
 31
0.0
  0
LINE
  5
205
  8
1
  6
CONTINUOUS
 62
     7
 10
528.5618368230946
 20
162.5798195700077
 30
0.0
 11
528.5455107779418
 21
162.5818066754715
 31
0.0
  0
LINE
  5
206
  8
1
  6
CONTINUOUS
 62
     7
 10
581.9932407889323
 20
164.3931486959586
 30
0.0
 11
582.0065281815466
 21
164.4090831495326
 31
0.0
  0
LINE
  5
207
  8
1
  6
CONTINUOUS
 62
     7
 10
522.9999999999999
 20
164.5818066754715
 30
0.0
 11
530.9999999999999
 21
164.5818066754715
 31
0.0
  0
LINE
  5
208
  8
1
  6
CONTINUOUS
 62
     7
 10
527.8755281700007
 20
164.5085470458638
 30
0.0
 11
527.8936942241851
 21
164.4969610037112
 31
0.0
  0
LINE
  5
209
  8
1
  6
CONTINUOUS
 62
     7
 10
528.1152386129187
 20
164.1091468047428
 30
0.0
 11
528.1158019929716
 21
164.095481899058
 31
0.0
  0
LINE
  5
20A
  8
1
  6
CONTINUOUS
 62
     7
 10
539.0000000000001
 20
160.9818066754715
 30
0.0
 11
540.6500000000001
 21
160.9818066754715
 31
0.0
  0
LINE
  5
20B
  8
1
  6
CONTINUOUS
 62
     7
 10
527.9113469337899
 20
164.4846069170285
 30
0.0
 11
527.9285310557933
 21
164.4714442696179
 31
0.0
  0
LINE
  5
20C
  8
1
  6
CONTINUOUS
 62
     7
 10
582.0502071244701
 20
164.4534265322389
 30
0.0
 11
582.066402713382
 21
164.4673306120608
 31
0.0
  0
LINE
  5
20D
  8
1
  6
CONTINUOUS
 62
     7
 10
581.8908905829084
 20
164.1642929161862
 30
0.0
 11
581.8948712709442
 21
164.1852265840672
 31
0.0
  0
LINE
  5
20E
  8
1
  6
CONTINUOUS
 62
     7
 10
535.9317672554587
 20
156.0818066754715
 30
0.0
 11
539.0
 21
156.0818066754715
 31
0.0
  0
LINE
  5
20F
  8
1
  6
CONTINUOUS
 62
     7
 10
581.8840101175402
 20
164.0818066754715
 30
0.0
 11
581.8844424172562
 21
164.1025087043941
 31
0.0
  0
LINE
  5
210
  8
1
  6
CONTINUOUS
 62
     7
 10
570.9999999999999
 20
162.5818066754715
 30
0.0
 11
570.9999999999999
 21
160.9818066754715
 31
0.0
  0
LINE
  5
211
  8
1
  6
CONTINUOUS
 62
     7
 10
539.0000000000001
 20
156.0818066754715
 30
0.0
 11
539.0000000000001
 21
160.9818066754715
 31
0.0
  0
LINE
  5
212
  8
1
  6
CONTINUOUS
 62
     7
 10
539.0000000000001
 20
160.9818066754715
 30
0.0
 11
539.0000000000001
 21
162.5818066754715
 31
0.0
  0
LINE
  5
213
  8
1
  6
CONTINUOUS
 62
     7
 10
580.5
 20
166.1818066754715
 30
0.0
 11
580.5
 21
164.5818066754715
 31
0.0
  0
LINE
  5
214
  8
1
  6
CONTINUOUS
 62
     7
 10
528.6433600868072
 20
162.5145596167866
 30
0.0
 11
528.5618368230946
 21
162.5798195700077
 31
0.0
  0
LINE
  5
215
  8
1
  6
CONTINUOUS
 62
     7
 10
527.8325570745659
 20
164.5318903120247
 30
0.0
 11
527.8383443367962
 21
164.5290561211423
 31
0.0
  0
LINE
  5
216
  8
1
  6
CONTINUOUS
 62
     7
 10
579.0
 20
164.5818066754715
 30
0.0
 11
586.9999999999999
 21
164.5818066754715
 31
0.0
  0
LINE
  5
217
  8
1
  6
CONTINUOUS
 62
     7
 10
579.6525124682845
 20
162.4123220059463
 30
0.0
 11
579.7137232846808
 21
162.5129053791735
 31
0.0
  0
LINE
  5
218
  8
1
  6
CONTINUOUS
 62
     7
 10
582.0065281815467
 20
164.4090831495326
 30
0.0
 11
582.0204763647743
 21
164.4244665977602
 31
0.0
  0
LINE
  5
219
  8
1
  6
CONTINUOUS
 62
     7
 10
629.0181933245284
 20
186.0500000000001
 30
0.0
 11
636.0181933245284
 21
187.7500000000001
 31
0.0
  0
LINE
  5
21A
  8
1
  6
CONTINUOUS
 62
     7
 10
580.5
 20
166.1818066754715
 30
0.0
 11
583.0
 21
166.1818066754715
 31
0.0
  0
LINE
  5
21B
  8
1
  6
CONTINUOUS
 62
     7
 10
581.8997480621005
 20
164.2059898715556
 30
0.0
 11
581.9055061456454
 21
164.226526241538
 31
0.0
  0
LINE
  5
21C
  8
1
  6
CONTINUOUS
 62
     7
 10
582.0000000000001
 20
164.0818066754715
 30
0.0
 11
581.8840101175404
 21
164.0818066754715
 31
0.0
  0
LINE
  5
21D
  8
1
  6
CONTINUOUS
 62
     7
 10
527.0000000000001
 20
166.1818066754715
 30
0.0
 11
525.0
 21
166.1818066754715
 31
0.0
  0
LINE
  5
21E
  8
1
  6
CONTINUOUS
 62
     7
 10
528.1159898824596
 20
164.0818066754715
 30
0.0
 11
527.9999999999999
 21
164.0818066754715
 31
0.0
  0
LINE
  5
21F
  8
1
  6
CONTINUOUS
 62
     7
 10
582.0204763647743
 20
164.4244665977602
 30
0.0
 11
582.0350483439654
 21
164.4392605541572
 31
0.0
  0
LINE
  5
220
  8
1
  6
CONTINUOUS
 62
     7
 10
581.9459307979977
 20
164.3223350681702
 30
0.0
 11
581.9566108848379
 21
164.3407701000872
 31
0.0
  0
LINE
  5
221
  8
1
  6
CONTINUOUS
 62
     7
 10
582.0831902761088
 20
164.4805451756511
 30
0.0
 11
582.1005232994838
 21
164.493035764445
 31
0.0
  0
LINE
  5
222
  8
1
  6
CONTINUOUS
 62
     7
 10
581.8948712709442
 20
164.1852265840672
 30
0.0
 11
581.8997480621005
 21
164.2059898715556
 31
0.0
  0
LINE
  5
223
  8
1
  6
CONTINUOUS
 62
     7
 10
529.7233309156449
 20
164.0818066754715
 30
0.0
 11
529.7233309156449
 21
162.5818066754715
 31
0.0
  0
LINE
  5
224
  8
1
  6
CONTINUOUS
 62
     7
 10
664.4181933245286
 20
282.2500000000002
 30
0.0
 11
664.4181933245286
 21
273.3500000000001
 31
0.0
  0
ARC
  5
225
  8
1
  6
CONTINUOUS
 62
     7
 10
534.6000000000001
 20
132.1818066754716
 30
0.0
 40
6.599999999999939
 50
180.0000000000007
 51
269.9999999999995
  0
LINE
  5
226
  8
1
  6
CONTINUOUS
 62
     7
 10
581.9802985072245
 20
164.3762249229878
 30
0.0
 11
581.9932407889323
 21
164.3931486959586
 31
0.0
  0
LINE
  5
227
  8
1
  6
CONTINUOUS
 62
     7
 10
528.0
 20
140.5818066754715
 30
0.0
 11
528.0
 21
164.0818066754715
 31
0.0
  0
LINE
  5
228
  8
1
  6
CONTINUOUS
 62
     7
 10
663.2181933245284
 20
282.2500000000002
 30
0.0
 11
636.0181933245285
 21
282.2500000000002
 31
0.0
  0
ARC
  5
229
  8
1
  6
CONTINUOUS
 62
     7
 10
526.8882171333548
 20
161.0991615615625
 30
0.0
 40
3.697257881011273
 50
358.181065680913
 51
21.19292066168879
  0
LINE
  5
22A
  8
1
  6
CONTINUOUS
 62
     7
 10
582.1545391499711
 20
164.5254402136648
 30
0.0
 11
582.1674454008092
 21
164.5318915046823
 31
0.0
  0
LINE
  5
22B
  8
1
  6
CONTINUOUS
 62
     7
 10
530.9999999999999
 20
164.5818066754715
 30
0.0
 11
579.0
 21
164.5818066754715
 31
0.0
  0
LINE
  5
22C
  8
1
  6
CONTINUOUS
 62
     7
 10
541.7940354384847
 20
160.9818066754715
 30
0.0
 11
543.6531942820899
 21
160.9818066754715
 31
0.0
  0
LINE
  5
22D
  8
1
  6
CONTINUOUS
 62
     7
 10
587.0
 20
164.5318066754715
 30
0.0
 11
587.0
 21
164.5818066754715
 31
0.0
  0
LINE
  5
22E
  8
1
  6
CONTINUOUS
 62
     7
 10
527.0000000000001
 20
166.1818066754715
 30
0.0
 11
527.0000000000001
 21
164.5818066754715
 31
0.0
  0
ARC
  5
22F
  8
1
  6
CONTINUOUS
 62
     7
 10
583.1929591280018
 20
161.0931814753548
 30
0.0
 40
3.778213108038164
 50
159.5650312180111
 51
181.6892193061376
  0
LINE
  5
230
  8
1
  6
CONTINUOUS
 62
     7
 10
580.2766690843553
 20
164.0818066754715
 30
0.0
 11
580.2766690843553
 21
162.5818066754715
 31
0.0
  0
LINE
  5
231
  8
1
  6
CONTINUOUS
 62
     7
 10
581.0768096208105
 20
156.0818066754715
 30
0.0
 11
580.2373668677753
 21
156.0818066754715
 31
0.0
  0
LINE
  5
232
  8
1
  6
CONTINUOUS
 62
     7
 10
570.9999999999999
 20
160.9818066754715
 30
0.0
 11
570.9999999999999
 21
156.0818066754715
 31
0.0
  0
ARC
  5
233
  8
1
  6
CONTINUOUS
 62
     7
 10
524.9300133225474
 20
161.0958663771036
 30
0.0
 40
3.994805705066051
 50
358.3638684205335
 51
19.27964389098446
  0
LINE
  5
234
  8
1
  6
CONTINUOUS
 62
     7
 10
582.0000000000001
 20
132.1818066754716
 30
0.0
 11
582.0
 21
140.5818066754715
 31
0.0
  0
LINE
  5
235
  8
1
  6
CONTINUOUS
 62
     7
 10
579.0
 20
164.5318066754715
 30
0.0
 11
579.0
 21
164.5818066754715
 31
0.0
  0
LINE
  5
236
  8
1
  6
CONTINUOUS
 62
     7
 10
528.1158019929715
 20
164.095481899058
 30
0.0
 11
528.1159898824598
 21
164.0818066754715
 31
0.0
  0
LINE
  5
237
  8
1
  6
CONTINUOUS
 62
     7
 10
543.6531942820897
 20
162.5818066754715
 30
0.0
 11
566.3468057179102
 21
162.5818066754715
 31
0.0
  0
LINE
  5
238
  8
1
  6
CONTINUOUS
 62
     7
 10
527.8936942241852
 20
164.4969610037112
 30
0.0
 11
527.9113469337899
 21
164.4846069170285
 31
0.0
  0
LINE
  5
239
  8
1
  6
CONTINUOUS
 62
     7
 10
527.8383443367962
 20
164.5290561211423
 30
0.0
 11
527.8571527823835
 21
164.5191941540345
 31
0.0
  0
LINE
  5
23A
  8
1
  6
CONTINUOUS
 62
     7
 10
528.1159898824596
 20
162.5818066754715
 30
0.0
 11
528.5455107779414
 21
162.5818066754715
 31
0.0
  0
LINE
  5
23B
  8
1
  6
CONTINUOUS
 62
     7
 10
543.6531942820897
 20
160.9818066754715
 30
0.0
 11
566.3468057179102
 21
160.9818066754715
 31
0.0
  0
LINE
  5
23C
  8
1
  6
CONTINUOUS
 62
     7
 10
582.1362252163691
 20
164.5154745729617
 30
0.0
 11
582.154539149971
 21
164.5254402136648
 31
0.0
  0
LINE
  5
23D
  8
1
  6
CONTINUOUS
 62
     7
 10
585.0
 20
166.1818066754715
 30
0.0
 11
585.0
 21
164.5818066754715
 31
0.0
  0
LINE
  5
23E
  8
1
  6
CONTINUOUS
 62
     7
 10
530.272969418917
 20
162.5288782570377
 30
0.0
 11
530.3354238278525
 21
162.4357549343237
 31
0.0
  0
LINE
  5
23F
  8
1
  6
CONTINUOUS
 62
     7
 10
527.9892737551698
 20
164.4138520744106
 30
0.0
 11
528.0030470404394
 21
164.39773782138
 31
0.0
  0
LINE
  5
240
  8
1
  6
CONTINUOUS
 62
     7
 10
579.4163879392509
 20
156.0818066754715
 30
0.0
 11
579.4163879392509
 21
160.9818066754715
 31
0.0
  0
LINE
  5
241
  8
1
  6
CONTINUOUS
 62
     7
 10
623.8181933245284
 20
258.5000000000001
 30
0.0
 11
623.8181933245284
 21
257.5000000000001
 31
0.0
  0
LINE
  5
242
  8
1
  6
CONTINUOUS
 62
     7
 10
623.8181933245284
 20
241.0000000000001
 30
0.0
 11
623.8181933245284
 21
255.5000000000002
 31
0.0
  0
LINE
  5
243
  8
1
  6
CONTINUOUS
 62
     7
 10
582.1183552703407
 20
164.5047679198777
 30
0.0
 11
582.1362252163692
 21
164.5154745729617
 31
0.0
  0
ARC
  5
244
  8
1
  6
CONTINUOUS
 62
     7
 10
527.5000000000001
 20
164.0818066754715
 30
0.0
 40
0.4999999999999449
 50
0.0
 51
64.158067236833
  0
LINE
  5
245
  8
1
  6
CONTINUOUS
 62
     7
 10
629.0181933245284
 20
283.0500000000001
 30
0.0
 11
629.0181933245284
 21
282.3708876084862
 31
0.0
  0
LINE
  5
246
  8
1
  6
CONTINUOUS
 62
     7
 10
522.9999999999999
 20
164.5318066754715
 30
0.0
 11
530.9999999999999
 21
164.5318066754715
 31
0.0
  0
LINE
  5
247
  8
1
  6
CONTINUOUS
 62
     7
 10
581.9363167622038
 20
164.3039960770095
 30
0.0
 11
581.9459307979977
 21
164.3223350681702
 31
0.0
  0
LINE
  5
248
  8
1
  6
CONTINUOUS
 62
     7
 10
528.1069296519047
 20
164.1763577401333
 30
0.0
 11
528.1093091044947
 21
164.163095264568
 31
0.0
  0
LINE
  5
249
  8
1
  6
CONTINUOUS
 62
     7
 10
528.0863559958792
 20
164.2510230606258
 30
0.0
 11
528.0931776632476
 21
164.2307865485566
 31
0.0
  0
LINE
  5
24A
  8
1
  6
CONTINUOUS
 62
     7
 10
528.0288355801774
 20
164.3633206851743
 30
0.0
 11
528.0406489447615
 21
164.3452273479032
 31
0.0
  0
LINE
  5
24B
  8
1
  6
CONTINUOUS
 62
     7
 10
579.7137232846808
 20
162.5129053791735
 30
0.0
 11
579.8016896488738
 21
162.5797609997802
 31
0.0
  0
LINE
  5
24C
  8
1
  6
CONTINUOUS
 62
     7
 10
664.4181933245286
 20
196.6500000000001
 30
0.0
 11
664.4181933245286
 21
187.7500000000001
 31
0.0
  0
LINE
  5
24D
  8
1
  6
CONTINUOUS
 62
     7
 10
528.9231903791896
 20
156.0818066754715
 30
0.0
 11
529.7626331322247
 21
156.0818066754715
 31
0.0
  0
LINE
  5
24E
  8
1
  6
CONTINUOUS
 62
     7
 10
527.9599877930697
 20
164.4440301029049
 30
0.0
 11
527.9748310478276
 21
164.4293691950121
 31
0.0
  0
LINE
  5
24F
  8
1
  6
CONTINUOUS
 62
     7
 10
528.0163112181713
 20
164.3808064184686
 30
0.0
 11
528.0288355801774
 21
164.3633206851743
 31
0.0
  0
LINE
  5
250
  8
1
  6
CONTINUOUS
 62
     7
 10
530.1806527080182
 20
162.5818066754715
 30
0.0
 11
530.272969418917
 21
162.5288782570377
 31
0.0
  0
LINE
  5
251
  8
1
  6
CONTINUOUS
 62
     7
 10
581.8844424172562
 20
164.1025087043941
 30
0.0
 11
581.8857362888971
 21
164.1231927630476
 31
0.0
  0
LINE
  5
252
  8
1
  6
CONTINUOUS
 62
     7
 10
581.8878871912012
 20
164.1438053380918
 30
0.0
 11
581.8908905829082
 21
164.1642929161862
 31
0.0
  0
LINE
  5
253
  8
1
  6
CONTINUOUS
 62
     7
 10
528.0030470404394
 20
164.39773782138
 30
0.0
 11
528.0163112181712
 21
164.3808064184686
 31
0.0
  0
LINE
  5
254
  8
1
  6
CONTINUOUS
 62
     7
 10
581.9566108848379
 20
164.3407701000872
 30
0.0
 11
581.9680776635532
 21
164.3587493880285
 31
0.0
  0
LINE
  5
255
  8
1
  6
CONTINUOUS
 62
     7
 10
530.583612060749
 20
156.0818066754715
 30
0.0
 11
530.583612060749
 21
160.9818066754715
 31
0.0
  0
LINE
  5
256
  8
1
  6
CONTINUOUS
 62
     7
 10
581.9274639670883
 20
164.285257976145
 30
0.0
 11
581.9363167622038
 21
164.3039960770095
 31
0.0
  0
LINE
  5
257
  8
1
  6
CONTINUOUS
 62
     7
 10
625.4181933245284
 20
240.0000000000001
 30
0.0
 11
623.8181933245284
 21
240.0000000000001
 31
0.0
  0
ARC
  5
258
  8
1
  6
CONTINUOUS
 62
     7
 10
582.5
 20
164.0818066754715
 30
0.0
 40
0.4999999999999449
 50
115.841932763167
 51
180.0
  0
LINE
  5
259
  8
1
  6
CONTINUOUS
 62
     7
 10
528.0612181746567
 20
164.3088739634174
 30
0.0
 11
528.0703508678282
 21
164.2900768590202
 31
0.0
  0
LINE
  5
25A
  8
1
  6
CONTINUOUS
 62
     7
 10
627.4181933245284
 20
188.7514368290686
 30
0.0
 11
627.4181933245284
 21
195.6500000000001
 31
0.0
  0
LINE
  5
25B
  8
1
  6
CONTINUOUS
 62
     7
 10
623.8181933245284
 20
229.0000000000001
 30
0.0
 11
623.8181933245284
 21
214.5000000000002
 31
0.0
  0
LINE
  5
25C
  8
1
  6
CONTINUOUS
 62
     7
 10
528.1139161296
 20
164.1271954958931
 30
0.0
 11
528.1152386129187
 21
164.1091468047428
 31
0.0
  0
LINE
  5
25D
  8
1
  6
CONTINUOUS
 62
     7
 10
528.0513090994854
 20
164.3272736556873
 30
0.0
 11
528.0612181746567
 21
164.3088739634174
 31
0.0
  0
LINE
  5
25E
  8
1
  6
CONTINUOUS
 62
     7
 10
527.9285310557931
 20
164.4714442696179
 30
0.0
 11
527.9445409978746
 21
164.4580671581266
 31
0.0
  0
LINE
  5
25F
  8
1
  6
CONTINUOUS
 62
     7
 10
582.066402713382
 20
164.4673306120608
 30
0.0
 11
582.0831902761087
 21
164.4805451756511
 31
0.0
  0
LINE
  5
260
  8
1
  6
CONTINUOUS
 62
     7
 10
582.1005232994836
 20
164.493035764445
 30
0.0
 11
582.1183552703405
 21
164.5047679198777
 31
0.0
  0
LINE
  5
261
  8
1
  6
CONTINUOUS
 62
     7
 10
625.9181933245284
 20
230.0000000000001
 30
0.0
 11
625.4681933245283
 21
230.0000000000001
 31
0.0
  0
LINE
  5
262
  8
1
  6
CONTINUOUS
 62
     7
 10
528.0406489447615
 20
164.3452273479032
 30
0.0
 11
528.0513090994854
 21
164.3272736556873
 31
0.0
  0
LINE
  5
263
  8
1
  6
CONTINUOUS
 62
     7
 10
625.4181933245284
 20
241.0000000000001
 30
0.0
 11
623.8181933245284
 21
241.0000000000001
 31
0.0
  0
LINE
  5
264
  8
1
  6
CONTINUOUS
 62
     7
 10
528.078681876553
 20
164.270930930422
 30
0.0
 11
528.0863559958791
 21
164.2510230606258
 31
0.0
  0
LINE
  5
265
  8
1
  6
CONTINUOUS
 62
     7
 10
664.4181933245286
 20
266.75
 30
0.0
 11
664.4181933245286
 21
266.3364642676295
 31
0.0
  0
LINE
  5
266
  8
1
  6
CONTINUOUS
 62
     7
 10
625.4181933245284
 20
229.0000000000001
 30
0.0
 11
623.8181933245284
 21
229.0000000000001
 31
0.0
  0
LINE
  5
267
  8
1
  6
CONTINUOUS
 62
     7
 10
528.0703508678283
 20
164.2900768590202
 30
0.0
 11
528.078681876553
 21
164.270930930422
 31
0.0
  0
LINE
  5
268
  8
1
  6
CONTINUOUS
 62
     7
 10
528.0
 20
132.1818066754716
 30
0.0
 11
528.0
 21
140.5818066754715
 31
0.0
  0
LINE
  5
269
  8
1
  6
CONTINUOUS
 62
     7
 10
528.0991290663617
 20
164.2102772483372
 30
0.0
 11
528.1041923929257
 21
164.1895510140904
 31
0.0
  0
LINE
  5
26A
  8
1
  6
CONTINUOUS
 62
     7
 10
528.1093091044946
 20
164.163095264568
 30
0.0
 11
528.1119382988367
 21
164.1451901911077
 31
0.0
  0
LINE
  5
26B
  8
1
  6
CONTINUOUS
 62
     7
 10
581.9680776635531
 20
164.3587493880285
 30
0.0
 11
581.9802985072245
 21
164.3762249229878
 31
0.0
  0
LINE
  5
26C
  8
1
  6
CONTINUOUS
 62
     7
 10
625.4181933245284
 20
230.0000000000001
 30
0.0
 11
623.8181933245284
 21
230.0000000000001
 31
0.0
  0
LINE
  5
26D
  8
1
  6
CONTINUOUS
 62
     7
 10
633.9181933245284
 20
269.0955882352942
 30
0.0
 11
633.9181933245284
 21
273.3500000000001
 31
0.0
  0
LINE
  5
26E
  8
1
  6
CONTINUOUS
 62
     7
 10
625.9181933245284
 20
262.0000000000001
 30
0.0
 11
627.4181933245284
 21
262.0000000000001
 31
0.0
  0
ARC
  5
26F
  8
1
  6
CONTINUOUS
 62
     7
 10
657.8181933245284
 20
266.7500000000001
 30
0.0
 40
6.599999999999939
 50
359.9999999999993
 51
90.00000000000021
  0
LINE
  5
270
  8
1
  6
CONTINUOUS
 62
     7
 10
623.8181933245284
 20
258.5000000000001
 30
0.0
 11
623.8181933245284
 21
269.0000000000001
 31
0.0
  0
LINE
  5
271
  8
1
  6
CONTINUOUS
 62
     7
 10
664.4181933245286
 20
259.0468093345759
 30
0.0
 11
664.4181933245286
 21
252.1158379747843
 31
0.0
  0
LINE
  5
272
  8
1
  6
CONTINUOUS
 62
     7
 10
629.0181933245284
 20
283.95
 30
0.0
 11
636.0181933245284
 21
282.2500000000001
 31
0.0
  0
LINE
  5
273
  8
1
  6
CONTINUOUS
 62
     7
 10
625.9181933245284
 20
230.0000000000001
 30
0.0
 11
628.9181933245284
 21
230.0000000000001
 31
0.0
  0
LINE
  5
274
  8
1
  6
CONTINUOUS
 62
     7
 10
627.4181933245284
 20
208.0000000000001
 30
0.0
 11
625.9181933245284
 21
208.0000000000001
 31
0.0
  0
LINE
  5
275
  8
1
  6
CONTINUOUS
 62
     7
 10
625.9181933245284
 20
210.5000000000001
 30
0.0
 11
625.9181933245284
 21
208.0000000000002
 31
0.0
  0
LINE
  5
276
  8
1
  6
CONTINUOUS
 62
     7
 10
664.4181933245286
 20
203.6635357323708
 30
0.0
 11
664.4181933245286
 21
203.2500000000002
 31
0.0
  0
LINE
  5
277
  8
1
  6
CONTINUOUS
 62
     7
 10
623.8181933245284
 20
271.0000000000001
 30
0.0
 11
625.4181933245284
 21
271.0000000000001
 31
0.0
  0
LINE
  5
278
  8
1
  6
CONTINUOUS
 62
     7
 10
625.9181933245284
 20
259.5000000000001
 30
0.0
 11
625.9181933245284
 21
240.0000000000001
 31
0.0
  0
LINE
  5
279
  8
1
  6
CONTINUOUS
 62
     7
 10
630.0181933245285
 20
198.2500000000001
 30
0.0
 11
633.9181933245286
 21
198.2500000000001
 31
0.0
  0
LINE
  5
27A
  8
1
  6
CONTINUOUS
 62
     7
 10
623.8181933245284
 20
230.0000000000001
 30
0.0
 11
623.8181933245284
 21
229.0000000000001
 31
0.0
  0
LINE
  5
27B
  8
1
  6
CONTINUOUS
 62
     7
 10
623.8181933245284
 20
256.5000000000001
 30
0.0
 11
623.8181933245284
 21
255.5000000000002
 31
0.0
  0
ARC
  5
27C
  8
1
  6
CONTINUOUS
 62
     7
 10
628.9181933245285
 20
239.5000000000001
 30
0.0
 40
0.4999999999999449
 50
0.0
 51
90.00000000000006
  0
LINE
  5
27D
  8
1
  6
CONTINUOUS
 62
     7
 10
629.4181933245284
 20
230.5000000000001
 30
0.0
 11
629.4181933245284
 21
239.5000000000001
 31
0.0
  0
LINE
  5
27E
  8
1
  6
CONTINUOUS
 62
     7
 10
627.4181933245284
 20
284.0000000000001
 30
0.0
 11
629.0181933245284
 21
284.0000000000001
 31
0.0
  0
LINE
  5
27F
  8
1
  6
CONTINUOUS
 62
     7
 10
629.0181933245284
 20
186.0000000000001
 30
0.0
 11
627.4181933245284
 21
186.0000000000001
 31
0.0
  0
LINE
  5
280
  8
1
  6
CONTINUOUS
 62
     7
 10
633.9181933245284
 20
266.5000000000001
 30
0.0
 11
633.9181933245284
 21
269.0955882352943
 31
0.0
  0
LINE
  5
281
  8
1
  6
CONTINUOUS
 62
     7
 10
633.9181933245284
 20
200.904411764706
 30
0.0
 11
633.9181933245284
 21
196.6500000000001
 31
0.0
  0
LINE
  5
282
  8
1
  6
CONTINUOUS
 62
     7
 10
625.4681933245283
 20
283.9999999999998
 30
0.0
 11
625.4681933245283
 21
291.9999999999999
 31
0.0
  0
LINE
  5
283
  8
1
  6
CONTINUOUS
 62
     7
 10
633.9181933245284
 20
271.7500000000001
 30
0.0
 11
630.0181933245283
 21
271.7500000000001
 31
0.0
  0
LINE
  5
284
  8
1
  6
CONTINUOUS
 62
     7
 10
629.0181933245284
 20
266.5000000000001
 30
0.0
 11
633.9181933245285
 21
266.5000000000001
 31
0.0
  0
ARC
  5
285
  8
1
  6
CONTINUOUS
 62
     7
 10
630.0181933245285
 20
195.6500000000001
 30
0.0
 40
2.599999999999936
 50
90.0
 51
180.0
  0
LINE
  5
286
  8
1
  6
CONTINUOUS
 62
     7
 10
629.0181933245284
 20
203.5000000000001
 30
0.0
 11
633.9181933245285
 21
203.5000000000001
 31
0.0
  0
LINE
  5
287
  8
1
  6
CONTINUOUS
 62
     7
 10
623.8181933245284
 20
211.5000000000001
 30
0.0
 11
623.8181933245284
 21
201.0000000000001
 31
0.0
  0
LINE
  5
288
  8
1
  6
CONTINUOUS
 62
     7
 10
623.8181933245284
 20
211.5000000000001
 30
0.0
 11
623.8181933245284
 21
212.5000000000001
 31
0.0
  0
LINE
  5
289
  8
1
  6
CONTINUOUS
 62
     7
 10
627.4181933245284
 20
274.3500000000001
 30
0.0
 11
627.4181933245284
 21
281.2485631709316
 31
0.0
  0
LINE
  5
28A
  8
1
  6
CONTINUOUS
 62
     7
 10
623.8181933245284
 20
213.5000000000001
 30
0.0
 11
623.8181933245284
 21
214.5000000000001
 31
0.0
  0
LINE
  5
28B
  8
1
  6
CONTINUOUS
 62
     7
 10
629.0181933245284
 20
188.7514368290686
 30
0.0
 11
629.0181933245284
 21
196.6500000000001
 31
0.0
  0
ARC
  5
28C
  8
1
  6
CONTINUOUS
 62
     7
 10
629.0182173243968
 20
205.1000239998685
 30
0.0
 40
1.600024000048439
 50
180.0008594190898
 51
269.9991405809103
  0
LINE
  5
28D
  8
1
  6
CONTINUOUS
 62
     7
 10
623.8181933245284
 20
271.0000000000001
 30
0.0
 11
623.8181933245284
 21
269.0000000000001
 31
0.0
  0
LINE
  5
28E
  8
1
  6
CONTINUOUS
 62
     7
 10
623.8181933245284
 20
199.0000000000001
 30
0.0
 11
625.4181933245284
 21
199.0000000000001
 31
0.0
  0
LINE
  5
28F
  8
1
  6
CONTINUOUS
 62
     7
 10
627.4181933245284
 20
262.0000000000001
 30
0.0
 11
627.4181933245284
 21
264.9000000000001
 31
0.0
  0
ARC
  5
290
  8
1
  6
CONTINUOUS
 62
     7
 10
630.0181933245285
 20
274.3500000000001
 30
0.0
 40
0.9999999999998899
 50
180.0
 51
270.0
  0
ARC
  5
291
  8
1
  6
CONTINUOUS
 62
     7
 10
629.0182138608997
 20
264.8999794636288
 30
0.0
 40
1.600020536503211
 50
90.00073539518814
 51
179.9992646048119
  0
LINE
  5
292
  8
1
  6
CONTINUOUS
 62
     7
 10
629.0181933245284
 20
186.0000000000001
 30
0.0
 11
629.0181933245284
 21
188.7514368290686
 31
0.0
  0
LINE
  5
293
  8
1
  6
CONTINUOUS
 62
     7
 10
625.4681933245283
 20
178.0
 30
0.0
 11
625.4181933245284
 21
178.0
 31
0.0
  0
LINE
  5
294
  8
1
  6
CONTINUOUS
 62
     7
 10
625.9181933245284
 20
240.0000000000001
 30
0.0
 11
628.9181933245284
 21
240.0000000000001
 31
0.0
  0
LINE
  5
295
  8
1
  6
CONTINUOUS
 62
     7
 10
625.9181933245284
 20
208.0000000000001
 30
0.0
 11
625.4681107720908
 21
208.0000000000001
 31
0.0
  0
LINE
  5
296
  8
1
  6
CONTINUOUS
 62
     7
 10
623.8181933245284
 20
213.5000000000001
 30
0.0
 11
623.8181933245284
 21
212.5000000000001
 31
0.0
  0
ARC
  5
297
  8
1
  6
CONTINUOUS
 62
     7
 10
628.9181933245285
 20
230.5000000000001
 30
0.0
 40
0.4999999999999449
 50
269.9999999999999
 51
0.0
  0
ARC
  5
298
  8
1
  6
CONTINUOUS
 62
     7
 10
629.757607014829
 20
274.3500000000001
 30
0.0
 40
2.599999999999936
 50
205.8715584082986
 51
270.0
  0
LINE
  5
299
  8
1
  6
CONTINUOUS
 62
     7
 10
625.4681400197011
 20
262.0000000000001
 30
0.0
 11
625.9181933245284
 21
262.0000000000001
 31
0.0
  0
LINE
  5
29A
  8
1
  6
CONTINUOUS
 62
     7
 10
625.4681933245283
 20
240.0000000000001
 30
0.0
 11
625.9181933245284
 21
240.0000000000001
 31
0.0
  0
LINE
  5
29B
  8
1
  6
CONTINUOUS
 62
     7
 10
664.4181933245286
 20
252.1158379747843
 30
0.0
 11
664.4181933245286
 21
217.8841620252159
 31
0.0
  0
LINE
  5
29C
  8
1
  6
CONTINUOUS
 62
     7
 10
625.4181933245284
 20
178.0000000000001
 30
0.0
 11
625.4181933245284
 21
186.0
 31
0.0
  0
ARC
  5
29D
  8
1
  6
CONTINUOUS
 62
     7
 10
657.8181931470277
 20
203.2500000684215
 30
0.0
 40
6.60000017750062
 50
270.0000003801941
 51
359.9999994060228
  0
LINE
  5
29E
  8
1
  6
CONTINUOUS
 62
     7
 10
664.4181933245286
 20
266.3364642676292
 30
0.0
 11
664.4181933245286
 21
259.0468093345759
 31
0.0
  0
LINE
  5
29F
  8
1
  6
CONTINUOUS
 62
     7
 10
664.4181933245286
 20
210.9531906654242
 30
0.0
 11
664.4181933245286
 21
203.6635357323708
 31
0.0
  0
LINE
  5
2A0
  8
1
  6
CONTINUOUS
 62
     7
 10
627.4181933245284
 20
274.3500000000001
 30
0.0
 11
627.4181933245284
 21
273.2154764940145
 31
0.0
  0
LINE
  5
2A1
  8
1
  6
CONTINUOUS
 62
     7
 10
625.4681933245283
 20
283.9999999999998
 30
0.0
 11
625.4181933245284
 21
283.9999999999998
 31
0.0
  0
LINE
  5
2A2
  8
1
  6
CONTINUOUS
 62
     7
 10
629.0181933245284
 20
274.3500000000001
 30
0.0
 11
629.0181933245284
 21
281.2485631709316
 31
0.0
  0
LINE
  5
2A3
  8
1
  6
CONTINUOUS
 62
     7
 10
663.2181933245284
 20
282.2500000000002
 30
0.0
 11
664.4181933245286
 21
282.2500000000002
 31
0.0
  0
LINE
  5
2A4
  8
1
  6
CONTINUOUS
 62
     7
 10
625.9181933245284
 20
230.0000000000001
 30
0.0
 11
625.9181933245284
 21
210.5000000000001
 31
0.0
  0
LINE
  5
2A5
  8
1
  6
CONTINUOUS
 62
     7
 10
625.9181933245284
 20
262.0000000000001
 30
0.0
 11
625.9181933245284
 21
259.5000000000001
 31
0.0
  0
LINE
  5
2A6
  8
1
  6
CONTINUOUS
 62
     7
 10
623.8181933245284
 20
240.0000000000001
 30
0.0
 11
623.8181933245284
 21
241.0000000000001
 31
0.0
  0
LINE
  5
2A7
  8
1
  6
CONTINUOUS
 62
     7
 10
627.4181933245284
 20
205.1000000000001
 30
0.0
 11
627.4181933245284
 21
208.0000000000001
 31
0.0
  0
LINE
  5
2A8
  8
1
  6
CONTINUOUS
 62
     7
 10
623.8181933245284
 20
256.5000000000001
 30
0.0
 11
623.8181933245284
 21
257.5000000000001
 31
0.0
  0
LINE
  5
2A9
  8
1
  6
CONTINUOUS
 62
     7
 10
633.9181933245284
 20
203.5000000000001
 30
0.0
 11
633.9181933245284
 21
200.9044117647059
 31
0.0
  0
LINE
  5
2AA
  8
1
  6
CONTINUOUS
 62
     7
 10
664.4181933245286
 20
217.8841620252159
 30
0.0
 11
664.4181933245286
 21
210.9531906654242
 31
0.0
  0
LINE
  5
2AB
  8
1
  6
CONTINUOUS
 62
     7
 10
623.8181933245284
 20
199.0000000000001
 30
0.0
 11
623.8181933245284
 21
201.0000000000001
 31
0.0
  0
LINE
  5
2AC
  8
1
  6
CONTINUOUS
 62
     7
 10
664.4181933245286
 20
187.7500000000001
 30
0.0
 11
636.0181933245285
 21
187.7500000000001
 31
0.0
  0
LINE
  5
2AD
  8
1
  6
CONTINUOUS
 62
     7
 10
580.3256918278074
 20
164.5318263588255
 30
0.0
 11
580.2766690843553
 21
164.0818066754715
 31
0.0
  0
LINE
  5
2AE
  8
1
  6
CONTINUOUS
 62
     7
 10
580.2373668677753
 20
156.0818066754715
 30
0.0
 11
574.0682327445414
 21
156.0818066754715
 31
0.0
  0
LINE
  5
2AF
  8
1
  6
CONTINUOUS
 62
     7
 10
579.0
 20
164.5318066754715
 30
0.0
 11
586.9999999999999
 21
164.5318066754715
 31
0.0
  0
LINE
  5
2B0
  8
1
  6
CONTINUOUS
 62
     7
 10
529.5000000000001
 20
166.1818066754715
 30
0.0
 11
527.0000000000001
 21
166.1818066754715
 31
0.0
  0
LINE
  5
2B1
  8
1
  6
CONTINUOUS
 62
     7
 10
625.4681933245283
 20
178.0000000000001
 30
0.0
 11
625.4681933245283
 21
186.0
 31
0.0
  0
LINE
  5
2B2
  8
1
  6
CONTINUOUS
 62
     7
 10
625.4681933245283
 20
186.0
 30
0.0
 11
625.4181933245284
 21
186.0
 31
0.0
  0
LINE
  5
2B3
  8
1
  6
CONTINUOUS
 62
     7
 10
540.6500000000001
 20
160.9818066754715
 30
0.0
 11
541.7940354384848
 21
160.9818066754715
 31
0.0
  0
LINE
  5
2B4
  8
1
  6
CONTINUOUS
 62
     7
 10
625.4181933245284
 20
186.0
 30
0.0
 11
625.4181933245284
 21
283.9999999999999
 31
0.0
  0
LINE
  5
2B5
  8
1
  6
CONTINUOUS
 62
     7
 10
625.4681933245283
 20
186.0
 30
0.0
 11
625.4681933245283
 21
283.9999999999999
 31
0.0
  0
LINE
  5
2B6
  8
1
  6
CONTINUOUS
 62
     7
 10
625.4681933245283
 20
291.9999999999999
 30
0.0
 11
625.4181933245284
 21
291.9999999999999
 31
0.0
  0
LINE
  5
2B7
  8
1
  6
CONTINUOUS
 62
     7
 10
627.4181933245284
 20
186.0000000000001
 30
0.0
 11
627.4181933245284
 21
188.7514368290686
 31
0.0
  0
LINE
  5
2B8
  8
1
  6
CONTINUOUS
 62
     7
 10
566.3468057179102
 20
162.5818066754715
 30
0.0
 11
570.9999999999998
 21
162.5818066754715
 31
0.0
  0
LINE
  5
2B9
  8
1
  6
CONTINUOUS
 62
     7
 10
529.7626331322247
 20
156.0818066754715
 30
0.0
 11
535.9317672554588
 21
156.0818066754715
 31
0.0
  0
LINE
  5
2BA
  8
1
  6
CONTINUOUS
 62
     7
 10
570.9999999999999
 20
156.0818066754715
 30
0.0
 11
574.0682327445413
 21
156.0818066754715
 31
0.0
  0
LINE
  5
2BB
  8
1
  6
CONTINUOUS
 62
     7
 10
529.5000000000001
 20
166.1818066754715
 30
0.0
 11
529.5000000000001
 21
164.5818066754715
 31
0.0
  0
LINE
  5
2BC
  8
1
  6
CONTINUOUS
 62
     7
 10
664.4181933245286
 20
273.3500000000001
 30
0.0
 11
630.0181933245285
 21
273.3500000000001
 31
0.0
  0
LINE
  5
2BD
  8
1
  6
CONTINUOUS
 62
     7
 10
581.8840101175402
 20
162.5818066754715
 30
0.0
 11
581.8840101175402
 21
164.0818066754715
 31
0.0
  0
LINE
  5
2BE
  8
1
  6
CONTINUOUS
 62
     7
 10
581.4544892220583
 20
162.5818066754715
 30
0.0
 11
581.3681469723996
 21
162.529176025739
 31
0.0
  0
LINE
  5
2BF
  8
1
  6
CONTINUOUS
 62
     7
 10
581.4544892220583
 20
162.5818066754715
 30
0.0
 11
581.8840101175401
 21
162.5818066754715
 31
0.0
  0
LINE
  5
2C0
  8
1
  6
CONTINUOUS
 62
     7
 10
528.700783602575
 20
162.4148675584863
 30
0.0
 11
528.6433600868071
 21
162.5145596167866
 31
0.0
  0
LINE
  5
2C1
  8
1
  6
CONTINUOUS
 62
     7
 10
629.0181933245284
 20
284.0000000000001
 30
0.0
 11
629.0181933245284
 21
283.0500000000001
 31
0.0
  0
LINE
  5
2C2
  8
1
  6
CONTINUOUS
 62
     7
 10
581.3681469723997
 20
162.529176025739
 30
0.0
 11
581.3097442261802
 21
162.4365607832741
 31
0.0
  0
LINE
  5
2C3
  8
1
  6
CONTINUOUS
 62
     7
 10
629.0181933245284
 20
196.6500000000001
 30
0.0
 11
633.9181933245285
 21
196.6500000000001
 31
0.0
  0
LINE
  5
2C4
  8
1
  6
CONTINUOUS
 62
     7
 10
664.4181933245286
 20
196.6500000000001
 30
0.0
 11
629.0181933245285
 21
196.6500000000001
 31
0.0
  0
LINE
  5
2C5
  8
1
  6
CONTINUOUS
 62
     7
 10
539.0000000000001
 20
162.5818066754715
 30
0.0
 11
543.6531942820898
 21
162.5818066754715
 31
0.0
  0
LINE
  5
2C6
  8
1
  6
CONTINUOUS
 62
     7
 10
583.0
 20
166.1818066754715
 30
0.0
 11
585.0
 21
166.1818066754715
 31
0.0
  0
LINE
  5
2C7
  8
1
  6
CONTINUOUS
 62
     7
 10
627.4181933245284
 20
284.0000000000001
 30
0.0
 11
627.4181933245284
 21
281.2485631709316
 31
0.0
  0
LINE
  5
2C8
  8
1
  6
CONTINUOUS
 62
     7
 10
625.4181933245284
 20
283.9999999999998
 30
0.0
 11
625.4181933245284
 21
291.9999999999999
 31
0.0
  0
LINE
  5
2C9
  8
1
  6
CONTINUOUS
 62
     7
 10
575.3999999999999
 20
125.5818066754716
 30
0.0
 11
534.5999999999999
 21
125.5818066754716
 31
0.0
  0
LINE
  5
2CA
  8
1
  6
CONTINUOUS
 62
     7
 10
580.5
 20
165.0220605162429
 30
0.0
 11
580.3373814528165
 21
164.5819130630211
 31
0.0
  0
LINE
  5
2CB
  8
1
  6
CONTINUOUS
 62
     7
 10
529.6626244613796
 20
164.5818890591291
 30
0.0
 11
529.5000000000001
 21
165.0220605162429
 31
0.0
  0
LINE
  5
2CC
  8
1
  6
CONTINUOUS
 62
     7
 10
629.0181933245284
 20
282.3708876084862
 30
0.0
 11
629.0181933245284
 21
281.2485631709317
 31
0.0
  0
ARC
  5
2CD
  8
1
  6
CONTINUOUS
 62
     7
 10
584.9852699496724
 20
161.1020114283089
 30
0.0
 40
3.91030834140893
 50
160.0445092164814
 51
181.7615772432041
  0
LINE
  5
2CE
  8
1
  6
CONTINUOUS
 62
     7
 10
529.7233309156449
 20
164.0818066754715
 30
0.0
 11
529.6742987961155
 21
164.5318688866889
 31
0.0
  0
LINE
  5
2CF
  8
2
  6
CONTINUOUS
 62
     7
 10
642.7499999999999
 20
8.084567308700025
 30
0.0
 11
670.1499999999999
 21
8.084567308700025
 31
0.0
  0
LINE
  5
2D0
  8
0
  6
CENTER
 62
     1
 10
642.5
 20
40.0
 30
0.0
 11
642.5
 21
101.9999999999999
 31
0.0
  0
LINE
  5
2D2
  8
2
  6
CONTINUOUS
 62
     7
 10
649.5
 20
10.08456730870003
 30
0.0
 11
670.1499999999999
 21
10.08456730870003
 31
0.0
  0
LINE
  5
2D3
  8
0
  6
CENTER
 62
     1
 10
642.5
 20
-20.0
 30
0.0
 11
642.5
 21
14.99999999999991
 31
0.0
  0
LINE
  5
2D4
  8
0
  6
CENTER
 62
     1
 10
642.4999999999999
 20
41.34999999999992
 30
0.0
 11
642.4999999999999
 21
50.65000000000004
 31
0.0
  0
LINE
  5
2D5
  8
2
  6
CONTINUOUS
 62
     7
 10
614.85
 20
10.08456730870003
 30
0.0
 11
635.4999999999999
 21
10.08456730870003
 31
0.0
  0
LINE
  5
2D6
  8
2
  6
CONTINUOUS
 62
     7
 10
628.2519234775
 20
-17.9154326913
 30
0.0
 11
656.7480765224999
 21
-17.9154326913
 31
0.0
  0
LINE
  5
2D7
  8
2
  6
CONTINUOUS
 62
     7
 10
658.0999999999999
 20
13.08456730870003
 30
0.0
 11
626.9
 21
13.08456730870003
 31
0.0
  0
LINE
  5
2D8
  8
2
  6
CONTINUOUS
 62
     7
 10
614.85
 20
8.084567308700025
 30
0.0
 11
642.2500000000001
 21
8.084567308700025
 31
0.0
  0
ARC
  5
2D9
  8
1
  6
CONTINUOUS
 62
     7
 10
554.9999999999999
 20
210.5
 30
0.0
 40
25.40000000000009
 50
185.6484935169196
 51
192.2746702145863
  0
LINE
  5
2DA
  8
1
  6
CONTINUOUS
 62
     7
 10
564.4974096628574
 20
273.7802845766201
 30
0.0
 11
556.401723615314
 21
272.7908118374759
 31
0.0
  0
LINE
  5
2DB
  8
1
  6
CONTINUOUS
 62
     7
 10
581.9999999999999
 20
230.1999999999999
 30
0.0
 11
578.9999999999999
 21
230.1999999999999
 31
0.0
  0
LINE
  5
2DC
  8
1
  6
CONTINUOUS
 62
     7
 10
585.0
 20
258.5
 30
0.0
 11
585.0
 21
269.0
 31
0.0
  0
LINE
  5
2DD
  8
1
  6
CONTINUOUS
 62
     7
 10
580.5
 20
269.795630140987
 30
0.0
 11
580.5
 21
271.0
 31
0.0
  0
LINE
  5
2DE
  8
1
  6
CONTINUOUS
 62
     7
 10
585.0
 20
241.0
 30
0.0
 11
585.0
 21
255.5000000000001
 31
0.0
  0
LINE
  5
2DF
  8
1
  6
CONTINUOUS
 62
     7
 10
554.5930957104008
 20
189.0697573157643
 30
0.0
 11
546.4974096628574
 21
188.0802845766201
 31
0.0
  0
LINE
  5
2E0
  8
1
  6
CONTINUOUS
 62
     7
 10
529.5000000000001
 20
203.3999999999999
 30
0.0
 11
532.0
 21
203.3999999999999
 31
0.0
  0
LINE
  5
2E1
  8
1
  6
CONTINUOUS
 62
     7
 10
529.6
 20
259.5
 30
0.0
 11
529.6
 21
240.0
 31
0.0
  0
LINE
  5
2E2
  8
1
  6
CONTINUOUS
 62
     7
 10
530.9999999999999
 20
239.7999999999999
 30
0.0
 11
530.9999999999999
 21
230.1999999999999
 31
0.0
  0
LINE
  5
2E3
  8
1
  6
CONTINUOUS
 62
     7
 10
529.6
 20
240.0
 30
0.0
 11
527.5000000000001
 21
240.0
 31
0.0
  0
ARC
  5
2E4
  8
1
  6
CONTINUOUS
 62
     7
 10
546.0
 20
192.15
 30
0.0
 40
4.099999999999993
 50
96.96825674137814
 51
276.9682567413779
  0
LINE
  5
2E5
  8
1
  6
CONTINUOUS
 62
     7
 10
579.0
 20
239.7999999999999
 30
0.0
 11
582.0
 21
239.7999999999999
 31
0.0
  0
LINE
  5
2E6
  8
1
  6
CONTINUOUS
 62
     7
 10
528.0
 20
239.7999999999999
 30
0.0
 11
531.0
 21
239.7999999999999
 31
0.0
  0
LINE
  5
2E7
  8
1
  6
CONTINUOUS
 62
     7
 10
527.5000000000001
 20
240.0
 30
0.0
 11
526.0
 21
240.0
 31
0.0
  0
LINE
  5
2E8
  8
1
  6
CONTINUOUS
 62
     7
 10
528.0
 20
240.0
 30
0.0
 11
527.9999999999999
 21
239.7999999999999
 31
0.0
  0
LINE
  5
2E9
  8
1
  6
CONTINUOUS
 62
     7
 10
527.5000000000001
 20
240.0
 30
0.0
 11
527.5000000000001
 21
259.5000000000001
 31
0.0
  0
LINE
  5
2EA
  8
1
  6
CONTINUOUS
 62
     7
 10
580.4
 20
230.1999999999999
 30
0.0
 11
580.4
 21
230.0
 31
0.0
  0
LINE
  5
2EB
  8
1
  6
CONTINUOUS
 62
     7
 10
527.9999999999998
 20
230.1999999999999
 30
0.0
 11
527.9999999999999
 21
230.0
 31
0.0
  0
LINE
  5
2EC
  8
1
  6
CONTINUOUS
 62
     7
 10
526.9999999999999
 20
256.5
 30
0.0
 11
526.9999999999999
 21
257.5
 31
0.0
  0
ARC
  5
2ED
  8
1
  6
CONTINUOUS
 62
     7
 10
554.9999999999999
 20
210.5
 30
0.0
 40
25.40000000000009
 50
343.7679900113682
 51
344.0027897599481
  0
LINE
  5
2EE
  8
1
  6
CONTINUOUS
 62
     7
 10
529.6
 20
230.0
 30
0.0
 11
529.6
 21
230.2
 31
0.0
  0
LINE
  5
2EF
  8
1
  6
CONTINUOUS
 62
     7
 10
529.5000000000001
 20
271.0
 30
0.0
 11
527.0000000000001
 21
271.0
 31
0.0
  0
LINE
  5
2F0
  8
1
  6
CONTINUOUS
 62
     7
 10
579.8193472919817
 20
205.1
 30
0.0
 11
580.5
 21
205.1
 31
0.0
  0
CIRCLE
  5
2F1
  8
1
  6
CONTINUOUS
 62
     7
 10
554.9999999999999
 20
250.0000000000001
 30
0.0
 40
10.65000000000005
  0
LINE
  5
2F2
  8
1
  6
CONTINUOUS
 62
     7
 10
529.5000000000001
 20
205.1
 30
0.0
 11
530.1806527080183
 21
205.1
 31
0.0
  0
LINE
  5
2F3
  8
1
  6
CONTINUOUS
 62
     7
 10
580.4
 20
230.0
 30
0.0
 11
582.5
 21
230.0
 31
0.0
  0
LINE
  5
2F4
  8
1
  6
CONTINUOUS
 62
     7
 10
579.8193472919817
 20
264.9
 30
0.0
 11
579.416387939251
 21
266.5
 31
0.0
  0
LINE
  5
2F5
  8
1
  6
CONTINUOUS
 62
     7
 10
529.6
 20
230.0
 30
0.0
 11
529.6
 21
210.5000000000001
 31
0.0
  0
LINE
  5
2F6
  8
1
  6
CONTINUOUS
 62
     7
 10
529.5000000000001
 20
269.795630140987
 30
0.0
 11
529.5000000000001
 21
271.0
 31
0.0
  0
LINE
  5
2F7
  8
1
  6
CONTINUOUS
 62
     7
 10
580.5
 20
203.5
 30
0.0
 11
579.416387939251
 21
203.5
 31
0.0
  0
LINE
  5
2F8
  8
1
  6
CONTINUOUS
 62
     7
 10
530.9999999999999
 20
164.5318066754715
 30
0.0
 11
530.9999999999999
 21
164.5818066754715
 31
0.0
  0
LINE
  5
2F9
  8
1
  6
CONTINUOUS
 62
     7
 10
583.0
 20
256.5
 30
0.0
 11
583.0
 21
257.5
 31
0.0
  0
LINE
  5
2FA
  8
1
  6
CONTINUOUS
 62
     7
 10
580.4
 20
240.0
 30
0.0
 11
580.4
 21
259.5000000000001
 31
0.0
  0
ARC
  5
2FB
  8
1
  6
CONTINUOUS
 62
     7
 10
575.3999999999999
 20
132.1818066754716
 30
0.0
 40
6.600000000000161
 50
270.0000000000002
 51
359.9999999999998
  0
LINE
  5
2FC
  8
1
  6
CONTINUOUS
 62
     7
 10
530.5378074972165
 20
210.5000203893939
 30
0.0
 11
530.5372430739284
 21
210.4999999999999
 31
0.0
  0
ARC
  5
2FD
  8
1
  6
CONTINUOUS
 62
     7
 10
584.0000000000001
 20
256.5
 30
0.0
 40
0.9999999999998899
 50
180.0
 51
270.0
  0
ARC
  5
2FE
  8
1
  6
CONTINUOUS
 62
     7
 10
526.0
 20
257.5
 30
0.0
 40
0.9999999999998899
 50
0.0
 51
90.0
  0
ARC
  5
2FF
  8
1
  6
CONTINUOUS
 62
     7
 10
554.9999999999999
 20
210.5
 30
0.0
 40
25.40000000000009
 50
347.7253297854138
 51
354.3515064830804
  0
LINE
  5
300
  8
1
  6
CONTINUOUS
 62
     7
 10
582.5
 20
240.0
 30
0.0
 11
584.0000000000001
 21
240.0
 31
0.0
  0
LINE
  5
301
  8
1
  6
CONTINUOUS
 62
     7
 10
524.9999999999999
 20
241.0
 30
0.0
 11
524.9999999999999
 21
255.5000000000001
 31
0.0
  0
LINE
  5
302
  8
1
  6
CONTINUOUS
 62
     7
 10
522.9999999999999
 20
164.5318066754715
 30
0.0
 11
522.9999999999999
 21
164.5818066754715
 31
0.0
  0
LINE
  5
303
  8
1
  6
CONTINUOUS
 62
     7
 10
529.6
 20
239.7999999999999
 30
0.0
 11
529.6
 21
240.0
 31
0.0
  0
LINE
  5
304
  8
1
  6
CONTINUOUS
 62
     7
 10
579.4163879392509
 20
203.5
 30
0.0
 11
579.8193472919816
 21
205.1
 31
0.0
  0
ARC
  5
305
  8
1
  6
CONTINUOUS
 62
     7
 10
584.0000000000001
 20
241.0
 30
0.0
 40
0.9999999999998899
 50
270.0
 51
0.0
  0
LINE
  5
306
  8
1
  6
CONTINUOUS
 62
     7
 10
527.5000000000001
 20
230.0
 30
0.0
 11
529.6
 21
230.0
 31
0.0
  0
POINT
  5
307
  8
0
 62
     1
 10
566.1499999999999
 20
70.99999999999997
 30
0.0
  0
LINE
  5
308
  8
0
  6
CENTER
 62
     1
 10
612.8499999999998
 20
70.99999999999997
 30
0.0
 11
672.1499999999999
 21
70.99999999999997
 31
0.0
  0
LINE
  5
309
  8
0
  6
CENTER
 62
     1
 10
534.85
 20
70.99999999999997
 30
0.0
 11
566.1499999999999
 21
70.99999999999997
 31
0.0
  0
LINE
  5
30A
  8
0
  6
CENTER
 62
     1
 10
550.5
 20
55.35000000000004
 30
0.0
 11
550.5
 21
86.64999999999992
 31
0.0
  0
LINE
  5
30B
  8
2
  6
CONTINUOUS
 62
     7
 10
546.1311739827999
 20
30.91629805050003
 30
0.0
 11
546.1443427990998
 21
30.94019274129997
 31
0.0
  0
LINE
  5
30C
  8
2
  6
CONTINUOUS
 62
     7
 10
559.8621980551
 20
27.7051420852
 30
0.0
 11
559.9076204175
 21
27.71364273980001
 31
0.0
  0
LINE
  5
30D
  8
2
  6
CONTINUOUS
 62
     7
 10
547.1644573901
 20
31.17818042590001
 30
0.0
 11
547.1909792974
 21
31.16014079960003
 31
0.0
  0
LINE
  5
30E
  8
2
  6
CONTINUOUS
 62
     7
 10
553.4650898700999
 20
27.69048383350001
 30
0.0
 11
547.5349101298999
 21
27.69048383350001
 31
0.0
  0
LINE
  5
30F
  8
2
  6
CONTINUOUS
 62
     7
 10
547.3634186311
 20
30.98352118140005
 30
0.0
 11
547.3805398433001
 21
30.95702799239999
 31
0.0
  0
LINE
  5
310
  8
2
  6
CONTINUOUS
 62
     7
 10
553.5225336015
 20
30.68720941369998
 30
0.0
 11
553.5269932789
 21
30.7150751644
 31
0.0
  0
LINE
  5
311
  8
2
  6
CONTINUOUS
 62
     7
 10
540.5777515373001
 20
31.2904838335
 30
0.0
 11
540.5651734914
 21
31.2904838335
 31
0.0
  0
LINE
  5
312
  8
2
  6
CONTINUOUS
 62
     7
 10
546.9961476937
 20
31.25761770249999
 30
0.0
 11
547.0259173062999
 21
31.24741984079995
 31
0.0
  0
LINE
  5
313
  8
2
  6
CONTINUOUS
 62
     7
 10
546.0610968166
 20
30.71053028670004
 30
0.0
 11
546.0664223445
 21
30.7378757325
 31
0.0
  0
LINE
  5
314
  8
2
  6
CONTINUOUS
 62
     7
 10
564.1499999999999
 20
31.39048383350004
 30
0.0
 11
564.1499999999999
 21
32.39048383349999
 31
0.0
  0
LINE
  5
315
  8
2
  6
CONTINUOUS
 62
     7
 10
547.1102140932
 20
31.20991950119997
 30
0.0
 11
547.1372392158
 21
31.1949272815
 31
0.0
  0
LINE
  5
316
  8
2
  6
CONTINUOUS
 62
     7
 10
559.3442074652999
 20
27.72783348650001
 30
0.0
 11
559.6295324532998
 21
27.69048383350001
 31
0.0
  0
LINE
  5
317
  8
2
  6
CONTINUOUS
 62
     7
 10
537.8499999999999
 20
33.39048383349999
 30
0.0
 11
563.1499999999999
 21
33.39048383349999
 31
0.0
  0
LINE
  5
318
  8
2
  6
CONTINUOUS
 62
     7
 10
546.8446637091
 20
31.28786234790001
 30
0.0
 11
546.8748297292
 21
31.28458778320001
 31
0.0
  0
LINE
  5
319
  8
2
  6
CONTINUOUS
 62
     7
 10
560.1250655751999
 20
28.43698036580003
 30
0.0
 11
560.1128095389998
 21
28.39878253849995
 31
0.0
  0
LINE
  5
31A
  8
2
  6
CONTINUOUS
 62
     7
 10
546.2358950608999
 20
31.06471743800002
 30
0.0
 11
546.2613960259998
 21
31.0909742372
 31
0.0
  0
ARC
  5
31B
  8
2
  6
CONTINUOUS
 62
     7
 10
559.1647163152
 20
30.6178666376
 30
0.0
 40
1.517063749799874
 50
359.4272032914
 51
20.16582513000003
  0
LINE
  5
31C
  8
2
  6
CONTINUOUS
 62
     7
 10
546.525393477
 20
31.2532225511
 30
0.0
 11
546.5533437208
 21
31.26207903179998
 31
0.0
  0
LINE
  5
31D
  8
2
  6
CONTINUOUS
 62
     7
 10
553.6842021757999
 20
31.0458777106
 30
0.0
 11
553.7029420298999
 21
31.06688159250001
 31
0.0
  0
LINE
  5
31E
  8
2
  6
CONTINUOUS
 62
     7
 10
554.8524714254999
 20
30.94565569119997
 30
0.0
 11
554.8683658081
 21
30.91717166540001
 31
0.0
  0
LINE
  5
31F
  8
2
  6
CONTINUOUS
 62
     7
 10
560.1499999999999
 20
27.69048383350001
 30
0.0
 11
559.6295324532998
 21
27.69048383350001
 31
0.0
  0
LINE
  5
320
  8
2
  6
CONTINUOUS
 62
     7
 10
546.7841838118999
 20
31.2904838335
 30
0.0
 11
546.8144230399998
 21
31.28982820739998
 31
0.0
  0
LINE
  5
321
  8
2
  6
CONTINUOUS
 62
     7
 10
547.2167170536999
 20
31.14085670719999
 30
0.0
 11
547.2415827749999
 21
31.12037645340002
 31
0.0
  0
LINE
  5
322
  8
2
  6
CONTINUOUS
 62
     7
 10
540.6734570423998
 20
31.24576508579999
 30
0.0
 11
540.7409693475998
 21
31.15613230470002
 31
0.0
  0
LINE
  5
323
  8
2
  6
CONTINUOUS
 62
     7
 10
560.1029492486
 20
28.37155009600004
 30
0.0
 11
560.0922561927001
 21
28.34463359580001
 31
0.0
  0
LINE
  5
324
  8
2
  6
CONTINUOUS
 62
     7
 10
546.6180981877
 20
31.2777830831
 30
0.0
 11
546.6510107457
 21
31.28331817550004
 31
0.0
  0
ARC
  5
325
  8
2
  6
CONTINUOUS
 62
     7
 10
561.4588576921
 20
30.62962158379998
 30
0.0
 40
1.317151492699953
 50
161.9792091032
 51
181.1711415701
  0
LINE
  5
326
  8
2
  6
CONTINUOUS
 62
     7
 10
541.3704675467
 20
27.69048383350001
 30
0.0
 11
540.8499999999999
 21
27.69048383350001
 31
0.0
  0
LINE
  5
327
  8
2
  6
CONTINUOUS
 62
     7
 10
546.2613960259998
 20
31.0909742372
 30
0.0
 11
546.2881186579998
 21
31.11578605530005
 31
0.0
  0
LINE
  5
328
  8
2
  6
CONTINUOUS
 62
     7
 10
562.2738056718998
 20
29.69048383350001
 30
0.0
 11
560.4039453257998
 21
27.96634590240002
 31
0.0
  0
LINE
  5
329
  8
2
  6
CONTINUOUS
 62
     7
 10
547.4826083893
 20
30.63738431190002
 30
0.0
 11
547.4840771985001
 21
30.60270051799998
 31
0.0
  0
LINE
  5
32A
  8
2
  6
CONTINUOUS
 62
     7
 10
554.9456443925001
 20
30.66165706519999
 30
0.0
 11
554.9480273555
 21
30.63221031849997
 31
0.0
  0
LINE
  5
32B
  8
2
  6
CONTINUOUS
 62
     7
 10
546.0508329313001
 20
30.60270051799998
 30
0.0
 11
546.0
 21
27.69048383350001
 31
0.0
  0
LINE
  5
32C
  8
2
  6
CONTINUOUS
 62
     7
 10
547.4339938899
 20
30.8507589451
 30
0.0
 11
547.4443008751
 21
30.82339038759998
 31
0.0
  0
LINE
  5
32D
  8
2
  6
CONTINUOUS
 62
     7
 10
547.1372392158
 20
31.1949272815
 30
0.0
 11
547.1644573901
 21
31.17818042590001
 31
0.0
  0
LINE
  5
32E
  8
2
  6
CONTINUOUS
 62
     7
 10
547.4225602645998
 20
30.87765775949999
 30
0.0
 11
547.4339938898999
 21
30.8507589451
 31
0.0
  0
LINE
  5
32F
  8
2
  6
CONTINUOUS
 62
     7
 10
560.1569995771001
 20
28.59207507410003
 30
0.0
 11
560.1515882151
 21
28.55314849080002
 31
0.0
  0
LINE
  5
330
  8
2
  6
CONTINUOUS
 62
     7
 10
547.4745396280999
 20
30.70628040999998
 30
0.0
 11
547.4794238387
 21
30.67195682580001
 31
0.0
  0
LINE
  5
331
  8
2
  6
CONTINUOUS
 62
     7
 10
546.2881186579999
 20
31.11578605530005
 30
0.0
 11
546.3159474046998
 21
31.1390702365
 31
0.0
  0
LINE
  5
332
  8
2
  6
CONTINUOUS
 62
     7
 10
559.9639410035999
 20
28.1236959018
 30
0.0
 11
559.9388532730999
 21
28.09240874149995
 31
0.0
  0
LINE
  5
333
  8
2
  6
CONTINUOUS
 62
     7
 10
547.4100384714999
 20
30.90401565979997
 30
0.0
 11
547.4225602645998
 21
30.87765775949999
 31
0.0
  0
LINE
  5
334
  8
2
  6
CONTINUOUS
 62
     7
 10
546.7841838118999
 20
31.2904838335
 30
0.0
 11
546.7507263178999
 21
31.2904838335
 31
0.0
  0
LINE
  5
335
  8
2
  6
CONTINUOUS
 62
     7
 10
554.3725858157001
 20
31.2795368922
 30
0.0
 11
554.4038055925
 21
31.27321104380001
 31
0.0
  0
LINE
  5
336
  8
2
  6
CONTINUOUS
 62
     7
 10
546.3686846255999
 20
31.177034523
 30
0.0
 11
546.3932153029
 21
31.19229903059997
 31
0.0
  0
LINE
  5
337
  8
2
  6
CONTINUOUS
 62
     7
 10
559.7281206816
 20
27.90042544040003
 30
0.0
 11
559.6917022481
 21
27.87621697679996
 31
0.0
  0
LINE
  5
338
  8
2
  6
CONTINUOUS
 62
     7
 10
546.1081569248
 20
30.86815169520005
 30
0.0
 11
546.1192266297
 21
30.89248590659995
 31
0.0
  0
LINE
  5
339
  8
2
  6
CONTINUOUS
 62
     7
 10
560.5327714055999
 20
31.23619317570001
 30
0.0
 11
560.5887822573999
 21
31.14085670719999
 31
0.0
  0
LINE
  5
33A
  8
2
  6
CONTINUOUS
 62
     7
 10
553.5269932789
 20
30.7150751644
 30
0.0
 11
553.5327539483001
 21
30.74352713969999
 31
0.0
  0
LINE
  5
33B
  8
2
  6
CONTINUOUS
 62
     7
 10
546.3447667137
 20
31.16074412470002
 30
0.0
 11
546.3686846255999
 21
31.177034523
 31
0.0
  0
LINE
  5
33C
  8
2
  6
CONTINUOUS
 62
     7
 10
536.85
 20
32.39048383349999
 30
0.0
 11
536.85
 21
31.39048383350003
 31
0.0
  0
LINE
  5
33D
  8
2
  6
CONTINUOUS
 62
     7
 10
540.4123142279999
 20
31.14337568780004
 30
0.0
 11
540.463174216
 21
31.23123465319996
 31
0.0
  0
ARC
  5
33E
  8
2
  6
CONTINUOUS
 62
     7
 10
540.85
 20
28.69048383350001
 30
0.0
 40
0.9999999999998899
 50
226.3971810273
 51
270.0
  0
LINE
  5
33F
  8
2
  6
CONTINUOUS
 62
     7
 10
560.2497602359999
 20
31.1390702365
 30
0.0
 11
560.3129312831999
 21
31.23198519009998
 31
0.0
  0
LINE
  5
340
  8
2
  6
CONTINUOUS
 62
     7
 10
560.1356264687
 20
28.47552592739996
 30
0.0
 11
560.1250655752001
 21
28.43698036580004
 31
0.0
  0
LINE
  5
341
  8
2
  6
CONTINUOUS
 62
     7
 10
559.4094974465
 20
27.74608066119996
 30
0.0
 11
559.3650232572
 21
27.73321870119996
 31
0.0
  0
LINE
  5
342
  8
2
  6
CONTINUOUS
 62
     7
 10
554.4653247952
 20
31.25630549080002
 30
0.0
 11
554.4954575166001
 21
31.24576508579999
 31
0.0
  0
LINE
  5
343
  8
2
  6
CONTINUOUS
 62
     7
 10
560.0683351081
 20
28.29164518640001
 30
0.0
 11
560.0503956606
 21
28.25675280780002
 31
0.0
  0
LINE
  5
344
  8
2
  6
CONTINUOUS
 62
     7
 10
554.8683658081
 20
30.91717166540001
 30
0.0
 11
554.8814098663998
 21
30.89114926290002
 31
0.0
  0
LINE
  5
345
  8
2
  6
CONTINUOUS
 62
     7
 10
554.9369755963
 20
30.72110029060002
 30
0.0
 11
554.9420271640001
 21
30.69094583269996
 31
0.0
  0
LINE
  5
346
  8
2
  6
CONTINUOUS
 62
     7
 10
560.0806998043998
 20
28.31795702660003
 30
0.0
 11
560.0683351080999
 21
28.29164518640001
 31
0.0
  0
LINE
  5
347
  8
2
  6
CONTINUOUS
 62
     7
 10
554.2492736821001
 20
31.2904838335
 30
0.0
 11
554.2802625789001
 21
31.2897953255
 31
0.0
  0
LINE
  5
348
  8
2
  6
CONTINUOUS
 62
     7
 10
554.3111966787
 20
31.28773556710004
 30
0.0
 11
554.3419973136
 21
31.28431320649996
 31
0.0
  0
LINE
  5
349
  8
2
  6
CONTINUOUS
 62
     7
 10
540.5523396473
 20
31.28962867429999
 30
0.0
 11
540.5651734914
 21
31.2904838335
 31
0.0
  0
LINE
  5
34A
  8
2
  6
CONTINUOUS
 62
     7
 10
560.1444961541999
 20
28.51441871690005
 30
0.0
 11
560.1356264686999
 21
28.47552592739996
 31
0.0
  0
LINE
  5
34B
  8
2
  6
CONTINUOUS
 62
     7
 10
546.3159474046998
 20
31.1390702365
 30
0.0
 11
546.3447667136999
 21
31.16074412470002
 31
0.0
  0
LINE
  5
34C
  8
2
  6
CONTINUOUS
 62
     7
 10
554.6874349455999
 20
31.13638733089999
 30
0.0
 11
554.7123523691
 21
31.11542014349997
 31
0.0
  0
LINE
  5
34D
  8
2
  6
CONTINUOUS
 62
     7
 10
554.5804790361
 20
31.20716835770002
 30
0.0
 11
554.607670425
 21
31.19177558849998
 31
0.0
  0
LINE
  5
34E
  8
2
  6
CONTINUOUS
 62
     7
 10
559.8557333532
 20
28.00397233339999
 30
0.0
 11
559.8255197093999
 21
27.9764412121
 31
0.0
  0
LINE
  5
34F
  8
2
  6
CONTINUOUS
 62
     7
 10
559.6917022481
 20
27.87621697679996
 30
0.0
 11
559.6543107804
 21
27.85341131740002
 31
0.0
  0
LINE
  5
350
  8
2
  6
CONTINUOUS
 62
     7
 10
546.4977891530001
 20
31.24318464369999
 30
0.0
 11
546.525393477
 21
31.25322255109999
 31
0.0
  0
LINE
  5
351
  8
2
  6
CONTINUOUS
 62
     7
 10
540.2969948803999
 20
29.69048383350001
 30
0.0
 11
540.3182957449999
 21
30.60270051799998
 31
0.0
  0
LINE
  5
352
  8
2
  6
CONTINUOUS
 62
     7
 10
546.6841509200999
 20
31.28728954739998
 30
0.0
 11
546.7174217608999
 21
31.28968287459996
 31
0.0
  0
LINE
  5
353
  8
2
  6
CONTINUOUS
 62
     7
 10
559.8255197093999
 20
27.9764412121
 30
0.0
 11
559.7942762524
 21
27.95008382079997
 31
0.0
  0
LINE
  5
354
  8
2
  6
CONTINUOUS
 62
     7
 10
547.5349101297999
 20
27.69048383350001
 30
0.0
 11
547.4840771987
 21
30.60270051799998
 31
0.0
  0
LINE
  5
355
  8
2
  6
CONTINUOUS
 62
     7
 10
547.4537305855
 20
30.79469617889999
 30
0.0
 11
547.4619317059
 21
30.76555498890002
 31
0.0
  0
LINE
  5
356
  8
2
  6
CONTINUOUS
 62
     7
 10
546.1192266296999
 20
30.89248590659996
 30
0.0
 11
546.1311739827999
 21
30.91629805050003
 31
0.0
  0
LINE
  5
357
  8
2
  6
CONTINUOUS
 62
     7
 10
546.9048450103999
 20
31.28000604139999
 30
0.0
 11
546.9355254235999
 21
31.27392511360003
 31
0.0
  0
LINE
  5
358
  8
2
  6
CONTINUOUS
 62
     7
 10
560.1619178338999
 20
28.65002635040001
 30
0.0
 11
560.1599216322999
 21
28.62101144550003
 31
0.0
  0
LINE
  5
359
  8
2
  6
CONTINUOUS
 62
     7
 10
538.3499999999999
 20
29.69048383350001
 30
0.0
 11
540.1603448275998
 21
27.96634590240002
 31
0.0
  0
LINE
  5
35A
  8
2
  6
CONTINUOUS
 62
     7
 10
559.3650232572
 20
27.73321870119996
 30
0.0
 11
559.3200298033
 21
27.72203170249995
 31
0.0
  0
LINE
  5
35B
  8
2
  6
CONTINUOUS
 62
     7
 10
546.1443427991
 20
30.94019274129997
 30
0.0
 11
546.1584015756999
 21
30.96350738650003
 31
0.0
  0
LINE
  5
35C
  8
2
  6
CONTINUOUS
 62
     7
 10
560.0100417269999
 20
28.18878750360001
 30
0.0
 11
559.9876794528001
 21
28.15583382829998
 31
0.0
  0
LINE
  5
35D
  8
2
  6
CONTINUOUS
 62
     7
 10
554.5242964577
 20
31.23419125449997
 30
0.0
 11
554.552662339
 21
31.22131629569999
 31
0.0
  0
LINE
  5
35E
  8
2
  6
CONTINUOUS
 62
     7
 10
554.8169556953999
 20
31.00003439529999
 30
0.0
 11
554.8353104260999
 21
30.97330394509999
 31
0.0
  0
LINE
  5
35F
  8
2
  6
CONTINUOUS
 62
     7
 10
559.8846886871
 20
28.03247677740003
 30
0.0
 11
559.8557333532
 21
28.00397233339999
 31
0.0
  0
LINE
  5
360
  8
2
  6
CONTINUOUS
 62
     7
 10
554.9491670686999
 20
30.60270051799998
 30
0.0
 11
554.9999999999999
 21
27.69048383350001
 31
0.0
  0
LINE
  5
361
  8
2
  6
CONTINUOUS
 62
     7
 10
547.1909792973998
 20
31.16014079960003
 30
0.0
 11
547.2167170536999
 21
31.14085670719999
 31
0.0
  0
LINE
  5
362
  8
2
  6
CONTINUOUS
 62
     7
 10
546.1584015756999
 20
30.96350738650003
 30
0.0
 11
546.1733081454
 21
30.98619273129996
 31
0.0
  0
LINE
  5
363
  8
2
  6
CONTINUOUS
 62
     7
 10
546.8748297291999
 20
31.28458778320001
 30
0.0
 11
546.9048450103999
 21
31.28000604139999
 31
0.0
  0
LINE
  5
364
  8
2
  6
CONTINUOUS
 62
     7
 10
560.1631214464
 20
28.7079362399
 30
0.0
 11
560.1629816269999
 21
28.67897170039998
 31
0.0
  0
LINE
  5
365
  8
2
  6
CONTINUOUS
 62
     7
 10
546.0569733945
 20
30.68377568360001
 30
0.0
 11
546.0610968166
 21
30.71053028670004
 31
0.0
  0
LINE
  5
366
  8
2
  6
CONTINUOUS
 62
     7
 10
559.2741549845998
 20
27.71244752830001
 30
0.0
 11
559.2279518267999
 21
27.70459589119998
 31
0.0
  0
LINE
  5
367
  8
2
  6
CONTINUOUS
 62
     7
 10
554.8814098663998
 20
30.89114926290002
 30
0.0
 11
554.8934054837998
 21
30.86450366070001
 31
0.0
  0
LINE
  5
368
  8
2
  6
CONTINUOUS
 62
     7
 10
560.0310236690999
 20
28.22256017749999
 30
0.0
 11
560.0100417269999
 21
28.18878750360001
 31
0.0
  0
LINE
  5
369
  8
2
  6
CONTINUOUS
 62
     7
 10
540.463174216
 20
31.23123465319996
 30
0.0
 11
540.5523396473
 21
31.2896286743
 31
0.0
  0
LINE
  5
36A
  8
2
  6
CONTINUOUS
 62
     7
 10
560.0922561927
 20
28.3446335958
 30
0.0
 11
560.0806998044
 21
28.31795702660003
 31
0.0
  0
LINE
  5
36B
  8
2
  6
CONTINUOUS
 62
     7
 10
559.9876794528001
 20
28.15583382829998
 30
0.0
 11
559.9639410036
 21
28.12369590180001
 31
0.0
  0
LINE
  5
36C
  8
2
  6
CONTINUOUS
 62
     7
 10
554.3419973135999
 20
31.28431320649996
 30
0.0
 11
554.3725858157
 21
31.2795368922
 31
0.0
  0
LINE
  5
36D
  8
2
  6
CONTINUOUS
 62
     7
 10
541.3704675467
 20
27.69048383350001
 30
0.0
 11
541.6558886123998
 21
27.72785907110001
 31
0.0
  0
LINE
  5
36E
  8
2
  6
CONTINUOUS
 62
     7
 10
546.4182988938999
 20
31.20651107190001
 30
0.0
 11
546.4438755468999
 21
31.21964407090003
 31
0.0
  0
LINE
  5
36F
  8
2
  6
CONTINUOUS
 62
     7
 10
559.4945488034
 20
27.77596799290002
 30
0.0
 11
559.4523335787001
 21
27.76023717279999
 31
0.0
  0
LINE
  5
370
  8
2
  6
CONTINUOUS
 62
     7
 10
559.6543107803999
 20
27.85341131740002
 30
0.0
 11
559.6156290458
 21
27.83182941590004
 31
0.0
  0
LINE
  5
371
  8
2
  6
CONTINUOUS
 62
     7
 10
559.6156290458001
 20
27.83182941590004
 30
0.0
 11
559.5761448339
 21
27.81175221349999
 31
0.0
  0
LINE
  5
372
  8
2
  6
CONTINUOUS
 62
     7
 10
554.4038055925
 20
31.27321104380001
 30
0.0
 11
554.4347463698
 21
31.2654606934
 31
0.0
  0
LINE
  5
373
  8
2
  6
CONTINUOUS
 62
     7
 10
546.0508329313001
 20
30.60270051799998
 30
0.0
 11
546.0518331225
 21
30.62978766420003
 31
0.0
  0
LINE
  5
374
  8
2
  6
CONTINUOUS
 62
     7
 10
546.1890203411
 20
31.00819952100001
 30
0.0
 11
546.2117313151999
 21
31.037098314
 31
0.0
  0
LINE
  5
375
  8
2
  6
CONTINUOUS
 62
     7
 10
546.7174217608999
 20
31.28968287459996
 30
0.0
 11
546.7507263178999
 21
31.2904838335
 31
0.0
  0
LINE
  5
376
  8
2
  6
CONTINUOUS
 62
     7
 10
559.3200298033
 20
27.72203170249995
 30
0.0
 11
559.2741549846
 21
27.71244752830001
 31
0.0
  0
LINE
  5
377
  8
2
  6
CONTINUOUS
 62
     7
 10
546.2117313151999
 20
31.037098314
 30
0.0
 11
546.2358950608999
 21
31.06471743800002
 31
0.0
  0
LINE
  5
378
  8
2
  6
CONTINUOUS
 62
     7
 10
559.9388532731
 20
28.09240874149996
 30
0.0
 11
559.9125135057001
 21
28.06208513600004
 31
0.0
  0
LINE
  5
379
  8
2
  6
CONTINUOUS
 62
     7
 10
540.8948266381
 20
28.37747024989998
 30
0.0
 11
540.8582165377
 21
28.5016693857
 31
0.0
  0
LINE
  5
37A
  8
2
  6
CONTINUOUS
 62
     7
 10
546.0538827199998
 20
30.65683709780001
 30
0.0
 11
546.0569733944999
 21
30.68377568360001
 31
0.0
  0
LINE
  5
37B
  8
2
  6
CONTINUOUS
 62
     7
 10
553.4650898702
 20
27.69048383350001
 30
0.0
 11
553.5159228014
 21
30.60270051799998
 31
0.0
  0
LINE
  5
37C
  8
2
  6
CONTINUOUS
 62
     7
 10
554.942027164
 20
30.69094583269996
 30
0.0
 11
554.9456443925
 21
30.66165706519999
 31
0.0
  0
LINE
  5
37D
  8
2
  6
CONTINUOUS
 62
     7
 10
554.7349761117999
 20
31.09455652219997
 30
0.0
 11
554.7567520224
 21
31.07262371910005
 31
0.0
  0
LINE
  5
37E
  8
2
  6
CONTINUOUS
 62
     7
 10
559.7616910257999
 20
27.92464796419999
 30
0.0
 11
559.7281206815998
 21
27.90042544040003
 31
0.0
  0
LINE
  5
37F
  8
2
  6
CONTINUOUS
 62
     7
 10
546.0
 20
27.69048383350001
 30
0.0
 11
541.9609594670001
 21
27.69048383350001
 31
0.0
  0
LINE
  5
380
  8
2
  6
CONTINUOUS
 62
     7
 10
541.0262628744999
 20
28.1366353551
 30
0.0
 11
540.9471306638
 21
28.26136244059998
 31
0.0
  0
LINE
  5
381
  8
2
  6
CONTINUOUS
 62
     7
 10
554.6350099149
 20
31.1746100592
 30
0.0
 11
554.661626108
 21
31.15613230470002
 31
0.0
  0
LINE
  5
382
  8
2
  6
CONTINUOUS
 62
     7
 10
554.9306141729
 20
30.75100015240004
 30
0.0
 11
554.9369755963
 21
30.72110029060002
 31
0.0
  0
LINE
  5
383
  8
2
  6
CONTINUOUS
 62
     7
 10
554.552662339
 20
31.22131629569999
 30
0.0
 11
554.5804790361
 21
31.20716835770001
 31
0.0
  0
LINE
  5
384
  8
2
  6
CONTINUOUS
 62
     7
 10
554.8934054837999
 20
30.86450366070001
 30
0.0
 11
554.9043102134999
 21
30.83730971199996
 31
0.0
  0
LINE
  5
385
  8
2
  6
CONTINUOUS
 62
     7
 10
541.1118611893999
 20
28.03602394260005
 30
0.0
 11
541.0262628744999
 21
28.1366353551
 31
0.0
  0
LINE
  5
386
  8
2
  6
CONTINUOUS
 62
     7
 10
560.6817042550001
 20
30.60270051799998
 30
0.0
 11
560.7030051196
 21
29.69048383350001
 31
0.0
  0
LINE
  5
387
  8
2
  6
CONTINUOUS
 62
     7
 10
559.0390405329999
 20
27.69048383350001
 30
0.0
 11
554.9999999999999
 21
27.69048383350001
 31
0.0
  0
LINE
  5
388
  8
2
  6
CONTINUOUS
 62
     7
 10
540.8403515237
 20
28.6178585271
 30
0.0
 11
540.8368785536
 21
28.7079362399
 31
0.0
  0
LINE
  5
389
  8
2
  6
CONTINUOUS
 62
     7
 10
554.2802625789001
 20
31.2897953255
 30
0.0
 11
554.3111966787
 21
31.28773556710004
 31
0.0
  0
ARC
  5
38A
  8
2
  6
CONTINUOUS
 62
     7
 10
541.9486363235
 20
28.87621988910002
 30
0.0
 40
1.185800090000022
 50
225.1168761
 51
270.5954433851
  0
LINE
  5
38B
  8
2
  6
CONTINUOUS
 62
     7
 10
546.1733081453999
 20
30.98619273129996
 30
0.0
 11
546.1890203410999
 21
31.008199521
 31
0.0
  0
LINE
  5
38C
  8
2
  6
CONTINUOUS
 62
     7
 10
539.8947634805
 20
31.39048383350004
 30
0.0
 11
539.8650898701001
 21
29.69048383350001
 31
0.0
  0
LINE
  5
38D
  8
2
  6
CONTINUOUS
 62
     7
 10
554.9480273554999
 20
30.63221031849997
 30
0.0
 11
554.9491670686999
 21
30.60270051799998
 31
0.0
  0
LINE
  5
38E
  8
2
  6
CONTINUOUS
 62
     7
 10
559.5761448339
 20
27.81175221349999
 30
0.0
 11
559.5356856964
 21
27.79308791269999
 31
0.0
  0
LINE
  5
38F
  8
2
  6
CONTINUOUS
 62
     7
 10
560.1629816269999
 20
28.67897170039998
 30
0.0
 11
560.1619178338999
 21
28.65002635040002
 31
0.0
  0
LINE
  5
390
  8
2
  6
CONTINUOUS
 62
     7
 10
559.4523335787001
 20
27.76023717279999
 30
0.0
 11
559.4094974465
 21
27.74608066119996
 31
0.0
  0
LINE
  5
391
  8
2
  6
CONTINUOUS
 62
     7
 10
546.6510107456999
 20
31.28331817550004
 30
0.0
 11
546.6841509200999
 21
31.28728954739998
 31
0.0
  0
LINE
  5
392
  8
2
  6
CONTINUOUS
 62
     7
 10
559.1812234961
 20
27.69844696889998
 30
0.0
 11
559.1342979699
 21
27.69404714609999
 31
0.0
  0
LINE
  5
393
  8
2
  6
CONTINUOUS
 62
     7
 10
553.4999999999999
 20
29.69048383350001
 30
0.0
 11
547.4999999999999
 21
29.69048383350001
 31
0.0
  0
LINE
  5
394
  8
2
  6
CONTINUOUS
 62
     7
 10
560.4348265085998
 20
31.2904838335
 30
0.0
 11
560.4222484626999
 21
31.2904838335
 31
0.0
  0
LINE
  5
395
  8
2
  6
CONTINUOUS
 62
     7
 10
554.4954575165999
 20
31.24576508579999
 30
0.0
 11
554.5242964577
 21
31.23419125449997
 31
0.0
  0
LINE
  5
396
  8
2
  6
CONTINUOUS
 62
     7
 10
560.1599216322999
 20
28.62101144550003
 30
0.0
 11
560.1569995770999
 21
28.59207507410002
 31
0.0
  0
LINE
  5
397
  8
2
  6
CONTINUOUS
 62
     7
 10
559.9125135057
 20
28.06208513600003
 30
0.0
 11
559.8846886870999
 21
28.03247677740003
 31
0.0
  0
LINE
  5
398
  8
2
  6
CONTINUOUS
 62
     7
 10
554.7974801189998
 20
31.0257650098
 30
0.0
 11
554.8169556953999
 21
31.00003439529999
 31
0.0
  0
LINE
  5
399
  8
2
  6
CONTINUOUS
 62
     7
 10
554.9140816091001
 20
30.80964226980001
 30
0.0
 11
554.9229728563001
 21
30.7805469637
 31
0.0
  0
LINE
  5
39A
  8
2
  6
CONTINUOUS
 62
     7
 10
554.607670425
 20
31.19177558849998
 30
0.0
 11
554.6350099149
 21
31.1746100592
 31
0.0
  0
LINE
  5
39B
  8
2
  6
CONTINUOUS
 62
     7
 10
546.3932153028999
 20
31.19229903059997
 30
0.0
 11
546.4182988938999
 21
31.20651107190001
 31
0.0
  0
LINE
  5
39C
  8
2
  6
CONTINUOUS
 62
     7
 10
559.7942762524
 20
27.95008382079997
 30
0.0
 11
559.7616910258
 21
27.92464796419999
 31
0.0
  0
LINE
  5
39D
  8
2
  6
CONTINUOUS
 62
     7
 10
560.0503956606
 20
28.25675280780002
 30
0.0
 11
560.0310236690999
 21
28.22256017749999
 31
0.0
  0
LINE
  5
39E
  8
2
  6
CONTINUOUS
 62
     7
 10
546.0887819141999
 20
30.81814499920002
 30
0.0
 11
546.0979977315999
 21
30.84335239870003
 31
0.0
  0
LINE
  5
39F
  8
2
  6
CONTINUOUS
 62
     7
 10
546.585510196
 20
31.27069859379997
 30
0.0
 11
546.6180981877
 21
31.2777830831
 31
0.0
  0
LINE
  5
3A0
  8
2
  6
CONTINUOUS
 62
     7
 10
559.2279518268
 20
27.70459589119997
 30
0.0
 11
559.1812234961
 21
27.69844696889998
 31
0.0
  0
LINE
  5
3A1
  8
2
  6
CONTINUOUS
 62
     7
 10
554.4347463698
 20
31.2654606934
 30
0.0
 11
554.4653247952
 21
31.25630549080002
 31
0.0
  0
LINE
  5
3A2
  8
2
  6
CONTINUOUS
 62
     7
 10
540.9471306638001
 20
28.26136244059999
 30
0.0
 11
540.8948266381001
 21
28.37747024989998
 31
0.0
  0
LINE
  5
3A3
  8
2
  6
CONTINUOUS
 62
     7
 10
554.9229728562999
 20
30.7805469637
 30
0.0
 11
554.9306141728999
 21
30.75100015240004
 31
0.0
  0
LINE
  5
3A4
  8
2
  6
CONTINUOUS
 62
     7
 10
554.7567520224
 20
31.07262371910005
 30
0.0
 11
554.7776100438999
 21
31.04967534479999
 31
0.0
  0
LINE
  5
3A5
  8
2
  6
CONTINUOUS
 62
     7
 10
559.0867360537
 20
27.69137520630002
 30
0.0
 11
559.0390405329999
 21
27.69048383350001
 31
0.0
  0
LINE
  5
3A6
  8
2
  6
CONTINUOUS
 62
     7
 10
560.1419813458998
 20
30.60270051799998
 30
0.0
 11
560.1631214463999
 21
28.7079362399
 31
0.0
  0
LINE
  5
3A7
  8
2
  6
CONTINUOUS
 62
     7
 10
554.7123523691
 20
31.11542014349997
 30
0.0
 11
554.7349761117999
 21
31.09455652219997
 31
0.0
  0
LINE
  5
3A8
  8
2
  6
CONTINUOUS
 62
     7
 10
560.8396551724
 20
27.96634590240002
 30
0.0
 11
562.65
 21
29.69048383350001
 31
0.0
  0
LINE
  5
3A9
  8
2
  6
CONTINUOUS
 62
     7
 10
554.9043102135
 20
30.83730971199996
 30
0.0
 11
554.9140816091001
 21
30.80964226980001
 31
0.0
  0
LINE
  5
3AA
  8
2
  6
CONTINUOUS
 62
     7
 10
547.4354162598
 20
82.82389032619999
 30
0.0
 11
547.4354162598
 21
81.11632969419999
 31
0.0
  0
LINE
  5
3AB
  8
2
  6
CONTINUOUS
 62
     7
 10
554.661626108
 20
31.15613230470002
 30
0.0
 11
554.6874349455999
 21
31.13638733089999
 31
0.0
  0
ARC
  5
3AC
  8
2
  6
CONTINUOUS
 62
     7
 10
550.5
 20
70.99999999999997
 30
0.0
 40
10.57032638959998
 50
73.14663679369998
 51
106.8533632063
  0
LINE
  5
3AD
  8
1
  6
CONTINUOUS
 62
     7
 10
582.0350483439654
 20
164.4392605541572
 30
0.0
 11
582.0502071244703
 21
164.4534265322389
 31
0.0
  0
LINE
  5
3AE
  8
1
  6
CONTINUOUS
 62
     7
 10
528.5455107779418
 20
162.5818066754715
 30
0.0
 11
530.1806527080183
 21
162.5818066754715
 31
0.0
  0
LINE
  5
3AF
  8
1
  6
CONTINUOUS
 62
     7
 10
528.1041923929257
 20
164.1895510140904
 30
0.0
 11
528.1069296519047
 21
164.1763577401333
 31
0.0
  0
LINE
  5
3B0
  8
1
  6
CONTINUOUS
 62
     7
 10
581.0768096208105
 20
160.9818066754715
 30
0.0
 11
581.0768096208105
 21
156.0818066754715
 31
0.0
  0
LINE
  5
3B1
  8
1
  6
CONTINUOUS
 62
     7
 10
582.0000000000001
 20
140.5818066754715
 30
0.0
 11
582.0000000000001
 21
164.0818066754715
 31
0.0
  0
LINE
  5
3B2
  8
1
  6
CONTINUOUS
 62
     7
 10
581.91939456564
 20
164.2661694434758
 30
0.0
 11
581.9274639670883
 21
164.285257976145
 31
0.0
  0
LINE
  5
3B3
  8
1
  6
CONTINUOUS
 62
     7
 10
583.0
 20
166.1818066754715
 30
0.0
 11
583.0
 21
164.5818066754715
 31
0.0
  0
LINE
  5
3B4
  8
1
  6
CONTINUOUS
 62
     7
 10
566.3468057179102
 20
160.9818066754715
 30
0.0
 11
570.9999999999998
 21
160.9818066754715
 31
0.0
  0
LINE
  5
3B5
  8
1
  6
CONTINUOUS
 62
     7
 10
579.8193472919817
 20
162.5818066754715
 30
0.0
 11
581.4544892220584
 21
162.5818066754715
 31
0.0
  0
LINE
  5
3B6
  8
1
  6
CONTINUOUS
 62
     7
 10
524.9999999999999
 20
166.1818066754715
 30
0.0
 11
524.9999999999999
 21
164.5818066754715
 31
0.0
  0
LINE
  5
3B7
  8
1
  6
CONTINUOUS
 62
     7
 10
527.8571527823834
 20
164.5191941540345
 30
0.0
 11
527.8755281700007
 21
164.5085470458638
 31
0.0
  0
LINE
  5
3B8
  8
1
  6
CONTINUOUS
 62
     7
 10
581.9055061456453
 20
164.226526241538
 30
0.0
 11
581.9121307108472
 21
164.2467791569009
 31
0.0
  0
ARC
  5
3B9
  8
2
  6
CONTINUOUS
 62
     7
 10
550.5
 20
70.99999999999997
 30
0.0
 40
10.57032638959998
 50
253.1466367937
 51
286.8533632063
  0
ARC
  5
3BA
  8
2
  6
CONTINUOUS
 62
     7
 10
541.9589721136
 20
30.59591391800001
 30
0.0
 40
1.640690404800083
 50
160.5078515274
 51
179.7629993774
  0
LINE
  5
3BB
  8
2
  6
CONTINUOUS
 62
     7
 10
554.7776100438999
 20
31.04967534479999
 30
0.0
 11
554.7974801189998
 21
31.0257650098
 31
0.0
  0
CIRCLE
  5
3BC
  8
2
  6
CONTINUOUS
 62
     7
 10
550.5
 20
70.99999999999997
 30
0.0
 40
13.64999999999994
  0
LINE
  5
3BD
  8
2
  6
CONTINUOUS
 62
     7
 10
642.25
 20
13.08456730870003
 30
0.0
 11
642.25
 21
-17.9154326913
 31
0.0
  0
LINE
  5
3BE
  8
2
  6
CONTINUOUS
 62
     7
 10
635.4999999999999
 20
10.08456730870003
 30
0.0
 11
635.4999999999999
 21
13.08456730870003
 31
0.0
  0
LINE
  5
3BF
  8
2
  6
CONTINUOUS
 62
     7
 10
540.8582165377001
 20
28.5016693857
 30
0.0
 11
540.8403515237001
 21
28.6178585271
 31
0.0
  0
ARC
  5
3C0
  8
2
  6
CONTINUOUS
 62
     7
 10
550.5
 20
70.99999999999997
 30
0.0
 40
10.63491012989992
 50
163.6150279779
 51
196.3849720221
  0
ARC
  5
3C1
  8
2
  6
CONTINUOUS
 62
     7
 10
550.5
 20
70.99999999999997
 30
0.0
 40
12.2145837401999
 50
345.4694921388
 51
14.53050786120002
  0
ARC
  5
3C2
  8
2
  6
CONTINUOUS
 62
     7
 10
550.5
 20
70.99999999999997
 30
0.0
 40
12.2145837401999
 50
255.4694921388
 51
284.5305078612
  0
LINE
  5
3C3
  8
1
  6
CONTINUOUS
 62
     7
 10
528.1159898824599
 20
164.0818066754715
 30
0.0
 11
528.1159898824599
 21
162.5818066754715
 31
0.0
  0
LINE
  5
3C4
  8
1
  6
CONTINUOUS
 62
     7
 10
527.9748310478276
 20
164.4293691950121
 30
0.0
 11
527.98927375517
 21
164.4138520744106
 31
0.0
  0
LINE
  5
3C5
  8
2
  6
CONTINUOUS
 62
     7
 10
559.5356856964
 20
27.79308791269999
 30
0.0
 11
559.4945488034
 21
27.77596799290002
 31
0.0
  0
ARC
  5
3C6
  8
2
  6
CONTINUOUS
 62
     7
 10
550.5
 20
70.99999999999997
 30
0.0
 40
12.2145837401999
 50
75.4694921388
 51
104.5305078612
  0
LINE
  5
3C7
  8
2
  6
CONTINUOUS
 62
     7
 10
553.5296736104001
 20
81.16327306770002
 30
0.0
 11
553.5645837402
 21
81.1163296942
 31
0.0
  0
LINE
  5
3C8
  8
1
  6
CONTINUOUS
 62
     7
 10
527.9445409978747
 20
164.4580671581266
 30
0.0
 11
527.9599877930697
 21
164.4440301029049
 31
0.0
  0
LINE
  5
3C9
  8
1
  6
CONTINUOUS
 62
     7
 10
581.885736288897
 20
164.1231927630476
 30
0.0
 11
581.8878871912012
 21
164.1438053380918
 31
0.0
  0
ENDSEC
  0
EOF
