  0
SECTION
  2
HEADER
  9
$ACADVER
  1
AC1006
  9
$DWGCODEPAGE
  3
ansi_932
  9
$INSBASE
 10
0.0
 20
0.0
 30
0.0
  9
$EXTMIN
 10
170.4999999999999
 20
-218.9154326913001
  9
$EXTMAX
 10
354.6500000000001
 20
117.0
  9
$LIMMIN
 10
0.0
 20
0.0
  9
$LIMMAX
 10
12.0
 20
9.0
  9
$ORTHOMODE
 70
     0
  9
$REGENMODE
 70
     1
  9
$FILLMODE
 70
     1
  9
$QTEXTMODE
 70
     0
  9
$MIRRTEXT
 70
     1
  9
$DRAGMODE
 70
     2
  9
$LTSCALE
 40
1.0
  9
$OSMODE
 70
    37
  9
$ATTMODE
 70
     1
  9
$TEXTSIZE
 40
0.2
  9
$TRACEWID
 40
0.05
  9
$TEXTSTYLE
  7
STANDARD
  9
$CLAYER
  8
0
  9
$CELTYPE
  6
BYLAYER
  9
$CECOLOR
 62
   256
  9
$DIMSCALE
 40
1.0
  9
$DIMASZ
 40
3.0
  9
$DIMEXO
 40
0.0625
  9
$DIMDLI
 40
0.38
  9
$DIMRND
 40
0.0
  9
$DIMDLE
 40
0.0
  9
$DIMEXE
 40
1.5
  9
$DIMTP
 40
0.0
  9
$DIMTM
 40
0.0
  9
$DIMTXT
 40
3.0
  9
$DIMCEN
 40
0.09
  9
$DIMTSZ
 40
0.0
  9
$DIMTOL
 70
     0
  9
$DIMLIM
 70
     0
  9
$DIMTIH
 70
     1
  9
$DIMTOH
 70
     1
  9
$DIMSE1
 70
     0
  9
$DIMSE2
 70
     0
  9
$DIMTAD
 70
     1
  9
$DIMZIN
 70
     0
  9
$DIMBLK
  1

  9
$DIMASO
 70
     1
  9
$DIMSHO
 70
     1
  9
$DIMPOST
  1

  9
$DIMAPOST
  1

  9
$DIMALT
 70
     0
  9
$DIMALTD
 70
     2
  9
$DIMALTF
 40
25.4
  9
$DIMLFAC
 40
1.0
  9
$DIMTOFL
 70
     0
  9
$DIMTVP
 40
0.0
  9
$DIMTIX
 70
     0
  9
$DIMSOXD
 70
     0
  9
$DIMSAH
 70
     0
  9
$DIMBLK1
  1

  9
$DIMBLK2
  1

  9
$LUNITS
 70
     2
  9
$LUPREC
 70
     4
  9
$SKETCHINC
 40
0.1
  9
$FILLETRAD
 40
0.5
  9
$AUNITS
 70
     0
  9
$AUPREC
 70
     0
  9
$MENU
  1
.
  9
$ELEVATION
 40
0.0
  9
$THICKNESS
 40
0.0
  9
$LIMCHECK
 70
     0
  9
$CHAMFERA
 40
0.0
  9
$CHAMFERB
 40
0.0
  9
$SKPOLY
 70
     0
  9
$TDCREATE
 40
2460613.799226343
  9
$TDUPDATE
 40
2460613.799226725
  9
$TDINDWG
 40
0.0000000116
  9
$TDUSRTIMER
 40
0.0000000116
  9
$USRTIMER
 70
     1
  9
$ANGBASE
 50
0.0
  9
$ANGDIR
 70
     0
  9
$PDMODE
 70
     0
  9
$PDSIZE
 40
0.0
  9
$PLINEWID
 40
0.0
  9
$COORDS
 70
     1
  9
$SPLFRAME
 70
     0
  9
$SPLINETYPE
 70
     6
  9
$SPLINESEGS
 70
     8
  9
$ATTDIA
 70
     0
  9
$ATTREQ
 70
     1
  9
$HANDLING
 70
     1
  9
$HANDSEED
  5
3E4
  9
$SURFTAB1
 70
     6
  9
$SURFTAB2
 70
     6
  9
$SURFTYPE
 70
     6
  9
$SURFU
 70
     6
  9
$SURFV
 70
     6
  9
$UCSNAME
  2

  9
$UCSORG
 10
0.0
 20
0.0
 30
0.0
  9
$UCSXDIR
 10
1.0
 20
0.0
 30
0.0
  9
$UCSYDIR
 10
0.0
 20
1.0
 30
0.0
  9
$USERI1
 70
     0
  9
$USERI2
 70
     0
  9
$USERI3
 70
     0
  9
$USERI4
 70
     0
  9
$USERI5
 70
     0
  9
$USERR1
 40
0.0
  9
$USERR2
 40
0.0
  9
$USERR3
 40
0.0
  9
$USERR4
 40
0.0
  9
$USERR5
 40
0.0
  9
$WORLDVIEW
 70
     1
  0
ENDSEC
  0
SECTION
  2
TABLES
  0
TABLE
  2
VPORT
 70
     1
  0
VPORT
  2
*ACTIVE
 70
     0
 10
0.0
 20
0.0
 11
1.0
 21
1.0
 12
262.575
 22
-50.95771634565004
 13
0.0
 23
0.0
 14
0.5
 24
0.5
 15
0.5
 25
0.5
 16
0.0
 26
0.0
 36
1.0
 17
0.0
 27
0.0
 37
0.0
 40
335.9154326913001
 41
1.6
 42
50.0
 43
0.0
 44
0.0
 50
0.0
 51
0.0
 71
     0
 72
   100
 73
     1
 74
     3
 75
     0
 76
     0
 77
     0
 78
     0
  0
ENDTAB
  0
TABLE
  2
LTYPE
 70
     3
  0
LTYPE
  2
CONTINUOUS
 70
     0
  3
Solid line
 72
    65
 73
     0
 40
0.0
  0
LTYPE
  2
CENTER
 70
     0
  3

 72
    65
 73
     0
 40
0.0
  0
LTYPE
  2
________________
 70
     0
  3

 72
    65
 73
     4
 40
6.0
 49
4.000000000000001
 49
-0.6666666666666665
 49
0.6666666666666665
 49
-0.6666666666666665
  0
ENDTAB
  0
TABLE
  2
LAYER
 70
     3
  0
LAYER
  2
0
 70
     0
 62
     7
  6
CONTINUOUS
  0
LAYER
  2
1
 70
     0
 62
     7
  6
CONTINUOUS
  0
LAYER
  2
2
 70
     0
 62
     7
  6
CONTINUOUS
  0
ENDTAB
  0
TABLE
  2
STYLE
 70
     2
  0
STYLE
  2
STANDARD
 70
     0
 40
0.0
 41
1.0
 50
0.0
 71
     0
 42
0.2
  3
txt
  4

  0
STYLE
  2
ＭＳ_ゴシック
 70
     0
 40
0.0
 41
1.0
 50
0.0
 71
     0
 42
0.2
  3
ＭＳ ゴシック.shx
  4

  0
ENDTAB
  0
TABLE
  2
VIEW
 70
     0
  0
ENDTAB
  0
TABLE
  2
UCS
 70
     0
  0
ENDTAB
  0
ENDSEC
  0
SECTION
  2
BLOCKS
  0
ENDSEC
  0
SECTION
  2
ENTITIES
  0
LINE
  5
71
  8
1
  6
CONTINUOUS
 62
     7
 10
311.6480529811253
 20
21.65000000000008
 30
0.0
 11
311.6480529811253
 21
12.75000000000012
 31
0.0
  0
ARC
  5
72
  8
1
  6
CONTINUOUS
 62
     7
 10
264.0480529811253
 20
63.40000000000019
 30
0.0
 40
1.600000000000046
 50
359.9999999999998
 51
90.00000000000006
  0
LINE
  5
73
  8
1
  6
CONTINUOUS
 62
     7
 10
264.6480529811253
 20
33.00000000000011
 30
0.0
 11
263.1480529811253
 21
33.00000000000011
 31
0.0
  0
LINE
  5
74
  8
1
  6
CONTINUOUS
 62
     7
 10
264.6480529811253
 20
99.35000000000011
 30
0.0
 11
264.6480529811253
 21
106.2485631709316
 31
0.0
  0
LINE
  5
75
  8
1
  6
CONTINUOUS
 62
     7
 10
282.4480529811253
 20
98.35000000000011
 30
0.0
 11
300.0480529811253
 21
98.35000000000011
 31
0.0
  0
ARC
  5
76
  8
1
  6
CONTINUOUS
 62
     7
 10
267.2480529811253
 20
99.35000000000011
 30
0.0
 40
1.000000000000001
 50
179.9999999999995
 51
270.0000000000001
  0
LINE
  5
77
  8
1
  6
CONTINUOUS
 62
     7
 10
262.6480529811253
 20
55.00000000000013
 30
0.0
 11
261.0480529811253
 21
55.00000000000013
 31
0.0
  0
LINE
  5
78
  8
1
  6
CONTINUOUS
 62
     7
 10
263.1480529811253
 20
87.0000000000001
 30
0.0
 11
264.6480529811253
 21
87.0000000000001
 31
0.0
  0
LINE
  5
79
  8
1
  6
CONTINUOUS
 62
     7
 10
261.0480529811253
 20
94.00000000000011
 30
0.0
 11
261.0480529811253
 21
83.50000000000021
 31
0.0
  0
LINE
  5
7A
  8
1
  6
CONTINUOUS
 62
     7
 10
264.6480529811253
 20
89.90000000000012
 30
0.0
 11
264.6480529811253
 21
87.0000000000001
 31
0.0
  0
LINE
  5
7B
  8
1
  6
CONTINUOUS
 62
     7
 10
266.2480529811253
 20
13.75143682906863
 30
0.0
 11
266.2480529811253
 21
20.65000000000008
 31
0.0
  0
LINE
  5
7C
  8
1
  6
CONTINUOUS
 62
     7
 10
310.4480529811253
 20
21.65000000000008
 30
0.0
 11
311.6480529811253
 21
21.65000000000008
 31
0.0
  0
LINE
  5
7D
  8
1
  6
CONTINUOUS
 62
     7
 10
264.6480529811253
 20
13.75143682906863
 30
0.0
 11
264.6480529811253
 21
20.65000000000008
 31
0.0
  0
LINE
  5
7E
  8
1
  6
CONTINUOUS
 62
     7
 10
311.6480529811253
 20
89.7500000000001
 30
0.0
 11
311.6480529811253
 21
84.0000000000001
 31
0.0
  0
LINE
  5
7F
  8
1
  6
CONTINUOUS
 62
     7
 10
310.4480529811253
 20
98.35000000000011
 30
0.0
 11
308.8480529811252
 21
98.35000000000011
 31
0.0
  0
LINE
  5
80
  8
1
  6
CONTINUOUS
 62
     7
 10
273.2480529811253
 20
12.75000000000012
 30
0.0
 11
266.2480529811253
 21
11.05000000000011
 31
0.0
  0
LINE
  5
81
  8
1
  6
CONTINUOUS
 62
     7
 10
261.0480529811253
 20
82.50000000000021
 30
0.0
 11
261.0480529811253
 21
81.50000000000021
 31
0.0
  0
LINE
  5
82
  8
1
  6
CONTINUOUS
 62
     7
 10
271.1480529811253
 20
21.65000000000008
 30
0.0
 11
271.1480529811253
 21
26.90405405405421
 31
0.0
  0
LINE
  5
83
  8
1
  6
CONTINUOUS
 62
     7
 10
262.6980529811253
 20
109.0
 30
0.0
 11
262.6480529811253
 21
109.0
 31
0.0
  0
LINE
  5
84
  8
1
  6
CONTINUOUS
 62
     7
 10
262.6480529811253
 20
109.0
 30
0.0
 11
262.6480529811253
 21
117.0
 31
0.0
  0
LINE
  5
85
  8
1
  6
CONTINUOUS
 62
     7
 10
271.1480529811253
 20
98.35000000000011
 30
0.0
 11
271.1480529811253
 21
93.09594594594611
 31
0.0
  0
LINE
  5
86
  8
1
  6
CONTINUOUS
 62
     7
 10
262.6980529811253
 20
65.0000000000002
 30
0.0
 11
263.1480529811253
 21
65.0000000000002
 31
0.0
  0
LINE
  5
87
  8
1
  6
CONTINUOUS
 62
     7
 10
261.0480529811253
 20
96.00000000000011
 30
0.0
 11
262.6480529811253
 21
96.00000000000011
 31
0.0
  0
LINE
  5
88
  8
1
  6
CONTINUOUS
 62
     7
 10
271.1480529811253
 20
93.09594594594611
 30
0.0
 11
271.1480529811253
 21
91.5000000000002
 31
0.0
  0
LINE
  5
89
  8
1
  6
CONTINUOUS
 62
     7
 10
267.2480529811253
 20
96.75000000000011
 30
0.0
 11
271.1480529811253
 21
96.75000000000011
 31
0.0
  0
ARC
  5
8A
  8
1
  6
CONTINUOUS
 62
     7
 10
266.9874666714259
 20
20.65000000000008
 30
0.0
 40
2.599999999999991
 50
90.0
 51
154.1284415917008
  0
LINE
  5
8B
  8
1
  6
CONTINUOUS
 62
     7
 10
266.2480529811253
 20
99.35000000000011
 30
0.0
 11
266.2480529811253
 21
106.2485631709317
 31
0.0
  0
LINE
  5
8C
  8
1
  6
CONTINUOUS
 62
     7
 10
263.1480529811253
 20
87.0000000000001
 30
0.0
 11
263.1480529811253
 21
84.0000000000001
 31
0.0
  0
LINE
  5
8D
  8
1
  6
CONTINUOUS
 62
     7
 10
263.1480529811253
 20
55.00000000000013
 30
0.0
 11
263.1480529811253
 21
36.00000000000011
 31
0.0
  0
LINE
  5
8E
  8
1
  6
CONTINUOUS
 62
     7
 10
271.1480529811253
 20
26.90405405405421
 30
0.0
 11
271.1480529811253
 21
28.50000000000022
 31
0.0
  0
ARC
  5
8F
  8
1
  6
CONTINUOUS
 62
     7
 10
264.0480529811253
 20
56.60000000000012
 30
0.0
 40
1.59999999999999
 50
270.0
 51
359.9999999999996
  0
LINE
  5
90
  8
1
  6
CONTINUOUS
 62
     7
 10
264.6480529811253
 20
99.3500000000002
 30
0.0
 11
264.6480529811253
 21
98.21547649401441
 31
0.0
  0
LINE
  5
91
  8
1
  6
CONTINUOUS
 62
     7
 10
262.6980529811253
 20
109.0
 30
0.0
 11
262.6980529811253
 21
117.0
 31
0.0
  0
LINE
  5
92
  8
1
  6
CONTINUOUS
 62
     7
 10
262.6480529811253
 20
3.000000000000114
 30
0.0
 11
262.6480529811253
 21
11.00000000000012
 31
0.0
  0
ARC
  5
93
  8
1
  6
CONTINUOUS
 62
     7
 10
303.0886257219341
 20
30.268855792286
 30
0.0
 40
8.559448028131744
 50
269.7284105809921
 51
359.8737817920485
  0
LINE
  5
94
  8
1
  6
CONTINUOUS
 62
     7
 10
265.6480529811253
 20
63.40000000000019
 30
0.0
 11
265.6480529811253
 21
56.60000000000012
 31
0.0
  0
LINE
  5
95
  8
1
  6
CONTINUOUS
 62
     7
 10
264.6480529811253
 20
11.00000000000012
 30
0.0
 11
264.6480529811253
 21
13.75143682906863
 31
0.0
  0
LINE
  5
96
  8
1
  6
CONTINUOUS
 62
     7
 10
271.1480529811253
 20
23.25000000000013
 30
0.0
 11
267.2480529811253
 21
23.25000000000013
 31
0.0
  0
LINE
  5
97
  8
1
  6
CONTINUOUS
 62
     7
 10
264.6480529811253
 20
109.0000000000002
 30
0.0
 11
264.6480529811253
 21
106.2485631709316
 31
0.0
  0
LINE
  5
98
  8
1
  6
CONTINUOUS
 62
     7
 10
267.2480529811253
 20
98.35000000000011
 30
0.0
 11
271.1480529811253
 21
98.35000000000011
 31
0.0
  0
LINE
  5
99
  8
1
  6
CONTINUOUS
 62
     7
 10
262.6979655478618
 20
87.0000000000001
 30
0.0
 11
263.1480529811253
 21
87.0000000000001
 31
0.0
  0
LINE
  5
9A
  8
1
  6
CONTINUOUS
 62
     7
 10
262.6480529811253
 20
11.00000000000012
 30
0.0
 11
262.6480529811253
 21
109.0
 31
0.0
  0
LINE
  5
9B
  8
1
  6
CONTINUOUS
 62
     7
 10
266.2480529811253
 20
11.00000000000001
 30
0.0
 11
264.6480529811253
 21
11.00000000000001
 31
0.0
  0
LINE
  5
9C
  8
1
  6
CONTINUOUS
 62
     7
 10
266.2480529811253
 20
107.3708876084861
 30
0.0
 11
266.2480529811253
 21
106.2485631709317
 31
0.0
  0
ARC
  5
9D
  8
1
  6
CONTINUOUS
 62
     7
 10
266.2480730617473
 20
89.89997991937811
 30
0.0
 40
1.600020080748055
 50
90.00071907528385
 51
179.9992809247152
  0
LINE
  5
9E
  8
1
  6
CONTINUOUS
 62
     7
 10
261.0480529811253
 20
24.00000000000013
 30
0.0
 11
262.6480529811253
 21
24.00000000000013
 31
0.0
  0
LINE
  5
9F
  8
1
  6
CONTINUOUS
 62
     7
 10
311.6480529811253
 20
36.00000000000011
 30
0.0
 11
311.6480529811253
 21
30.25000000000011
 31
0.0
  0
LINE
  5
A0
  8
1
  6
CONTINUOUS
 62
     7
 10
263.1480529811253
 20
84.0000000000001
 30
0.0
 11
263.1480529811253
 21
65.0000000000002
 31
0.0
  0
LINE
  5
A1
  8
1
  6
CONTINUOUS
 62
     7
 10
311.6480529811253
 20
98.35000000000011
 30
0.0
 11
310.4480529811253
 21
98.35000000000011
 31
0.0
  0
LINE
  5
A2
  8
1
  6
CONTINUOUS
 62
     7
 10
261.0480529811253
 20
39.50000000000012
 30
0.0
 11
261.0480529811253
 21
54.00000000000013
 31
0.0
  0
LINE
  5
A3
  8
1
  6
CONTINUOUS
 62
     7
 10
311.6480529811253
 20
84.0000000000001
 30
0.0
 11
311.6480529811253
 21
36.00000000000011
 31
0.0
  0
LINE
  5
A4
  8
1
  6
CONTINUOUS
 62
     7
 10
264.6480529811253
 20
33.00000000000011
 30
0.0
 11
264.6480529811253
 21
30.10000000000013
 31
0.0
  0
LINE
  5
A5
  8
1
  6
CONTINUOUS
 62
     7
 10
262.6980529811253
 20
11.00000000000012
 30
0.0
 11
262.6980529811253
 21
109.0
 31
0.0
  0
ARC
  5
A6
  8
1
  6
CONTINUOUS
 62
     7
 10
303.0894749911914
 20
89.731999394058
 30
0.0
 40
8.558596919565453
 50
0.1205056762496144
 51
90.27730195070941
  0
LINE
  5
A7
  8
1
  6
CONTINUOUS
 62
     7
 10
266.2480529811253
 20
91.50000000000011
 30
0.0
 11
271.1480529811253
 21
91.50000000000011
 31
0.0
  0
LINE
  5
A8
  8
1
  6
CONTINUOUS
 62
     7
 10
262.6980529811253
 20
3.000000000000114
 30
0.0
 11
262.6980529811253
 21
11.00000000000012
 31
0.0
  0
LINE
  5
A9
  8
1
  6
CONTINUOUS
 62
     7
 10
266.2480529811253
 20
109.0000000000002
 30
0.0
 11
264.6480529811253
 21
109.0000000000002
 31
0.0
  0
LINE
  5
AA
  8
1
  6
CONTINUOUS
 62
     7
 10
262.6980529811253
 20
3.000000000000114
 30
0.0
 11
262.6480529811253
 21
3.000000000000114
 31
0.0
  0
LINE
  5
AB
  8
1
  6
CONTINUOUS
 62
     7
 10
264.6480529811253
 20
21.78452350598581
 30
0.0
 11
264.6480529811253
 21
20.65000000000008
 31
0.0
  0
ARC
  5
AC
  8
1
  6
CONTINUOUS
 62
     7
 10
266.9874666714259
 20
99.35000000000011
 30
0.0
 40
2.600000000000047
 50
205.8715584082992
 51
270.0
  0
LINE
  5
AD
  8
1
  6
CONTINUOUS
 62
     7
 10
262.6980529811253
 20
117.0
 30
0.0
 11
262.6480529811253
 21
117.0
 31
0.0
  0
LINE
  5
AE
  8
1
  6
CONTINUOUS
 62
     7
 10
266.2480529811253
 20
109.0000000000002
 30
0.0
 11
266.2480529811253
 21
108.05
 31
0.0
  0
LINE
  5
AF
  8
1
  6
CONTINUOUS
 62
     7
 10
263.1480529811253
 20
65.0000000000002
 30
0.0
 11
264.0480529811253
 21
65.0000000000002
 31
0.0
  0
LINE
  5
B0
  8
1
  6
CONTINUOUS
 62
     7
 10
262.6980529811253
 20
11.00000000000012
 30
0.0
 11
262.6480529811253
 21
11.00000000000012
 31
0.0
  0
ARC
  5
B1
  8
1
  6
CONTINUOUS
 62
     7
 10
266.2480772628628
 20
30.10002428173769
 30
0.0
 40
1.600024281921741
 50
180.0008695124792
 51
269.9991304875219
  0
LINE
  5
B2
  8
1
  6
CONTINUOUS
 62
     7
 10
266.2480529811253
 20
11.00000000000012
 30
0.0
 11
266.2480529811253
 21
13.75143682906863
 31
0.0
  0
LINE
  5
B3
  8
1
  6
CONTINUOUS
 62
     7
 10
263.1480529811253
 20
55.00000000000013
 30
0.0
 11
264.0480529811253
 21
55.00000000000013
 31
0.0
  0
LINE
  5
B4
  8
1
  6
CONTINUOUS
 62
     7
 10
271.1480529811253
 20
21.65000000000008
 30
0.0
 11
267.2480529811253
 21
21.65000000000008
 31
0.0
  0
LINE
  5
B5
  8
1
  6
CONTINUOUS
 62
     7
 10
271.1480529811253
 20
28.50000000000011
 30
0.0
 11
266.2480529811253
 21
28.50000000000011
 31
0.0
  0
POINT
  5
B6
  8
0
 62
     1
 10
325.0000000000001
 20
-187.9154326912999
 30
0.0
  0
LINE
  5
B7
  8
0
  6
CENTER
 62
     1
 10
295.35
 20
-130.0
 30
0.0
 11
354.6500000000001
 21
-130.0
 31
0.0
  0
LINE
  5
B9
  8
2
  6
CONTINUOUS
 62
     7
 10
217.6655145146001
 20
-167.1970855034999
 30
0.0
 11
217.7053188253001
 21
-167.1762153174
 31
0.0
  0
LINE
  5
BA
  8
2
  6
CONTINUOUS
 62
     7
 10
203.6081569248
 20
-164.1318483047999
 30
0.0
 11
203.6192266297
 21
-164.1075140934001
 31
0.0
  0
LINE
  5
BB
  8
2
  6
CONTINUOUS
 62
     7
 10
198.0777515373001
 20
-163.7095161665
 30
0.0
 11
198.1734570424001
 21
-163.7542349142
 31
0.0
  0
LINE
  5
BC
  8
2
  6
CONTINUOUS
 62
     7
 10
217.6599216323
 20
-166.3789885544999
 30
0.0
 11
217.6569995771
 21
-166.4079249258999
 31
0.0
  0
LINE
  5
BD
  8
2
  6
CONTINUOUS
 62
     7
 10
217.5683351081
 20
-166.7083548136
 30
0.0
 11
217.5503956606001
 21
-166.7432471922
 31
0.0
  0
LINE
  5
BE
  8
2
  6
CONTINUOUS
 62
     7
 10
217.5310236691001
 20
-166.7774398225
 30
0.0
 11
217.510041727
 21
-166.8112124964
 31
0.0
  0
LINE
  5
BF
  8
2
  6
CONTINUOUS
 62
     7
 10
204.085510196
 20
-163.7293014062
 30
0.0
 11
204.1180981877
 21
-163.7222169168999
 31
0.0
  0
LINE
  5
C0
  8
2
  6
CONTINUOUS
 62
     7
 10
203.6192266297001
 20
-164.1075140934001
 30
0.0
 11
203.6311739828001
 21
-164.0837019495
 31
0.0
  0
LINE
  5
C1
  8
2
  6
CONTINUOUS
 62
     7
 10
203.7358950609
 20
-163.9352825619999
 30
0.0
 11
203.761396026
 21
-163.9090257628
 31
0.0
  0
LINE
  5
C2
  8
2
  6
CONTINUOUS
 62
     7
 10
211.0780325551
 20
-164.1210262857999
 30
0.0
 11
211.090077551
 21
-164.0957519388999
 31
0.0
  0
CIRCLE
  5
C3
  8
2
  6
CONTINUOUS
 62
     7
 10
208.0
 20
-124.0000000000001
 30
0.0
 40
13.65000000000005
  0
LINE
  5
C4
  8
2
  6
CONTINUOUS
 62
     7
 10
219.8238903262001
 20
-120.9354162597999
 30
0.0
 11
218.1163296942001
 21
-120.9354162597999
 31
0.0
  0
LINE
  5
C5
  8
2
  6
CONTINUOUS
 62
     7
 10
204.8964669831001
 20
-164.0702385246
 30
0.0
 11
204.9100384715001
 21
-164.0959843402001
 31
0.0
  0
LINE
  5
C6
  8
2
  6
CONTINUOUS
 62
     7
 10
198.8704675467001
 20
-167.3095161664999
 30
0.0
 11
198.3500000000001
 21
-167.3095161664999
 31
0.0
  0
LINE
  5
C7
  8
2
  6
CONTINUOUS
 62
     7
 10
211.6468883125001
 20
-163.7129330321
 30
0.0
 11
211.6813604235001
 21
-163.7103713257
 31
0.0
  0
LINE
  5
C8
  8
2
  6
CONTINUOUS
 62
     7
 10
211.6813604235
 20
-163.7103713257
 30
0.0
 11
211.7158161881
 21
-163.7095161665
 31
0.0
  0
LINE
  5
C9
  8
2
  6
CONTINUOUS
 62
     7
 10
197.7969948804
 20
-165.3095161664999
 30
0.0
 11
195.85
 21
-165.3095161664999
 31
0.0
  0
LINE
  5
CA
  8
2
  6
CONTINUOUS
 62
     7
 10
211.4339680249001
 20
-163.7687653468001
 30
0.0
 11
211.4610603389001
 21
-163.7575218606
 31
0.0
  0
ARC
  5
CB
  8
2
  6
CONTINUOUS
 62
     7
 10
195.35
 20
-162.6095161665
 30
0.0
 40
1.000000000000112
 50
90.0
 51
180.0
  0
LINE
  5
CC
  8
2
  6
CONTINUOUS
 62
     7
 10
217.6029492486001
 20
-166.6284499039999
 30
0.0
 11
217.5922561927001
 21
-166.6553664041999
 31
0.0
  0
LINE
  5
CD
  8
2
  6
CONTINUOUS
 62
     7
 10
203.9182988939001
 20
-163.7934889280999
 30
0.0
 11
203.9438755469001
 21
-163.7803559291
 31
0.0
  0
LINE
  5
CE
  8
2
  6
CONTINUOUS
 62
     7
 10
217.510041727
 20
-166.8112124963999
 30
0.0
 11
217.4876794528
 21
-166.8441661717
 31
0.0
  0
LINE
  5
CF
  8
2
  6
CONTINUOUS
 62
     7
 10
217.6569995771
 20
-166.4079249258999
 30
0.0
 11
217.6515882151
 21
-166.4468515091999
 31
0.0
  0
LINE
  5
D0
  8
2
  6
CONTINUOUS
 62
     7
 10
217.3621980551
 20
-167.2948579148
 30
0.0
 11
217.4076204175
 21
-167.2863572602
 31
0.0
  0
LINE
  5
D1
  8
2
  6
CONTINUOUS
 62
     7
 10
203.5664223445001
 20
-164.2621242675
 30
0.0
 11
203.5728280842
 21
-164.2350243401
 31
0.0
  0
LINE
  5
D2
  8
2
  6
CONTINUOUS
 62
     7
 10
204.0533437208001
 20
-163.7379209682
 30
0.0
 11
204.085510196
 21
-163.7293014062
 31
0.0
  0
LINE
  5
D3
  8
2
  6
CONTINUOUS
 62
     7
 10
198.0777515373001
 20
-163.7095161665
 30
0.0
 11
198.0651734914001
 21
-163.7095161665
 31
0.0
  0
LINE
  5
D4
  8
2
  6
CONTINUOUS
 62
     7
 10
217.612809539
 20
-166.6012174615
 30
0.0
 11
217.6029492486001
 21
-166.6284499039999
 31
0.0
  0
LINE
  5
D5
  8
2
  6
CONTINUOUS
 62
     7
 10
217.6444961542001
 20
-166.4855812830999
 30
0.0
 11
217.6356264687002
 21
-166.5244740726001
 31
0.0
  0
LINE
  5
D6
  8
2
  6
CONTINUOUS
 62
     7
 10
217.3255197094
 20
-167.0235587879
 30
0.0
 11
217.2942762524
 21
-167.0499161792
 31
0.0
  0
LINE
  5
D7
  8
2
  6
CONTINUOUS
 62
     7
 10
217.4125135057001
 20
-166.937914864
 30
0.0
 11
217.3846886871002
 21
-166.9675232226
 31
0.0
  0
LINE
  5
D8
  8
2
  6
CONTINUOUS
 62
     7
 10
217.4876794528001
 20
-166.8441661717
 30
0.0
 11
217.4639410036001
 21
-166.8763040981999
 31
0.0
  0
LINE
  5
D9
  8
2
  6
CONTINUOUS
 62
     7
 10
204.9225602646001
 20
-164.1223422405
 30
0.0
 11
204.9339938899001
 21
-164.1492410549
 31
0.0
  0
LINE
  5
DA
  8
2
  6
CONTINUOUS
 62
     7
 10
204.8451668802001
 20
-163.9908359608
 30
0.0
 11
204.8634186311
 21
-164.0164788185999
 31
0.0
  0
LINE
  5
DB
  8
2
  6
CONTINUOUS
 62
     7
 10
217.3846886871
 20
-166.9675232226
 30
0.0
 11
217.3557333532
 21
-166.9960276666
 31
0.0
  0
LINE
  5
DC
  8
2
  6
CONTINUOUS
 62
     7
 10
194.3500000000001
 20
-162.6095161665
 30
0.0
 11
194.3500000000001
 21
-163.6095161665
 31
0.0
  0
LINE
  5
DD
  8
2
  6
CONTINUOUS
 62
     7
 10
198.0960546742001
 20
-167.0336540975999
 30
0.0
 11
196.2261943281001
 21
-165.3095161664999
 31
0.0
  0
LINE
  5
DE
  8
2
  6
CONTINUOUS
 62
     7
 10
204.1180981877001
 20
-163.7222169168999
 30
0.0
 11
204.1510107457001
 21
-163.7166818244999
 31
0.0
  0
LINE
  5
DF
  8
2
  6
CONTINUOUS
 62
     7
 10
205.0349101298
 20
-167.3095161664999
 30
0.0
 11
204.9840771987
 21
-164.397299482
 31
0.0
  0
LINE
  5
E0
  8
2
  6
CONTINUOUS
 62
     7
 10
217.5806998044001
 20
-166.6820429733999
 30
0.0
 11
217.5683351081001
 21
-166.7083548135999
 31
0.0
  0
LINE
  5
E1
  8
2
  6
CONTINUOUS
 62
     7
 10
204.3748297292
 20
-163.7154122167999
 30
0.0
 11
204.4048450104
 21
-163.7199939586
 31
0.0
  0
LINE
  5
E2
  8
2
  6
CONTINUOUS
 62
     7
 10
210.9650898701001
 20
-167.3095161664999
 30
0.0
 11
205.0349101299002
 21
-167.3095161664999
 31
0.0
  0
LINE
  5
E3
  8
2
  6
CONTINUOUS
 62
     7
 10
217.6515882151001
 20
-166.4468515091999
 30
0.0
 11
217.6444961542001
 21
-166.4855812830999
 31
0.0
  0
LINE
  5
E4
  8
2
  6
CONTINUOUS
 62
     7
 10
217.6356264687
 20
-166.5244740726
 30
0.0
 11
217.6250655752001
 21
-166.5630196341999
 31
0.0
  0
LINE
  5
E5
  8
2
  6
CONTINUOUS
 62
     7
 10
204.4048450104001
 20
-163.7199939586
 30
0.0
 11
204.4355254236001
 21
-163.7260748864
 31
0.0
  0
ARC
  5
E6
  8
2
  6
CONTINUOUS
 62
     7
 10
208.0
 20
-124.0000000000001
 30
0.0
 40
10.63491012990003
 50
343.6150279779
 51
16.38497202209999
  0
LINE
  5
E7
  8
2
  6
CONTINUOUS
 62
     7
 10
203.8447667137001
 20
-163.8392558753
 30
0.0
 11
203.8686846256001
 21
-163.822965477
 31
0.0
  0
LINE
  5
E8
  8
2
  6
CONTINUOUS
 62
     7
 10
203.8159474047001
 20
-163.8609297634999
 30
0.0
 11
203.8447667137001
 21
-163.8392558752999
 31
0.0
  0
LINE
  5
E9
  8
2
  6
CONTINUOUS
 62
     7
 10
217.4388532731001
 20
-166.9075912585
 30
0.0
 11
217.4125135057
 21
-166.937914864
 31
0.0
  0
LINE
  5
EA
  8
2
  6
CONTINUOUS
 62
     7
 10
217.4639410036001
 20
-166.8763040981999
 30
0.0
 11
217.4388532731001
 21
-166.9075912585
 31
0.0
  0
LINE
  5
EB
  8
2
  6
CONTINUOUS
 62
     7
 10
198.3580186541001
 20
-164.3972994820001
 30
0.0
 11
198.3368785536001
 21
-166.2920637601
 31
0.0
  0
LINE
  5
EC
  8
2
  6
CONTINUOUS
 62
     7
 10
211.6125135411001
 20
-163.7171956295999
 30
0.0
 11
211.6468883125001
 21
-163.7129330321
 31
0.0
  0
LINE
  5
ED
  8
2
  6
CONTINUOUS
 62
     7
 10
217.6631214464001
 20
-166.2920637600999
 30
0.0
 11
217.6629816270001
 21
-166.3210282996
 31
0.0
  0
LINE
  5
EE
  8
2
  6
CONTINUOUS
 62
     7
 10
218.1632730677001
 20
-120.9703263896
 30
0.0
 11
218.1163296942001
 21
-120.9354162597999
 31
0.0
  0
LINE
  5
EF
  8
2
  6
CONTINUOUS
 62
     7
 10
203.5569733945
 20
-164.3162243164
 30
0.0
 11
203.5610968166001
 21
-164.2894697133
 31
0.0
  0
LINE
  5
F0
  8
2
  6
CONTINUOUS
 62
     7
 10
211.0669883744
 20
-164.1468009045
 30
0.0
 11
211.0780325551
 21
-164.1210262858
 31
0.0
  0
LINE
  5
F1
  8
2
  6
CONTINUOUS
 62
     7
 10
204.9100384715001
 20
-164.0959843402001
 30
0.0
 11
204.9225602646
 21
-164.1223422405
 31
0.0
  0
LINE
  5
F2
  8
2
  6
CONTINUOUS
 62
     7
 10
211.1030892342
 20
-164.0710406429
 30
0.0
 11
211.1174593391001
 21
-164.0462452355
 31
0.0
  0
LINE
  5
F3
  8
2
  6
CONTINUOUS
 62
     7
 10
217.3557333532
 20
-166.9960276666
 30
0.0
 11
217.3255197094
 21
-167.0235587879
 31
0.0
  0
LINE
  5
F4
  8
2
  6
CONTINUOUS
 62
     7
 10
217.5503956606001
 20
-166.7432471922
 30
0.0
 11
217.5310236691001
 21
-166.7774398225
 31
0.0
  0
LINE
  5
F5
  8
2
  6
CONTINUOUS
 62
     7
 10
217.7053188253001
 20
-167.1762153174
 30
0.0
 11
217.7453724637001
 21
-167.1529276815
 31
0.0
  0
LINE
  5
F6
  8
2
  6
CONTINUOUS
 62
     7
 10
199.5597970996
 20
-124.5000000000001
 30
0.0
 11
205.5857864376
 21
-124.5000000000001
 31
0.0
  0
ARC
  5
F7
  8
2
  6
CONTINUOUS
 62
     7
 10
208.0
 20
-124.0000000000001
 30
0.0
 40
12.21458374020001
 50
75.4694921388
 51
104.5305078612
  0
ARC
  5
F8
  8
2
  6
CONTINUOUS
 62
     7
 10
210.4142135624001
 20
-125.0000000000001
 30
0.0
 40
0.4999999999999449
 50
90.0
 51
225.0
  0
LINE
  5
F9
  8
0
  6
CONTINUOUS
 62
     7
 10
332.0000000000001
 20
-190.9154326912999
 30
0.0
 11
332.0000000000001
 21
-187.9154326912999
 31
0.0
  0
LINE
  5
FA
  8
0
  6
CONTINUOUS
 62
     7
 10
297.3500000000001
 20
-190.9154326912999
 30
0.0
 11
297.3500000000001
 21
-192.9154326913
 31
0.0
  0
LINE
  5
FB
  8
2
  6
CONTINUOUS
 62
     7
 10
205.0
 20
-113.7969948804
 30
0.0
 11
204.9840771985
 21
-113.818295745
 31
0.0
  0
LINE
  5
FC
  8
0
  6
CONTINUOUS
 62
     7
 10
340.6000000000001
 20
-190.9154326912999
 30
0.0
 11
340.6000000000001
 21
-187.9154326912999
 31
0.0
  0
LINE
  5
FD
  8
2
  6
CONTINUOUS
 62
     7
 10
198.6016433856001
 20
-167.2882531792
 30
0.0
 11
198.6457366275
 21
-167.2961329546
 31
0.0
  0
LINE
  5
FE
  8
2
  6
CONTINUOUS
 62
     7
 10
211.0296736104
 20
-134.1632730677
 30
0.0
 11
211.0645837402
 21
-134.1163296941999
 31
0.0
  0
LINE
  5
FF
  8
2
  6
CONTINUOUS
 62
     7
 10
211.0645837402
 20
-135.8238903261999
 30
0.0
 11
211.0645837402
 21
-134.1163296941999
 31
0.0
  0
LINE
  5
100
  8
0
  6
CONTINUOUS
 62
     7
 10
352.6500000000001
 20
-192.9154326913
 30
0.0
 11
352.6500000000001
 21
-190.9154326912999
 31
0.0
  0
LINE
  5
101
  8
0
  6
CONTINUOUS
 62
     7
 10
325.2500000000001
 20
-190.9154326912999
 30
0.0
 11
324.7500000000001
 21
-190.9154326912999
 31
0.0
  0
LINE
  5
102
  8
0
  6
CONTINUOUS
 62
     7
 10
325.2500000000001
 20
-218.9154326913
 30
0.0
 11
325.2500000000001
 21
-187.9154326912999
 31
0.0
  0
ARC
  5
103
  8
2
  6
CONTINUOUS
 62
     7
 10
208.0
 20
-124.0000000000001
 30
0.0
 40
8.45499999999999
 50
221.6097440931
 51
228.3902559069001
  0
LINE
  5
104
  8
2
  6
CONTINUOUS
 62
     7
 10
204.9703263896001
 20
-134.1632730677
 30
0.0
 11
204.9354162598001
 21
-134.1163296941999
 31
0.0
  0
LINE
  5
105
  8
2
  6
CONTINUOUS
 62
     7
 10
205.5857864376
 20
-123.5000000000001
 30
0.0
 11
199.5597970996
 21
-123.5000000000001
 31
0.0
  0
ARC
  5
106
  8
2
  6
CONTINUOUS
 62
     7
 10
208.0
 20
-124.0000000000001
 30
0.0
 40
10.57032638959998
 50
163.1466367937
 51
196.8533632063
  0
LINE
  5
107
  8
2
  6
CONTINUOUS
 62
     7
 10
204.9840771985
 20
-134.181704255
 30
0.0
 11
205.0
 21
-134.2030051195999
 31
0.0
  0
ARC
  5
108
  8
2
  6
CONTINUOUS
 62
     7
 10
208.0
 20
-124.0000000000001
 30
0.0
 40
12.21458374020001
 50
255.4694921388
 51
284.5305078612
  0
ARC
  5
109
  8
2
  6
CONTINUOUS
 62
     7
 10
208.0
 20
-124.0000000000001
 30
0.0
 40
8.45499999999999
 50
311.6097440931
 51
318.3902559069
  0
ARC
  5
10A
  8
2
  6
CONTINUOUS
 62
     7
 10
208.0
 20
-124.0000000000001
 30
0.0
 40
7.750000000000035
 50
93.6990710632
 51
131.3009289368
  0
LINE
  5
10B
  8
2
  6
CONTINUOUS
 62
     7
 10
211.0296736104
 20
-113.8367269323
 30
0.0
 11
211.0645837402
 21
-113.8836703058
 31
0.0
  0
ARC
  5
10C
  8
2
  6
CONTINUOUS
 62
     7
 10
208.0
 20
-124.0000000000001
 30
0.0
 40
10.63491012990003
 50
163.6150279779
 51
196.3849720221
  0
ARC
  5
10D
  8
0
  6
CONTINUOUS
 62
     7
 10
339.2480765225001
 20
-215.9154326913
 30
0.0
 40
3.000000000000114
 50
270.0
 51
358.9999999999999
  0
LINE
  5
10E
  8
0
  6
CONTINUOUS
 62
     7
 10
342.2476196080002
 20
-215.9677899106
 30
0.0
 11
342.65
 21
-192.9154326913
 31
0.0
  0
ARC
  5
10F
  8
2
  6
CONTINUOUS
 62
     7
 10
208.0
 20
-124.0000000000001
 30
0.0
 40
7.750000000000035
 50
183.6990710632
 51
221.3009289368
  0
LINE
  5
110
  8
2
  6
CONTINUOUS
 62
     7
 10
197.7969948804
 20
-127.0000000000001
 30
0.0
 11
197.818295745
 21
-127.0159228014999
 31
0.0
  0
LINE
  5
111
  8
2
  6
CONTINUOUS
 62
     7
 10
197.8182957450001
 20
-120.9840771985
 30
0.0
 11
197.7969948804001
 21
-121.0
 31
0.0
  0
LINE
  5
112
  8
2
  6
CONTINUOUS
 62
     7
 10
218.1163296942001
 20
-127.0645837402
 30
0.0
 11
219.8238903262
 21
-127.0645837402
 31
0.0
  0
LINE
  5
113
  8
2
  6
CONTINUOUS
 62
     7
 10
211.0645837402
 20
-113.8836703058
 30
0.0
 11
211.0645837402
 21
-112.1761096738
 31
0.0
  0
LINE
  5
114
  8
2
  6
CONTINUOUS
 62
     7
 10
197.8367269323
 20
-120.9703263896
 30
0.0
 11
197.8836703058
 21
-120.9354162597999
 31
0.0
  0
LINE
  5
115
  8
2
  6
CONTINUOUS
 62
     7
 10
198.3516844870001
 20
-167.2054481278
 30
0.0
 11
198.3926207939
 21
-167.2238474299999
 31
0.0
  0
LINE
  5
116
  8
0
  6
CONTINUOUS
 62
     7
 10
309.4000000000001
 20
-187.9154326912999
 30
0.0
 11
309.4000000000001
 21
-190.9154326912999
 31
0.0
  0
LINE
  5
117
  8
2
  6
CONTINUOUS
 62
     7
 10
211.0159228015
 20
-134.181704255
 30
0.0
 11
211.0339563472
 21
-134.1736838465
 31
0.0
  0
ARC
  5
118
  8
0
  6
CONTINUOUS
 62
     7
 10
310.7519234775002
 20
-215.9154326913
 30
0.0
 40
2.999999999999892
 50
181.0
 51
270.0
  0
ARC
  5
119
  8
2
  6
CONTINUOUS
 62
     7
 10
208.0
 20
-124.0000000000001
 30
0.0
 40
8.45499999999999
 50
86.6097440931
 51
93.39025590689998
  0
LINE
  5
11A
  8
2
  6
CONTINUOUS
 62
     7
 10
204.9703263896001
 20
-113.8367269323
 30
0.0
 11
204.9354162598001
 21
-113.8836703058
 31
0.0
  0
LINE
  5
11B
  8
0
  6
CONTINUOUS
 62
     7
 10
318.0000000000001
 20
-190.9154326912999
 30
0.0
 11
318.0000000000001
 21
-187.9154326912999
 31
0.0
  0
ARC
  5
11C
  8
2
  6
CONTINUOUS
 62
     7
 10
208.0
 20
-124.0000000000001
 30
0.0
 40
10.63491012990003
 50
253.6150279779
 51
286.3849720221
  0
ARC
  5
11D
  8
2
  6
CONTINUOUS
 62
     7
 10
208.0
 20
-124.0000000000001
 30
0.0
 40
7.750000000000035
 50
48.69907106320003
 51
86.30092893680002
  0
LINE
  5
11E
  8
0
  6
CONTINUOUS
 62
     7
 10
324.7500000000002
 20
-187.9154326912999
 30
0.0
 11
324.7500000000002
 21
-218.9154326913
 31
0.0
  0
ARC
  5
11F
  8
2
  6
CONTINUOUS
 62
     7
 10
208.0
 20
-124.0000000000001
 30
0.0
 40
12.21458374020001
 50
165.4694921388
 51
194.5305078612
  0
LINE
  5
120
  8
2
  6
CONTINUOUS
 62
     7
 10
207.5000000000001
 20
-126.4142135624
 30
0.0
 11
207.5000000000001
 21
-132.4402029003999
 31
0.0
  0
LINE
  5
121
  8
2
  6
________________
 62
     1
 10
208.0
 20
-160.6095161665
 30
0.0
 11
208.0
 21
-168.6095161665
 31
0.0
  0
LINE
  5
123
  8
2
  6
CONTINUOUS
 62
     7
 10
197.8367269323
 20
-127.0296736104
 30
0.0
 11
197.8836703058
 21
-127.0645837402
 31
0.0
  0
LINE
  5
124
  8
2
  6
CONTINUOUS
 62
     7
 10
207.5000000000001
 20
-115.5597970996
 30
0.0
 11
207.5000000000001
 21
-121.5857864376
 31
0.0
  0
LINE
  5
125
  8
2
  6
CONTINUOUS
 62
     7
 10
198.474173355
 20
-167.2545643159
 30
0.0
 11
198.515835611
 21
-167.2674205851
 31
0.0
  0
LINE
  5
126
  8
2
  6
CONTINUOUS
 62
     7
 10
198.3115300412
 20
-167.1853089161999
 30
0.0
 11
198.3516844870001
 21
-167.2054481278001
 31
0.0
  0
LINE
  5
127
  8
2
  6
CONTINUOUS
 62
     7
 10
216.4402029004001
 20
-123.5000000000001
 30
0.0
 11
210.4142135624001
 21
-123.5000000000001
 31
0.0
  0
LINE
  5
128
  8
2
  6
CONTINUOUS
 62
     7
 10
218.2030051196001
 20
-121.0
 30
0.0
 11
218.1817042550002
 21
-120.9840771985
 31
0.0
  0
LINE
  5
129
  8
2
  6
CONTINUOUS
 62
     7
 10
218.1632730677001
 20
-127.0296736104
 30
0.0
 11
218.1163296942001
 21
-127.0645837402
 31
0.0
  0
ARC
  5
12A
  8
2
  6
CONTINUOUS
 62
     7
 10
208.0
 20
-124.0000000000001
 30
0.0
 40
10.57032638959998
 50
73.14663679369998
 51
106.8533632063
  0
ARC
  5
12B
  8
2
  6
CONTINUOUS
 62
     7
 10
207.0
 20
-126.4142135624
 30
0.0
 40
0.500000000000056
 50
0.0
 51
135.0
  0
LINE
  5
12C
  8
0
  6
CONTINUOUS
 62
     7
 10
307.3500000000002
 20
-192.9154326913
 30
0.0
 11
307.752380392
 21
-215.9677899106
 31
0.0
  0
LINE
  5
12D
  8
2
  6
CONTINUOUS
 62
     7
 10
218.181704255
 20
-127.0159228014999
 30
0.0
 11
218.2030051196
 21
-127.0000000000001
 31
0.0
  0
LINE
  5
12E
  8
2
  6
CONTINUOUS
 62
     7
 10
198.1978873013
 20
-167.1156400128
 30
0.0
 11
198.2340212479
 21
-167.1400021989
 31
0.0
  0
LINE
  5
12F
  8
2
  6
CONTINUOUS
 62
     7
 10
209.3535533906
 20
-126.0606601718001
 30
0.0
 11
213.6145713149
 21
-130.3216780961
 31
0.0
  0
LINE
  5
130
  8
2
  6
CONTINUOUS
 62
     7
 10
217.8222493703
 20
-167.1010729784999
 30
0.0
 11
217.8588282623001
 21
-167.0726409048999
 31
0.0
  0
LINE
  5
131
  8
2
  6
CONTINUOUS
 62
     7
 10
198.5579486438
 20
-167.2785743088
 30
0.0
 11
198.6016433856001
 21
-167.2882531792
 31
0.0
  0
ARC
  5
132
  8
2
  6
CONTINUOUS
 62
     7
 10
208.0
 20
-124.0000000000001
 30
0.0
 40
7.750000000000035
 50
3.6990710632
 51
41.3009289368
  0
LINE
  5
133
  8
2
  6
CONTINUOUS
 62
     7
 10
211.3824502255
 20
-163.7939985009999
 30
0.0
 11
211.4079903473
 21
-163.7808347248999
 31
0.0
  0
ARC
  5
134
  8
2
  6
CONTINUOUS
 62
     7
 10
208.0
 20
-124.0000000000001
 30
0.0
 40
10.63491012990003
 50
73.61502797789998
 51
106.3849720221
  0
ARC
  5
135
  8
2
  6
CONTINUOUS
 62
     7
 10
208.0
 20
-124.0000000000001
 30
0.0
 40
12.21458374020001
 50
345.4694921388
 51
14.53050786120002
  0
LINE
  5
136
  8
2
  6
CONTINUOUS
 62
     7
 10
211.4885614926001
 20
-163.7474359874
 30
0.0
 11
211.5164015966
 21
-163.7385236752
 31
0.0
  0
LINE
  5
137
  8
2
  6
CONTINUOUS
 62
     7
 10
211.4610603389001
 20
-163.7575218606
 30
0.0
 11
211.4885614926002
 21
-163.7474359874
 31
0.0
  0
LINE
  5
138
  8
2
  6
CONTINUOUS
 62
     7
 10
217.4076204175
 20
-167.2863572602
 30
0.0
 11
217.4526812543
 21
-167.2759237006
 31
0.0
  0
LINE
  5
139
  8
2
  6
CONTINUOUS
 62
     7
 10
198.0960546742001
 20
-167.0336540975999
 30
0.0
 11
198.1288044728001
 21
-167.0624023441999
 31
0.0
  0
LINE
  5
13A
  8
2
  6
CONTINUOUS
 62
     7
 10
198.515835611
 20
-167.2674205851
 30
0.0
 11
198.5579486438
 21
-167.2785743088
 31
0.0
  0
ARC
  5
13B
  8
2
  6
CONTINUOUS
 62
     7
 10
208.0
 20
-124.0000000000001
 30
0.0
 40
8.45499999999999
 50
131.6097440931
 51
138.3902559069
  0
LINE
  5
13C
  8
2
  6
CONTINUOUS
 62
     7
 10
202.3854286850001
 20
-130.321678096
 30
0.0
 11
206.6464466094
 21
-126.0606601718001
 31
0.0
  0
LINE
  5
13D
  8
2
  6
CONTINUOUS
 62
     7
 10
214.3216780961
 20
-129.6145713149
 30
0.0
 11
210.0606601714
 21
-125.353553391
 31
0.0
  0
LINE
  5
13E
  8
2
  6
CONTINUOUS
 62
     7
 10
211.056979137
 20
-164.1730130162
 30
0.0
 11
211.0669883744
 21
-164.1468009045
 31
0.0
  0
LINE
  5
13F
  8
2
  6
CONTINUOUS
 62
     7
 10
211.3574130835001
 20
-163.8082305995001
 30
0.0
 11
211.3824502255002
 21
-163.793998501
 31
0.0
  0
LINE
  5
140
  8
2
  6
CONTINUOUS
 62
     7
 10
210.0606601718001
 20
-122.6464466094
 30
0.0
 11
214.3216780961001
 21
-118.3854286851
 31
0.0
  0
ARC
  5
141
  8
2
  6
CONTINUOUS
 62
     7
 10
205.5857864376
 20
-125.0000000000001
 30
0.0
 40
0.500000000000056
 50
315.0
 51
90.0
  0
LINE
  5
142
  8
2
  6
CONTINUOUS
 62
     7
 10
213.6145713149001
 20
-117.6783219038999
 30
0.0
 11
209.3535533910001
 21
-121.9393398285999
 31
0.0
  0
LINE
  5
143
  8
2
  6
CONTINUOUS
 62
     7
 10
196.1761096738
 20
-127.0645837402
 30
0.0
 11
197.8836703058
 21
-127.0645837402
 31
0.0
  0
LINE
  5
144
  8
2
  6
CONTINUOUS
 62
     7
 10
217.7453724637001
 20
-167.1529276815
 30
0.0
 11
217.7843900414001
 21
-167.1278577363
 31
0.0
  0
ARC
  5
145
  8
2
  6
CONTINUOUS
 62
     7
 10
209.0
 20
-121.5857864376
 30
0.0
 40
0.500000000000056
 50
180.0
 51
315.0
  0
ARC
  5
146
  8
2
  6
CONTINUOUS
 62
     7
 10
208.0
 20
-124.0000000000001
 30
0.0
 40
7.750000000000035
 50
273.6990710632
 51
311.3009289368001
  0
ARC
  5
147
  8
2
  6
CONTINUOUS
 62
     7
 10
208.0
 20
-124.0000000000001
 30
0.0
 40
8.45499999999999
 50
176.6097440931
 51
183.3902559069
  0
LINE
  5
148
  8
2
  6
CONTINUOUS
 62
     7
 10
211.2642518509
 20
-163.8746454820999
 30
0.0
 11
211.2865083171
 21
-163.8566243121999
 31
0.0
  0
LINE
  5
149
  8
2
  6
CONTINUOUS
 62
     7
 10
198.1627818624001
 20
-167.0897521886
 30
0.0
 11
198.1978873013001
 21
-167.1156400127999
 31
0.0
  0
LINE
  5
14A
  8
2
  6
CONTINUOUS
 62
     7
 10
211.5164015966001
 20
-163.7385236751999
 30
0.0
 11
211.5445107613002
 21
-163.7308008721999
 31
0.0
  0
LINE
  5
14B
  8
2
  6
CONTINUOUS
 62
     7
 10
211.2029420299
 20
-163.9331184075
 30
0.0
 11
211.2224647957001
 21
-163.9129263634
 31
0.0
  0
LINE
  5
14C
  8
2
  6
CONTINUOUS
 62
     7
 10
198.2722710852
 20
-167.1634776536999
 30
0.0
 11
198.3115300412
 21
-167.1853089161999
 31
0.0
  0
LINE
  5
14D
  8
2
  6
CONTINUOUS
 62
     7
 10
211.0269932789
 20
-164.2849248356
 30
0.0
 11
211.0327539483
 21
-164.2564728603001
 31
0.0
  0
LINE
  5
14E
  8
2
  6
CONTINUOUS
 62
     7
 10
205.9393398282001
 20
-125.3535533905999
 30
0.0
 11
201.6783219039001
 21
-129.6145713149
 31
0.0
  0
LINE
  5
14F
  8
2
  6
CONTINUOUS
 62
     7
 10
198.6901158568
 20
-167.3022027232
 30
0.0
 11
198.7346685605
 21
-167.3064515729
 31
0.0
  0
LINE
  5
150
  8
2
  6
CONTINUOUS
 62
     7
 10
198.6457366275
 20
-167.2961329546
 30
0.0
 11
198.6901158568
 21
-167.3022027232
 31
0.0
  0
ARC
  5
151
  8
2
  6
CONTINUOUS
 62
     7
 10
210.4142135624001
 20
-123.0000000000001
 30
0.0
 40
0.4999999999999449
 50
135.0
 51
270.0
  0
LINE
  5
152
  8
2
  6
CONTINUOUS
 62
     7
 10
197.8836703058001
 20
-120.9354162597999
 30
0.0
 11
196.1761096738001
 21
-120.9354162597999
 31
0.0
  0
CIRCLE
  5
153
  8
2
  6
CONTINUOUS
 62
     7
 10
208.0
 20
-124.0000000000001
 30
0.0
 40
8.650000000000047
  0
ARC
  5
154
  8
2
  6
CONTINUOUS
 62
     7
 10
208.0
 20
-124.0000000000001
 30
0.0
 40
10.57032638959998
 50
253.1466367937
 51
286.8533632063
  0
ARC
  5
155
  8
2
  6
CONTINUOUS
 62
     7
 10
208.0
 20
-124.0000000000001
 30
0.0
 40
8.45499999999999
 50
356.6097440931
 51
3.390255906899994
  0
LINE
  5
156
  8
2
  6
CONTINUOUS
 62
     7
 10
208.5000000000001
 20
-132.4402029003999
 30
0.0
 11
208.5000000000001
 21
-126.4142135624
 31
0.0
  0
LINE
  5
157
  8
2
  6
CONTINUOUS
 62
     7
 10
211.0000000000001
 20
-134.2030051195999
 30
0.0
 11
211.0159228015
 21
-134.181704255
 31
0.0
  0
LINE
  5
158
  8
2
  6
CONTINUOUS
 62
     7
 10
198.2340212479002
 20
-167.1400021989
 30
0.0
 11
198.2722710852001
 21
-167.1634776537
 31
0.0
  0
ARC
  5
159
  8
2
  6
CONTINUOUS
 62
     7
 10
209.0
 20
-126.4142135624
 30
0.0
 40
0.500000000000056
 50
45.0
 51
180.0
  0
ARC
  5
15A
  8
2
  6
CONTINUOUS
 62
     7
 10
208.0
 20
-124.0000000000001
 30
0.0
 40
10.57032638959998
 50
343.1466367937
 51
16.8533632063
  0
LINE
  5
15B
  8
2
  6
CONTINUOUS
 62
     7
 10
208.5000000000001
 20
-121.5857864376
 30
0.0
 11
208.5000000000001
 21
-115.5597970996
 31
0.0
  0
LINE
  5
15C
  8
2
  6
CONTINUOUS
 62
     7
 10
217.3177245123001
 20
-167.3012652372
 30
0.0
 11
217.3621980551
 21
-167.2948579147999
 31
0.0
  0
LINE
  5
15D
  8
2
  6
CONTINUOUS
 62
     7
 10
217.6248198222
 20
-167.2162575288
 30
0.0
 11
217.6655145146001
 21
-167.1970855034999
 31
0.0
  0
ARC
  5
15E
  8
2
  6
CONTINUOUS
 62
     7
 10
205.5857864376
 20
-123.0000000000001
 30
0.0
 40
0.500000000000056
 50
270.0
 51
45.0
  0
LINE
  5
15F
  8
2
  6
CONTINUOUS
 62
     7
 10
210.4142135624001
 20
-124.5000000000001
 30
0.0
 11
216.4402029004001
 21
-124.5000000000001
 31
0.0
  0
LINE
  5
160
  8
2
  6
CONTINUOUS
 62
     7
 10
198.1288044728001
 20
-167.0624023442
 30
0.0
 11
198.1627818624001
 21
-167.0897521886
 31
0.0
  0
ARC
  5
161
  8
2
  6
CONTINUOUS
 62
     7
 10
207.0
 20
-121.5857864376
 30
0.0
 40
0.500000000000056
 50
225.0
 51
0.0
  0
LINE
  5
162
  8
2
  6
CONTINUOUS
 62
     7
 10
204.9354162598
 20
-112.1761096738
 30
0.0
 11
204.9354162598
 21
-113.8836703058
 31
0.0
  0
LINE
  5
163
  8
2
  6
CONTINUOUS
 62
     7
 10
218.2030051196001
 20
-165.3095161664999
 30
0.0
 11
220.1500000000001
 21
-165.3095161664999
 31
0.0
  0
ARC
  5
164
  8
2
  6
CONTINUOUS
 62
     7
 10
208.0
 20
-124.0000000000001
 30
0.0
 40
8.45499999999999
 50
266.6097440931
 51
273.3902559069
  0
LINE
  5
165
  8
2
  6
CONTINUOUS
 62
     7
 10
211.0159228015
 20
-113.818295745
 30
0.0
 11
211.0000000000001
 21
-113.7969948804
 31
0.0
  0
LINE
  5
166
  8
2
  6
CONTINUOUS
 62
     7
 10
206.6464466094002
 20
-121.9393398281999
 30
0.0
 11
202.3854286851001
 21
-117.6783219038999
 31
0.0
  0
LINE
  5
167
  8
2
  6
CONTINUOUS
 62
     7
 10
211.3094261837001
 20
-163.8395651605
 30
0.0
 11
211.3329443454
 21
-163.8235049447
 31
0.0
  0
LINE
  5
168
  8
2
  6
CONTINUOUS
 62
     7
 10
201.6783219039001
 20
-118.3854286851
 30
0.0
 11
205.9393398286002
 21
-122.646446609
 31
0.0
  0
ARC
  5
169
  8
2
  6
CONTINUOUS
 62
     7
 10
208.0
 20
-124.0000000000001
 30
0.0
 40
8.45499999999999
 50
41.60974409309999
 51
48.39025590689999
  0
LINE
  5
16A
  8
2
  6
CONTINUOUS
 62
     7
 10
211.1662978162002
 20
-163.9758924137
 30
0.0
 11
211.1842021758001
 21
-163.9541222894
 31
0.0
  0
LINE
  5
16B
  8
2
  6
CONTINUOUS
 62
     7
 10
211.0191958121
 20
-164.3408577602
 30
0.0
 11
211.0225336015
 21
-164.3127905863
 31
0.0
  0
LINE
  5
16C
  8
2
  6
CONTINUOUS
 62
     7
 10
219.7738056719
 20
-165.3095161664999
 30
0.0
 11
217.9039453258
 21
-167.0336540975999
 31
0.0
  0
LINE
  5
16D
  8
2
  6
CONTINUOUS
 62
     7
 10
211.4079903473
 20
-163.7808347249
 30
0.0
 11
211.4339680249
 21
-163.7687653468001
 31
0.0
  0
LINE
  5
16E
  8
2
  6
CONTINUOUS
 62
     7
 10
203.6733081454001
 20
-164.0138072687
 30
0.0
 11
203.6890203411
 21
-163.991800479
 31
0.0
  0
LINE
  5
16F
  8
2
  6
CONTINUOUS
 62
     7
 10
216.5390405330001
 20
-167.3095161664999
 30
0.0
 11
212.5000000000001
 21
-167.3095161664999
 31
0.0
  0
LINE
  5
170
  8
2
  6
CONTINUOUS
 62
     7
 10
217.2281206816001
 20
-167.0995745596
 30
0.0
 11
217.1917022481002
 21
-167.1237830232
 31
0.0
  0
LINE
  5
171
  8
2
  6
CONTINUOUS
 62
     7
 10
212.2123523691
 20
-163.8845798565
 30
0.0
 11
212.2349761118001
 21
-163.9054434778
 31
0.0
  0
LINE
  5
172
  8
2
  6
CONTINUOUS
 62
     7
 10
212.3353104261001
 20
-164.0266960549
 30
0.0
 11
212.3524714255001
 21
-164.0543443088001
 31
0.0
  0
LINE
  5
173
  8
2
  6
CONTINUOUS
 62
     7
 10
203.997789153
 20
-163.7568153563
 30
0.0
 11
204.025393477
 21
-163.7467774489
 31
0.0
  0
LINE
  5
174
  8
2
  6
CONTINUOUS
 62
     7
 10
203.5887819142
 20
-164.1818550007999
 30
0.0
 11
203.5979977316
 21
-164.1566476012999
 31
0.0
  0
LINE
  5
175
  8
2
  6
CONTINUOUS
 62
     7
 10
212.297480119
 20
-163.9742349902
 30
0.0
 11
212.3169556954001
 21
-163.9999656047
 31
0.0
  0
LINE
  5
176
  8
2
  6
CONTINUOUS
 62
     7
 10
216.8200298033
 20
-167.2779682975001
 30
0.0
 11
216.7741549846
 21
-167.2875524717
 31
0.0
  0
LINE
  5
177
  8
2
  6
CONTINUOUS
 62
     7
 10
211.0477715142
 20
-164.2004406206
 30
0.0
 11
211.056979137
 21
-164.1730130162
 31
0.0
  0
LINE
  5
178
  8
2
  6
CONTINUOUS
 62
     7
 10
211.2427178904
 20
-163.8935917527
 30
0.0
 11
211.2642518509
 21
-163.8746454821
 31
0.0
  0
LINE
  5
179
  8
2
  6
CONTINUOUS
 62
     7
 10
211.9954575166001
 20
-163.7542349142
 30
0.0
 11
212.0242964577001
 21
-163.7658087455001
 31
0.0
  0
LINE
  5
17A
  8
2
  6
CONTINUOUS
 62
     7
 10
211.9653247952
 20
-163.7436945092
 30
0.0
 11
211.9954575166
 21
-163.7542349142
 31
0.0
  0
LINE
  5
17B
  8
2
  6
CONTINUOUS
 62
     7
 10
204.0253934770001
 20
-163.7467774489
 30
0.0
 11
204.0533437208001
 21
-163.7379209682001
 31
0.0
  0
LINE
  5
17C
  8
2
  6
CONTINUOUS
 62
     7
 10
197.963174216
 20
-163.7687653468001
 30
0.0
 11
198.0523396473
 21
-163.7103713257
 31
0.0
  0
LINE
  5
17D
  8
2
  6
CONTINUOUS
 62
     7
 10
203.788118658
 20
-163.8842139447
 30
0.0
 11
203.8159474047
 21
-163.8609297635
 31
0.0
  0
LINE
  5
17E
  8
2
  6
CONTINUOUS
 62
     7
 10
212.2776100439001
 20
-163.9503246551999
 30
0.0
 11
212.2974801190001
 21
-163.9742349901999
 31
0.0
  0
LINE
  5
17F
  8
2
  6
CONTINUOUS
 62
     7
 10
211.0000000000001
 20
-165.3095161664999
 30
0.0
 11
205.0
 21
-165.3095161664999
 31
0.0
  0
ARC
  5
180
  8
2
  6
CONTINUOUS
 62
     7
 10
208.0
 20
-124.0000000000001
 30
0.0
 40
7.750000000000035
 50
228.6990710632
 51
266.3009289368
  0
ARC
  5
181
  8
2
  6
CONTINUOUS
 62
     7
 10
208.0
 20
-124.0000000000001
 30
0.0
 40
7.750000000000035
 50
138.6990710632
 51
176.3009289368
  0
LINE
  5
182
  8
2
  6
CONTINUOUS
 62
     7
 10
211.2865083171
 20
-163.8566243121999
 30
0.0
 11
211.3094261837001
 21
-163.8395651604999
 31
0.0
  0
LINE
  5
183
  8
2
  6
CONTINUOUS
 62
     7
 10
211.9038055925001
 20
-163.7267889561999
 30
0.0
 11
211.9347463698001
 21
-163.7345393065999
 31
0.0
  0
LINE
  5
184
  8
2
  6
CONTINUOUS
 62
     7
 10
212.442027164
 20
-164.3090541673
 30
0.0
 11
212.4456443925
 21
-164.3383429347999
 31
0.0
  0
LINE
  5
185
  8
2
  6
CONTINUOUS
 62
     7
 10
217.1543107804
 20
-167.1465886826
 30
0.0
 11
217.1156290458
 21
-167.1681705841
 31
0.0
  0
LINE
  5
186
  8
2
  6
CONTINUOUS
 62
     7
 10
198.8704675467001
 20
-167.3095161664999
 30
0.0
 11
199.1558886124001
 21
-167.2721409288999
 31
0.0
  0
LINE
  5
187
  8
2
  6
CONTINUOUS
 62
     7
 10
203.8932153029
 20
-163.8077009694001
 30
0.0
 11
203.9182988939
 21
-163.7934889280999
 31
0.0
  0
LINE
  5
188
  8
2
  6
CONTINUOUS
 62
     7
 10
210.9650898702001
 20
-167.3095161664999
 30
0.0
 11
211.0159228014001
 21
-164.397299482
 31
0.0
  0
LINE
  5
189
  8
2
  6
CONTINUOUS
 62
     7
 10
217.2616910258
 20
-167.0753520357999
 30
0.0
 11
217.2281206816
 21
-167.0995745595999
 31
0.0
  0
LINE
  5
18A
  8
2
  6
CONTINUOUS
 62
     7
 10
212.2567520224001
 20
-163.9273762808999
 30
0.0
 11
212.2776100439001
 21
-163.9503246551999
 31
0.0
  0
LINE
  5
18B
  8
2
  6
CONTINUOUS
 62
     7
 10
212.2349761118001
 20
-163.9054434778
 30
0.0
 11
212.2567520224
 21
-163.9273762808999
 31
0.0
  0
LINE
  5
18C
  8
2
  6
CONTINUOUS
 62
     7
 10
211.3329443454
 20
-163.8235049446999
 30
0.0
 11
211.3574130835
 21
-163.8082305995
 31
0.0
  0
LINE
  5
18D
  8
2
  6
CONTINUOUS
 62
     7
 10
211.8111966787
 20
-163.7122644329
 30
0.0
 11
211.8419973136
 21
-163.7156867935
 31
0.0
  0
LINE
  5
18E
  8
2
  6
CONTINUOUS
 62
     7
 10
212.3934054838
 20
-164.1354963393
 30
0.0
 11
212.4043102135
 21
-164.1626902880001
 31
0.0
  0
LINE
  5
18F
  8
2
  6
CONTINUOUS
 62
     7
 10
212.4229728563
 20
-164.2194530363
 30
0.0
 11
212.4306141729001
 21
-164.2489998476
 31
0.0
  0
LINE
  5
190
  8
2
  6
CONTINUOUS
 62
     7
 10
216.9523335787001
 20
-167.2397628272
 30
0.0
 11
216.9094974465002
 21
-167.2539193388
 31
0.0
  0
LINE
  5
191
  8
2
  6
CONTINUOUS
 62
     7
 10
203.6311739828
 20
-164.0837019494999
 30
0.0
 11
203.6443427991
 21
-164.0598072587
 31
0.0
  0
LINE
  5
192
  8
2
  6
CONTINUOUS
 62
     7
 10
212.4456443925001
 20
-164.3383429348
 30
0.0
 11
212.4480273555001
 21
-164.3677896815
 31
0.0
  0
LINE
  5
193
  8
2
  6
CONTINUOUS
 62
     7
 10
217.0356856964
 20
-167.2069120872999
 30
0.0
 11
216.9945488034001
 21
-167.2240320070999
 31
0.0
  0
LINE
  5
194
  8
2
  6
CONTINUOUS
 62
     7
 10
216.6812234961
 20
-167.3015530310999
 30
0.0
 11
216.6342979699
 21
-167.3059528539
 31
0.0
  0
LINE
  5
195
  8
2
  6
CONTINUOUS
 62
     7
 10
211.8419973136
 20
-163.7156867935
 30
0.0
 11
211.8725858157001
 21
-163.7204631077999
 31
0.0
  0
LINE
  5
196
  8
2
  6
CONTINUOUS
 62
     7
 10
198.4330667809001
 20
-167.2400313233999
 30
0.0
 11
198.4741733550001
 21
-167.2545643158999
 31
0.0
  0
LINE
  5
197
  8
2
  6
CONTINUOUS
 62
     7
 10
217.2942762524
 20
-167.0499161792
 30
0.0
 11
217.2616910258
 21
-167.0753520357999
 31
0.0
  0
LINE
  5
198
  8
2
  6
CONTINUOUS
 62
     7
 10
216.7279518268001
 20
-167.2954041088
 30
0.0
 11
216.6812234961
 21
-167.3015530311
 31
0.0
  0
LINE
  5
199
  8
2
  6
CONTINUOUS
 62
     7
 10
212.0242964577
 20
-163.7658087455
 30
0.0
 11
212.052662339
 21
-163.7786837043
 31
0.0
  0
LINE
  5
19A
  8
2
  6
CONTINUOUS
 62
     7
 10
217.5922561927
 20
-166.6553664042
 30
0.0
 11
217.5806998044001
 21
-166.6820429734
 31
0.0
  0
LINE
  5
19B
  8
2
  6
CONTINUOUS
 62
     7
 10
212.0804790361
 20
-163.7928316422999
 30
0.0
 11
212.1076704250001
 21
-163.8082244115
 31
0.0
  0
LINE
  5
19C
  8
2
  6
CONTINUOUS
 62
     7
 10
198.3926207939002
 20
-167.2238474299999
 30
0.0
 11
198.4330667809
 21
-167.2400313233999
 31
0.0
  0
LINE
  5
19D
  8
2
  6
CONTINUOUS
 62
     7
 10
217.5833496719
 20
-167.2336914886
 30
0.0
 11
217.6248198222
 21
-167.2162575287999
 31
0.0
  0
LINE
  5
19E
  8
2
  6
CONTINUOUS
 62
     7
 10
203.7117313152
 20
-163.962901686
 30
0.0
 11
203.7358950609
 21
-163.935282562
 31
0.0
  0
LINE
  5
19F
  8
2
  6
CONTINUOUS
 62
     7
 10
203.6443427991
 20
-164.0598072587
 30
0.0
 11
203.6584015757
 21
-164.0364926134999
 31
0.0
  0
LINE
  5
1A0
  8
2
  6
CONTINUOUS
 62
     7
 10
203.8686846256
 20
-163.822965477
 30
0.0
 11
203.8932153029
 21
-163.8077009694001
 31
0.0
  0
LINE
  5
1A1
  8
2
  6
CONTINUOUS
 62
     7
 10
204.2174217609
 20
-163.7103171254001
 30
0.0
 11
204.2507263179
 21
-163.7095161665
 31
0.0
  0
LINE
  5
1A2
  8
2
  6
CONTINUOUS
 62
     7
 10
211.090077551
 20
-164.0957519388999
 30
0.0
 11
211.1030892342
 21
-164.0710406429
 31
0.0
  0
LINE
  5
1A3
  8
2
  6
CONTINUOUS
 62
     7
 10
211.1328154592
 20
-164.0220832700999
 30
0.0
 11
211.1491106122
 21
-163.9986129337999
 31
0.0
  0
ARC
  5
1A4
  8
2
  6
CONTINUOUS
 62
     7
 10
208.0
 20
-124.0000000000001
 30
0.0
 40
7.750000000000035
 50
318.6990710632
 51
356.3009289368
  0
LINE
  5
1A5
  8
2
  6
CONTINUOUS
 62
     7
 10
217.7843900414
 20
-167.1278577363
 30
0.0
 11
217.8222493703
 21
-167.1010729785
 31
0.0
  0
LINE
  5
1A6
  8
2
  6
CONTINUOUS
 62
     7
 10
198.7756884769001
 20
-167.3087492431
 30
0.0
 11
198.8168228776001
 21
-167.3095161664999
 31
0.0
  0
LINE
  5
1A7
  8
2
  6
CONTINUOUS
 62
     7
 10
204.9354162598
 20
-134.1163296941999
 30
0.0
 11
204.9354162598
 21
-135.8238903261999
 31
0.0
  0
LINE
  5
1A8
  8
2
  6
CONTINUOUS
 62
     7
 10
211.5445107613
 20
-163.7308008722
 30
0.0
 11
211.5783497953001
 21
-163.7231534618001
 31
0.0
  0
LINE
  5
1A9
  8
2
  6
CONTINUOUS
 62
     7
 10
203.6584015757
 20
-164.0364926134999
 30
0.0
 11
203.6733081454001
 21
-164.0138072687
 31
0.0
  0
LINE
  5
1AA
  8
2
  6
CONTINUOUS
 62
     7
 10
212.3524714255
 20
-164.0543443088
 30
0.0
 11
212.3683658081
 21
-164.0828283345999
 31
0.0
  0
LINE
  5
1AB
  8
2
  6
CONTINUOUS
 62
     7
 10
198.4471306638
 20
-166.7386375594
 30
0.0
 11
198.3948266381
 21
-166.6225297501001
 31
0.0
  0
LINE
  5
1AC
  8
2
  6
CONTINUOUS
 62
     7
 10
198.5262628745
 20
-166.8633646449
 30
0.0
 11
198.4471306638
 21
-166.7386375594
 31
0.0
  0
LINE
  5
1AD
  8
2
  6
CONTINUOUS
 62
     7
 10
212.3814098664
 20
-164.1088507371
 30
0.0
 11
212.3934054838001
 21
-164.1354963393
 31
0.0
  0
LINE
  5
1AE
  8
2
  6
CONTINUOUS
 62
     7
 10
217.662981627
 20
-166.3210282996
 30
0.0
 11
217.6619178339
 21
-166.3499736495999
 31
0.0
  0
LINE
  5
1AF
  8
2
  6
CONTINUOUS
 62
     7
 10
212.4140816091001
 20
-164.1903577301999
 30
0.0
 11
212.4229728563002
 21
-164.2194530362999
 31
0.0
  0
LINE
  5
1B0
  8
2
  6
CONTINUOUS
 62
     7
 10
198.3948266381
 20
-166.6225297501
 30
0.0
 11
198.3582165377001
 21
-166.4983306142999
 31
0.0
  0
LINE
  5
1B1
  8
2
  6
CONTINUOUS
 62
     7
 10
211.7492736821001
 20
-163.7095161665
 30
0.0
 11
211.7802625789
 21
-163.7102046744999
 31
0.0
  0
LINE
  5
1B2
  8
2
  6
CONTINUOUS
 62
     7
 10
203.5000000000001
 20
-167.3095161664999
 30
0.0
 11
199.4609594670001
 21
-167.3095161664999
 31
0.0
  0
LINE
  5
1B3
  8
2
  6
CONTINUOUS
 62
     7
 10
217.9348265086001
 20
-163.7095161665
 30
0.0
 11
217.9222484627001
 21
-163.7095161665
 31
0.0
  0
LINE
  5
1B4
  8
2
  6
CONTINUOUS
 62
     7
 10
212.1076704250002
 20
-163.8082244115
 30
0.0
 11
212.1350099149001
 21
-163.8253899407999
 31
0.0
  0
LINE
  5
1B5
  8
2
  6
CONTINUOUS
 62
     7
 10
212.4480273555
 20
-164.3677896815
 30
0.0
 11
212.4491670687
 21
-164.397299482
 31
0.0
  0
LINE
  5
1B6
  8
2
  6
CONTINUOUS
 62
     7
 10
204.1510107457
 20
-163.7166818244999
 30
0.0
 11
204.1841509201001
 21
-163.7127104525999
 31
0.0
  0
LINE
  5
1B7
  8
2
  6
CONTINUOUS
 62
     7
 10
211.7802625789
 20
-163.7102046745
 30
0.0
 11
211.8111966787
 21
-163.7122644329
 31
0.0
  0
LINE
  5
1B8
  8
2
  6
CONTINUOUS
 62
     7
 10
217.6619178339
 20
-166.3499736495999
 30
0.0
 11
217.6599216323
 21
-166.3789885544999
 31
0.0
  0
LINE
  5
1B9
  8
2
  6
CONTINUOUS
 62
     7
 10
195.8500000000001
 20
-165.3095161664999
 30
0.0
 11
197.6603448276001
 21
-167.0336540975999
 31
0.0
  0
LINE
  5
1BA
  8
2
  6
CONTINUOUS
 62
     7
 10
217.6419813459
 20
-164.3972994820001
 30
0.0
 11
217.6631214464
 21
-166.2920637601
 31
0.0
  0
LINE
  5
1BB
  8
2
  6
CONTINUOUS
 62
     7
 10
204.1841509201001
 20
-163.7127104525999
 30
0.0
 11
204.2174217609001
 21
-163.7103171254
 31
0.0
  0
LINE
  5
1BC
  8
2
  6
CONTINUOUS
 62
     7
 10
197.3947634805001
 20
-163.6095161665
 30
0.0
 11
197.3650898701001
 21
-165.3095161664999
 31
0.0
  0
LINE
  5
1BD
  8
2
  6
CONTINUOUS
 62
     7
 10
203.5610968166001
 20
-164.2894697132999
 30
0.0
 11
203.5664223445001
 21
-164.2621242674999
 31
0.0
  0
LINE
  5
1BE
  8
2
  6
CONTINUOUS
 62
     7
 10
217.1156290458
 20
-167.1681705840999
 30
0.0
 11
217.0761448339
 21
-167.1882477864999
 31
0.0
  0
LINE
  5
1BF
  8
2
  6
CONTINUOUS
 62
     7
 10
198.6118611894001
 20
-166.9639760573999
 30
0.0
 11
198.5262628745
 21
-166.8633646449
 31
0.0
  0
LINE
  5
1C0
  8
2
  6
CONTINUOUS
 62
     7
 10
197.7969948804
 20
-165.3095161664999
 30
0.0
 11
197.818295745
 21
-164.397299482
 31
0.0
  0
LINE
  5
1C1
  8
2
  6
CONTINUOUS
 62
     7
 10
216.7741549846
 20
-167.2875524717
 30
0.0
 11
216.7279518268001
 21
-167.2954041088
 31
0.0
  0
LINE
  5
1C2
  8
2
  6
CONTINUOUS
 62
     7
 10
212.0526623390001
 20
-163.7786837043
 30
0.0
 11
212.0804790361001
 21
-163.7928316422999
 31
0.0
  0
LINE
  5
1C3
  8
2
  6
CONTINUOUS
 62
     7
 10
217.1917022481002
 20
-167.1237830232
 30
0.0
 11
217.1543107804001
 21
-167.1465886826
 31
0.0
  0
LINE
  5
1C4
  8
2
  6
CONTINUOUS
 62
     7
 10
216.5867360537
 20
-167.3086247937
 30
0.0
 11
216.539040533
 21
-167.3095161664999
 31
0.0
  0
LINE
  5
1C5
  8
2
  6
CONTINUOUS
 62
     7
 10
198.3582165377001
 20
-166.4983306142999
 30
0.0
 11
198.3403515237001
 21
-166.3821414728999
 31
0.0
  0
LINE
  5
1C6
  8
2
  6
CONTINUOUS
 62
     7
 10
216.8650232572
 20
-167.2667812988
 30
0.0
 11
216.8200298033
 21
-167.2779682975
 31
0.0
  0
LINE
  5
1C7
  8
2
  6
CONTINUOUS
 62
     7
 10
212.4043102135
 20
-164.162690288
 30
0.0
 11
212.4140816091
 21
-164.1903577301999
 31
0.0
  0
LINE
  5
1C8
  8
2
  6
CONTINUOUS
 62
     7
 10
211.8725858157001
 20
-163.7204631077999
 30
0.0
 11
211.9038055925001
 21
-163.7267889561999
 31
0.0
  0
LINE
  5
1C9
  8
2
  6
CONTINUOUS
 62
     7
 10
212.1350099149001
 20
-163.8253899407999
 30
0.0
 11
212.1616261080001
 21
-163.8438676952999
 31
0.0
  0
LINE
  5
1CA
  8
2
  6
CONTINUOUS
 62
     7
 10
218.3396551724
 20
-167.0336540975999
 30
0.0
 11
220.15
 21
-165.3095161664999
 31
0.0
  0
LINE
  5
1CB
  8
2
  6
CONTINUOUS
 62
     7
 10
198.0523396473
 20
-163.7103713257
 30
0.0
 11
198.0651734914
 21
-163.7095161665
 31
0.0
  0
LINE
  5
1CC
  8
2
  6
CONTINUOUS
 62
     7
 10
216.9945488034001
 20
-167.2240320071
 30
0.0
 11
216.9523335787001
 21
-167.2397628272
 31
0.0
  0
LINE
  5
1CD
  8
2
  6
CONTINUOUS
 62
     7
 10
212.4491670687001
 20
-164.3972994820001
 30
0.0
 11
212.5000000000001
 21
-167.3095161664999
 31
0.0
  0
LINE
  5
1CE
  8
2
  6
CONTINUOUS
 62
     7
 10
212.1874349456001
 20
-163.8636126691
 30
0.0
 11
212.2123523691001
 21
-163.8845798565
 31
0.0
  0
LINE
  5
1CF
  8
2
  6
CONTINUOUS
 62
     7
 10
211.9347463698
 20
-163.7345393065999
 30
0.0
 11
211.9653247952
 21
-163.7436945091999
 31
0.0
  0
LINE
  5
1D0
  8
2
  6
CONTINUOUS
 62
     7
 10
216.9094974465002
 20
-167.2539193388
 30
0.0
 11
216.8650232572001
 21
-167.2667812988
 31
0.0
  0
LINE
  5
1D1
  8
2
  6
CONTINUOUS
 62
     7
 10
212.161626108
 20
-163.8438676953
 30
0.0
 11
212.1874349456
 21
-163.8636126691
 31
0.0
  0
ARC
  5
1D2
  8
2
  6
CONTINUOUS
 62
     7
 10
199.4589721136001
 20
-164.4040860819999
 30
0.0
 40
1.640690404799972
 50
160.5078515274
 51
179.7629993774
  0
ARC
  5
1D3
  8
2
  6
CONTINUOUS
 62
     7
 10
198.3500000000001
 20
-166.3095161664999
 30
0.0
 40
0.9999999999998899
 50
226.3971810273
 51
270.0
  0
LINE
  5
1D4
  8
2
  6
CONTINUOUS
 62
     7
 10
218.181704255
 20
-164.3972994820001
 30
0.0
 11
218.2030051196
 21
-165.3095161664999
 31
0.0
  0
LINE
  5
1D5
  8
2
  6
CONTINUOUS
 62
     7
 10
212.4369755963
 20
-164.2788997094
 30
0.0
 11
212.442027164
 21
-164.3090541673
 31
0.0
  0
LINE
  5
1D6
  8
2
  6
CONTINUOUS
 62
     7
 10
197.912314228
 20
-163.8566243121999
 30
0.0
 11
197.963174216
 21
-163.7687653468
 31
0.0
  0
LINE
  5
1D7
  8
2
  6
CONTINUOUS
 62
     7
 10
212.3683658081
 20
-164.0828283346
 30
0.0
 11
212.3814098664
 21
-164.1088507371
 31
0.0
  0
LINE
  5
1D8
  8
2
  6
CONTINUOUS
 62
     7
 10
216.6342979699
 20
-167.3059528539
 30
0.0
 11
216.5867360537
 21
-167.3086247937
 31
0.0
  0
LINE
  5
1D9
  8
2
  6
CONTINUOUS
 62
     7
 10
217.0761448339001
 20
-167.1882477864999
 30
0.0
 11
217.0356856964001
 21
-167.2069120872999
 31
0.0
  0
ARC
  5
1DA
  8
2
  6
CONTINUOUS
 62
     7
 10
199.4486363235
 20
-166.1237801109
 30
0.0
 40
1.185800090000022
 50
225.1168761
 51
270.5954433851
  0
LINE
  5
1DB
  8
2
  6
CONTINUOUS
 62
     7
 10
198.3403515237001
 20
-166.3821414728999
 30
0.0
 11
198.3368785536001
 21
-166.2920637600999
 31
0.0
  0
LINE
  5
1DC
  8
2
  6
CONTINUOUS
 62
     7
 10
212.4306141729002
 20
-164.2489998476
 30
0.0
 11
212.4369755963
 21
-164.2788997094
 31
0.0
  0
LINE
  5
1DD
  8
2
  6
CONTINUOUS
 62
     7
 10
212.3169556954001
 20
-163.9999656047
 30
0.0
 11
212.3353104261001
 21
-164.0266960549
 31
0.0
  0
LINE
  5
1DE
  8
1
  6
CONTINUOUS
 62
     7
 10
177.6099665056787
 20
-23.64805298112546
 30
0.0
 11
177.0834699457222
 21
-23.64805298112546
 31
0.0
  0
LINE
  5
1DF
  8
1
  6
CONTINUOUS
 62
     7
 10
186.5
 20
-18.74805298112547
 30
0.0
 11
186.4999999999999
 21
-17.14805298112546
 31
0.0
  0
LINE
  5
1E0
  8
1
  6
CONTINUOUS
 62
     7
 10
228.8296410913631
 20
-17.14805298112546
 30
0.0
 11
228.8296410913631
 21
-15.64805298112545
 31
0.0
  0
LINE
  5
1E1
  8
1
  6
CONTINUOUS
 62
     7
 10
202.0930957104007
 20
14.06975731576429
 30
0.0
 11
193.9974096628574
 21
13.08028457662019
 31
0.0
  0
LINE
  5
1E2
  8
1
  6
CONTINUOUS
 62
     7
 10
213.84680571791
 20
-17.14805298112546
 30
0.0
 11
218.4999999999999
 21
-17.14805298112546
 31
0.0
  0
LINE
  5
1E3
  8
1
  6
CONTINUOUS
 62
     7
 10
186.4999999999999
 20
-19.74805298112548
 30
0.0
 11
186.4999999999999
 21
-23.64805298112546
 31
0.0
  0
LINE
  5
1E4
  8
1
  6
CONTINUOUS
 62
     7
 10
176.9999999999999
 20
-13.54805298112546
 30
0.0
 11
176.9999999999999
 21
-15.14805298112545
 31
0.0
  0
LINE
  5
1E5
  8
1
  6
CONTINUOUS
 62
     7
 10
227.9999999999999
 20
-13.54805298112546
 30
0.0
 11
230.4999999999999
 21
-13.54805298112546
 31
0.0
  0
ARC
  5
1E6
  8
1
  6
CONTINUOUS
 62
     7
 10
173.421973333043
 20
-18.63639924706539
 30
0.0
 40
3.663198602449957
 50
358.2533628740626
 51
21.077792600691
  0
LINE
  5
1E7
  8
1
  6
CONTINUOUS
 62
     7
 10
176.8400782945548
 20
-17.31898417462999
 30
0.0
 11
176.7764341941892
 21
-17.21795454448857
 31
0.0
  0
LINE
  5
1E8
  8
1
  6
CONTINUOUS
 62
     7
 10
185.1239388813229
 20
-23.64805298112546
 30
0.0
 11
177.6099665056788
 21
-23.64805298112546
 31
0.0
  0
LINE
  5
1E9
  8
1
  6
CONTINUOUS
 62
     7
 10
232.4999999999999
 20
-13.54805298112546
 30
0.0
 11
232.4999999999999
 21
-15.14805298112545
 31
0.0
  0
LINE
  5
1EA
  8
1
  6
CONTINUOUS
 62
     7
 10
178.4128701202272
 20
-17.20157100890249
 30
0.0
 11
178.4827759541383
 21
-17.29573301325679
 31
0.0
  0
LINE
  5
1EB
  8
1
  6
CONTINUOUS
 62
     7
 10
228.2380648562922
 20
-17.20119004051129
 30
0.0
 11
228.1728752087544
 21
-17.29469842941267
 31
0.0
  0
LINE
  5
1EC
  8
1
  6
CONTINUOUS
 62
     7
 10
176.6651398300667
 20
-17.14805298112546
 30
0.0
 11
178.3090926172662
 21
-17.14805298112546
 31
0.0
  0
LINE
  5
1ED
  8
1
  6
CONTINUOUS
 62
     7
 10
228.3348601699331
 20
-17.14805298112546
 30
0.0
 11
228.2380648562922
 21
-17.20119004051129
 31
0.0
  0
LINE
  5
1EE
  8
1
  6
CONTINUOUS
 62
     7
 10
229.1185468257541
 20
-15.19565938962236
 30
0.0
 11
229.1376959660094
 21
-15.18718239304628
 31
0.0
  0
LINE
  5
1EF
  8
1
  6
CONTINUOUS
 62
     7
 10
229.1376959660094
 20
-15.18718239304628
 30
0.0
 11
229.1576030467672
 21
-15.17935075058227
 31
0.0
  0
LINE
  5
1F0
  8
1
  6
CONTINUOUS
 62
     7
 10
228.8577295506372
 20
-15.48334348406147
 30
0.0
 11
228.8649593368261
 21
-15.46404237804605
 31
0.0
  0
LINE
  5
1F1
  8
1
  6
CONTINUOUS
 62
     7
 10
229.2193629784016
 20
-15.16093077134997
 30
0.0
 11
229.2379024838034
 21
-15.15703099492577
 31
0.0
  0
LINE
  5
1F2
  8
1
  6
CONTINUOUS
 62
     7
 10
230.4999999999999
 20
-13.54805298112546
 30
0.0
 11
230.4999999999999
 21
-15.14805298112545
 31
0.0
  0
LINE
  5
1F3
  8
1
  6
CONTINUOUS
 62
     7
 10
228.8917010165067
 20
-15.40751902058779
 30
0.0
 11
228.90223002202
 21
-15.3893639925452
 31
0.0
  0
LINE
  5
1F4
  8
1
  6
CONTINUOUS
 62
     7
 10
218.4999999999999
 20
-23.64805298112546
 30
0.0
 11
218.4999999999999
 21
-19.74805298112548
 31
0.0
  0
LINE
  5
1F5
  8
1
  6
CONTINUOUS
 62
     7
 10
178.4827759541383
 20
-17.29573301325679
 30
0.0
 11
178.5334321008666
 21
-17.39489615392387
 31
0.0
  0
LINE
  5
1F6
  8
1
  6
CONTINUOUS
 62
     7
 10
191.1531942820896
 20
-17.14805298112546
 30
0.0
 11
213.84680571791
 21
-17.14805298112546
 31
0.0
  0
LINE
  5
1F7
  8
1
  6
CONTINUOUS
 62
     7
 10
227.9999999999999
 20
-13.54805298112546
 30
0.0
 11
227.9999999999999
 21
-15.14805298112545
 31
0.0
  0
LINE
  5
1F8
  8
1
  6
CONTINUOUS
 62
     7
 10
176.7764341941892
 20
-17.21795454448857
 30
0.0
 11
176.6838233635704
 21
-17.15013427748116
 31
0.0
  0
LINE
  5
1F9
  8
1
  6
CONTINUOUS
 62
     7
 10
175.4999999999999
 20
55.19999999999992
 30
0.0
 11
175.4999999999999
 21
55.00000000000002
 31
0.0
  0
LINE
  5
1FA
  8
1
  6
CONTINUOUS
 62
     7
 10
172.4999999999999
 20
-13.54805298112546
 30
0.0
 11
172.4999999999999
 21
-15.14805298112545
 31
0.0
  0
LINE
  5
1FB
  8
1
  6
CONTINUOUS
 62
     7
 10
175.9999999999999
 20
-55.54805298112547
 30
0.0
 11
175.9999999999999
 21
-15.64805298112545
 31
0.0
  0
LINE
  5
1FC
  8
1
  6
CONTINUOUS
 62
     7
 10
186.4999999999999
 20
-18.74805298112547
 30
0.0
 11
186.4999999999999
 21
-19.74805298112548
 31
0.0
  0
LINE
  5
1FD
  8
1
  6
CONTINUOUS
 62
     7
 10
228.829641091363
 20
-17.14805298112546
 30
0.0
 11
228.3348601699331
 21
-17.14805298112546
 31
0.0
  0
LINE
  5
1FE
  8
1
  6
CONTINUOUS
 62
     7
 10
228.8510859748199
 20
-15.5036475555104
 30
0.0
 11
228.8577295506372
 21
-15.48334348406147
 31
0.0
  0
LINE
  5
1FF
  8
1
  6
CONTINUOUS
 62
     7
 10
226.5702085347751
 20
-17.22005582063399
 30
0.0
 11
226.6500165694442
 21
-17.15664716354279
 31
0.0
  0
LINE
  5
200
  8
1
  6
CONTINUOUS
 62
     7
 10
176.6838233635704
 20
-17.15013427748116
 30
0.0
 11
176.6651398300667
 21
-17.14805298112546
 31
0.0
  0
LINE
  5
201
  8
1
  6
CONTINUOUS
 62
     7
 10
218.4999999999999
 20
-17.14805298112546
 30
0.0
 11
218.4999999999998
 21
-18.74805298112547
 31
0.0
  0
ARC
  5
202
  8
1
  6
CONTINUOUS
 62
     7
 10
184.5999999999999
 20
-55.54805298112547
 30
0.0
 40
8.599999999999996
 50
180.0
 51
270.0
  0
ARC
  5
203
  8
1
  6
CONTINUOUS
 62
     7
 10
231.4991533200664
 20
-18.63067760916126
 30
0.0
 40
3.584545500131819
 50
158.1174415371534
 51
181.8764766182114
  0
LINE
  5
204
  8
1
  6
CONTINUOUS
 62
     7
 10
228.833502529133
 20
-15.58623301840387
 30
0.0
 11
228.8365142037084
 21
-15.56569823259346
 31
0.0
  0
LINE
  5
205
  8
1
  6
CONTINUOUS
 62
     7
 10
226.6500165694442
 20
-17.15664716354279
 30
0.0
 11
226.6909073827336
 21
-17.14805298112546
 31
0.0
  0
LINE
  5
206
  8
1
  6
CONTINUOUS
 62
     7
 10
228.9804156474605
 20
-15.29116742211159
 30
0.0
 11
228.9956171685824
 21
-15.27694853479838
 31
0.0
  0
LINE
  5
207
  8
1
  6
CONTINUOUS
 62
     7
 10
176.1703589086368
 20
-15.64805298112545
 30
0.0
 11
175.9999999999999
 21
-15.64805298112545
 31
0.0
  0
LINE
  5
208
  8
1
  6
CONTINUOUS
 62
     7
 10
228.9956171685824
 20
-15.27694853479838
 30
0.0
 11
229.0117405631241
 21
-15.26308744471816
 31
0.0
  0
LINE
  5
209
  8
1
  6
CONTINUOUS
 62
     7
 10
178.7563692751087
 20
-18.74805298112547
 30
0.0
 11
178.7563692751087
 21
-23.64805298112546
 31
0.0
  0
LINE
  5
20A
  8
1
  6
CONTINUOUS
 62
     7
 10
228.8404746985691
 20
-15.54486422251236
 30
0.0
 11
228.8453196056056
 21
-15.52421795030567
 31
0.0
  0
LINE
  5
20B
  8
1
  6
CONTINUOUS
 62
     7
 10
229.2379024838034
 20
-15.15703099492577
 30
0.0
 11
229.2565814794704
 21
-15.15382651604608
 31
0.0
  0
LINE
  5
20C
  8
1
  6
CONTINUOUS
 62
     7
 10
176.1703589086367
 20
-15.64805298112545
 30
0.0
 11
176.1703589086367
 21
-17.14805298112546
 31
0.0
  0
LINE
  5
20D
  8
1
  6
CONTINUOUS
 62
     7
 10
219.8760611186769
 20
-23.64805298112546
 30
0.0
 11
227.390033494321
 21
-23.64805298112546
 31
0.0
  0
LINE
  5
20E
  8
1
  6
CONTINUOUS
 62
     7
 10
176.9999999999999
 20
-13.54805298112546
 30
0.0
 11
174.4999999999999
 21
-13.54805298112546
 31
0.0
  0
LINE
  5
20F
  8
1
  6
CONTINUOUS
 62
     7
 10
177.0834699457222
 20
-18.74805298112547
 30
0.0
 11
177.0834699457222
 21
-23.64805298112546
 31
0.0
  0
LINE
  5
210
  8
1
  6
CONTINUOUS
 62
     7
 10
177.7813835338625
 20
-15.64805298112545
 30
0.0
 11
177.7813835338625
 21
-17.14805298112546
 31
0.0
  0
LINE
  5
211
  8
1
  6
CONTINUOUS
 62
     7
 10
186.4999999999999
 20
-23.64805298112546
 30
0.0
 11
185.1239388813229
 21
-23.64805298112546
 31
0.0
  0
LINE
  5
212
  8
1
  6
CONTINUOUS
 62
     7
 10
228.9257363583784
 20
-15.3541769125411
 30
0.0
 11
228.9387066782986
 21
-15.33720923435658
 31
0.0
  0
LINE
  5
213
  8
1
  6
CONTINUOUS
 62
     7
 10
213.84680571791
 20
-18.74805298112547
 30
0.0
 11
218.4999999999998
 21
-18.74805298112547
 31
0.0
  0
LINE
  5
214
  8
1
  6
CONTINUOUS
 62
     7
 10
174.4999999999999
 20
-13.54805298112546
 30
0.0
 11
174.4999999999999
 21
-15.14805298112545
 31
0.0
  0
LINE
  5
215
  8
1
  6
CONTINUOUS
 62
     7
 10
230.4999999999999
 20
-13.54805298112546
 30
0.0
 11
232.4999999999999
 21
-13.54805298112546
 31
0.0
  0
LINE
  5
216
  8
1
  6
CONTINUOUS
 62
     7
 10
227.9165300542776
 20
-23.64805298112546
 30
0.0
 11
227.9165300542776
 21
-18.74805298112547
 31
0.0
  0
ARC
  5
217
  8
1
  6
CONTINUOUS
 62
     7
 10
220.3999999999999
 20
-55.54805298112547
 30
0.0
 40
8.599999999999996
 50
270.0
 51
0.0000000000000568
  0
LINE
  5
218
  8
1
  6
CONTINUOUS
 62
     7
 10
176.6651398300667
 20
-17.14805298112546
 30
0.0
 11
176.1703589086368
 21
-17.14805298112546
 31
0.0
  0
LINE
  5
219
  8
1
  6
CONTINUOUS
 62
     7
 10
218.4999999999999
 20
-19.74805298112548
 30
0.0
 11
218.4999999999999
 21
-18.74805298112547
 31
0.0
  0
LINE
  5
21A
  8
1
  6
CONTINUOUS
 62
     7
 10
219.8760611186769
 20
-23.64805298112546
 30
0.0
 11
218.4999999999999
 21
-23.64805298112546
 31
0.0
  0
LINE
  5
21B
  8
1
  6
CONTINUOUS
 62
     7
 10
174.4999999999999
 20
-13.54805298112546
 30
0.0
 11
172.4999999999999
 21
-13.54805298112546
 31
0.0
  0
LINE
  5
21C
  8
1
  6
CONTINUOUS
 62
     7
 10
228.9387066782986
 20
-15.33720923435658
 30
0.0
 11
228.9519398219288
 21
-15.32132714986536
 31
0.0
  0
LINE
  5
21D
  8
1
  6
CONTINUOUS
 62
     7
 10
186.4999999999999
 20
-17.14805298112546
 30
0.0
 11
191.1531942820896
 21
-17.14805298112546
 31
0.0
  0
LINE
  5
21E
  8
1
  6
CONTINUOUS
 62
     7
 10
175.9950707086828
 20
-15.26879855998678
 30
0.0
 11
176.0068225504193
 21
-15.2791519211995
 31
0.0
  0
LINE
  5
21F
  8
1
  6
CONTINUOUS
 62
     7
 10
229.0997657005874
 20
-15.20492319473368
 30
0.0
 11
229.1185468257541
 21
-15.19565938962236
 31
0.0
  0
LINE
  5
220
  8
1
  6
CONTINUOUS
 62
     7
 10
229.3136296145373
 20
-15.14841718918278
 30
0.0
 11
229.3328157299974
 21
-15.14805298112545
 31
0.0
  0
LINE
  5
221
  8
1
  6
CONTINUOUS
 62
     7
 10
229.0636803464321
 20
-15.22559666692888
 30
0.0
 11
229.0815097973237
 21
-15.21488775438826
 31
0.0
  0
LINE
  5
222
  8
1
  6
CONTINUOUS
 62
     7
 10
176.1059816358697
 20
-15.40336383445187
 30
0.0
 11
176.115844982482
 21
-15.42171157265115
 31
0.0
  0
LINE
  5
223
  8
1
  6
CONTINUOUS
 62
     7
 10
229.294464173009
 20
-15.14950827281836
 30
0.0
 11
229.3136296145373
 21
-15.14841718918278
 31
0.0
  0
ARC
  5
224
  8
1
  6
CONTINUOUS
 62
     7
 10
175.1069492251991
 20
-18.65436406404417
 30
0.0
 40
3.650622455673241
 50
358.5294099761497
 51
20.1818486553766
  0
LINE
  5
225
  8
1
  6
CONTINUOUS
 62
     7
 10
229.1576030467672
 20
-15.17935075058227
 30
0.0
 11
229.1778236958022
 21
-15.17236847917747
 31
0.0
  0
LINE
  5
226
  8
1
  6
CONTINUOUS
 62
     7
 10
178.4999999999999
 20
-15.19805298112536
 30
0.0
 11
226.4999999999999
 21
-15.19805298112536
 31
0.0
  0
LINE
  5
227
  8
1
  6
CONTINUOUS
 62
     7
 10
228.9999999999999
 20
-15.64805298112545
 30
0.0
 11
228.829641091363
 21
-15.64805298112545
 31
0.0
  0
LINE
  5
228
  8
1
  6
CONTINUOUS
 62
     7
 10
229.0284356160956
 20
-15.24992046703846
 30
0.0
 11
229.0457992863472
 21
-15.237383731426
 31
0.0
  0
LINE
  5
229
  8
1
  6
CONTINUOUS
 62
     7
 10
229.0457992863472
 20
-15.237383731426
 30
0.0
 11
229.0636803464321
 21
-15.22559666692888
 31
0.0
  0
LINE
  5
22A
  8
1
  6
CONTINUOUS
 62
     7
 10
176.1651687581658
 20
-15.57643047572788
 30
0.0
 11
176.1674243738567
 21
-15.5941347962697
 31
0.0
  0
LINE
  5
22B
  8
1
  6
CONTINUOUS
 62
     7
 10
175.9299220948821
 20
-15.22163864274079
 30
0.0
 11
175.9480226269825
 21
-15.23318710735749
 31
0.0
  0
LINE
  5
22C
  8
1
  6
CONTINUOUS
 62
     7
 10
226.4999999999999
 20
-15.19805298112536
 30
0.0
 11
226.4999999999999
 21
-15.14805298112545
 31
0.0
  0
LINE
  5
22D
  8
1
  6
CONTINUOUS
 62
     7
 10
176.0577792155258
 20
-15.332860399426
 30
0.0
 11
176.0709720471481
 21
-15.34972649303026
 31
0.0
  0
LINE
  5
22E
  8
1
  6
CONTINUOUS
 62
     7
 10
176.115844982482
 20
-15.42171157265115
 30
0.0
 11
176.125053082725
 21
-15.44072017571107
 31
0.0
  0
LINE
  5
22F
  8
1
  6
CONTINUOUS
 62
     7
 10
226.4999999999999
 20
-15.19805298112536
 30
0.0
 11
234.4999999999999
 21
-15.19805298112536
 31
0.0
  0
LINE
  5
230
  8
1
  6
CONTINUOUS
 62
     7
 10
228.9519398219288
 20
-15.32132714986536
 30
0.0
 11
228.9658166944307
 21
-15.30600430782098
 31
0.0
  0
LINE
  5
231
  8
1
  6
CONTINUOUS
 62
     7
 10
227.9165300542776
 20
-18.74805298112547
 30
0.0
 11
226.2436307248911
 21
-18.74805298112547
 31
0.0
  0
LINE
  5
232
  8
1
  6
CONTINUOUS
 62
     7
 10
175.9480226269825
 20
-15.23318710735749
 30
0.0
 11
175.9657884300966
 21
-15.24562489032197
 31
0.0
  0
LINE
  5
233
  8
1
  6
CONTINUOUS
 62
     7
 10
176.162278295719
 20
-15.55881282197077
 30
0.0
 11
176.1651687581658
 21
-15.57643047572788
 31
0.0
  0
LINE
  5
234
  8
1
  6
CONTINUOUS
 62
     7
 10
176.1537026128042
 20
-15.520478724456
 30
0.0
 11
176.1587587148977
 21
-15.54131586413165
 31
0.0
  0
LINE
  5
235
  8
1
  6
CONTINUOUS
 62
     7
 10
176.170032190113
 20
-15.63005071731208
 30
0.0
 11
176.1703589086367
 21
-15.64805298112545
 31
0.0
  0
LINE
  5
236
  8
1
  6
CONTINUOUS
 62
     7
 10
176.0835531356379
 20
-15.36732118200088
 30
0.0
 11
176.0953616458069
 21
-15.38544341973727
 31
0.0
  0
ARC
  5
237
  8
1
  6
CONTINUOUS
 62
     7
 10
229.4999999999999
 20
-15.64805298112545
 30
0.0
 40
0.5000000000000004
 50
115.8419327631679
 51
179.9999999999996
  0
ARC
  5
238
  8
1
  6
CONTINUOUS
 62
     7
 10
229.7061102672591
 20
-18.63967472387787
 30
0.0
 40
3.46417528828441
 50
157.646348412152
 51
181.7928163659492
  0
LINE
  5
239
  8
1
  6
CONTINUOUS
 62
     7
 10
226.6909073827336
 20
-17.14805298112546
 30
0.0
 11
228.3348601699331
 21
-17.14805298112546
 31
0.0
  0
LINE
  5
23A
  8
1
  6
CONTINUOUS
 62
     7
 10
227.2186164661373
 20
-15.64805298112545
 30
0.0
 11
227.2186164661373
 21
-17.14805298112546
 31
0.0
  0
LINE
  5
23B
  8
1
  6
CONTINUOUS
 62
     7
 10
227.2677573649183
 20
-15.19804028606248
 30
0.0
 11
227.2186164661373
 21
-15.64805298112545
 31
0.0
  0
ARC
  5
23C
  8
1
  6
CONTINUOUS
 62
     7
 10
229.3165885944101
 20
-15.65241661808386
 30
0.0
 40
2.098645670938676
 50
128.8549931651151
 51
166.0909280951997
  0
LINE
  5
23D
  8
1
  6
CONTINUOUS
 62
     7
 10
228.8649593368261
 20
-15.46404237804605
 30
0.0
 11
228.872981051465
 21
-15.44505672913549
 31
0.0
  0
LINE
  5
23E
  8
1
  6
CONTINUOUS
 62
     7
 10
228.872981051465
 20
-15.44505672913549
 30
0.0
 11
228.8819422376103
 21
-15.42609936710917
 31
0.0
  0
LINE
  5
23F
  8
1
  6
CONTINUOUS
 62
     7
 10
228.913501888016
 20
-15.37168258595578
 30
0.0
 11
228.9257363583784
 21
-15.3541769125411
 31
0.0
  0
LINE
  5
240
  8
1
  6
CONTINUOUS
 62
     7
 10
228.8300688311238
 20
-15.62744656840687
 30
0.0
 11
228.8313505410105
 21
-15.60687560685939
 31
0.0
  0
LINE
  5
241
  8
1
  6
CONTINUOUS
 62
     7
 10
226.5022539254905
 20
-17.32217141486117
 30
0.0
 11
226.5702085347751
 21
-17.22005582063399
 31
0.0
  0
LINE
  5
242
  8
1
  6
CONTINUOUS
 62
     7
 10
228.8296410913631
 20
-15.64805298112545
 30
0.0
 11
228.8300688311238
 21
-15.62744656840687
 31
0.0
  0
LINE
  5
243
  8
1
  6
CONTINUOUS
 62
     7
 10
226.2436307248911
 20
-18.74805298112547
 30
0.0
 11
226.2436307248911
 21
-23.64805298112546
 31
0.0
  0
LINE
  5
244
  8
1
  6
CONTINUOUS
 62
     7
 10
178.7563692751087
 20
-18.74805298112547
 30
0.0
 11
177.0834699457222
 21
-18.74805298112547
 31
0.0
  0
LINE
  5
245
  8
1
  6
CONTINUOUS
 62
     7
 10
176.0709720471481
 20
-15.34972649303026
 30
0.0
 11
176.0835531356379
 21
-15.36732118200088
 31
0.0
  0
LINE
  5
246
  8
1
  6
CONTINUOUS
 62
     7
 10
228.8453196056056
 20
-15.52421795030567
 30
0.0
 11
228.8510859748199
 21
-15.5036475555104
 31
0.0
  0
LINE
  5
247
  8
1
  6
CONTINUOUS
 62
     7
 10
226.4999999999999
 20
-15.14805298112545
 30
0.0
 11
234.4999999999999
 21
-15.14805298112545
 31
0.0
  0
LINE
  5
248
  8
1
  6
CONTINUOUS
 62
     7
 10
178.4999999999999
 20
-15.14805298112545
 30
0.0
 11
226.4999999999999
 21
-15.14805298112545
 31
0.0
  0
LINE
  5
249
  8
1
  6
CONTINUOUS
 62
     7
 10
176.1674243738567
 20
-15.5941347962697
 30
0.0
 11
176.1690533527493
 21
-15.61206618638766
 31
0.0
  0
LINE
  5
24A
  8
1
  6
CONTINUOUS
 62
     7
 10
229.2753606909272
 20
-15.15132392122798
 30
0.0
 11
229.294464173009
 21
-15.14950827281836
 31
0.0
  0
LINE
  5
24B
  8
1
  6
CONTINUOUS
 62
     7
 10
175.8864225242205
 20
-15.19801652103597
 30
0.0
 11
175.8878894275713
 21
-15.19872564284858
 31
0.0
  0
LINE
  5
24C
  8
1
  6
CONTINUOUS
 62
     7
 10
228.8365142037084
 20
-15.56569823259346
 30
0.0
 11
228.8404746985691
 21
-15.54486422251236
 31
0.0
  0
LINE
  5
24D
  8
1
  6
CONTINUOUS
 62
     7
 10
228.8313505410105
 20
-15.60687560685939
 30
0.0
 11
228.833502529133
 21
-15.58623301840387
 31
0.0
  0
LINE
  5
24E
  8
1
  6
CONTINUOUS
 62
     7
 10
229.1778236958022
 20
-15.17236847917747
 30
0.0
 11
229.1984715152934
 21
-15.16620720430098
 31
0.0
  0
LINE
  5
24F
  8
1
  6
CONTINUOUS
 62
     7
 10
175.9830019153839
 20
-15.25881646632057
 30
0.0
 11
175.9950707086828
 21
-15.26879855998678
 31
0.0
  0
LINE
  5
250
  8
1
  6
CONTINUOUS
 62
     7
 10
177.7813835338625
 20
-15.64805298112545
 30
0.0
 11
177.7322314796609
 21
-15.19798981011997
 31
0.0
  0
LINE
  5
251
  8
1
  6
CONTINUOUS
 62
     7
 10
227.390033494321
 20
-23.64805298112546
 30
0.0
 11
227.9165300542776
 21
-23.64805298112546
 31
0.0
  0
ARC
  5
252
  8
1
  6
CONTINUOUS
 62
     7
 10
175.6835149874089
 20
-15.65235052597116
 30
0.0
 40
2.098529220771361
 50
13.90714537320873
 51
51.14607710355573
  0
LINE
  5
253
  8
1
  6
CONTINUOUS
 62
     7
 10
229.0117405631241
 20
-15.26308744471816
 30
0.0
 11
229.0284356160956
 21
-15.24992046703846
 31
0.0
  0
LINE
  5
254
  8
1
  6
CONTINUOUS
 62
     7
 10
229.0815097973237
 20
-15.21488775438826
 30
0.0
 11
229.0997657005874
 21
-15.20492319473368
 31
0.0
  0
LINE
  5
255
  8
1
  6
CONTINUOUS
 62
     7
 10
228.9658166944307
 20
-15.30600430782098
 30
0.0
 11
228.9804156474605
 21
-15.29116742211159
 31
0.0
  0
LINE
  5
256
  8
1
  6
CONTINUOUS
 62
     7
 10
228.9999999999999
 20
-55.54805298112547
 30
0.0
 11
228.9999999999999
 21
-15.64805298112545
 31
0.0
  0
LINE
  5
257
  8
1
  6
CONTINUOUS
 62
     7
 10
229.1984715152934
 20
-15.16620720430098
 30
0.0
 11
229.2193629784016
 21
-15.16093077134997
 31
0.0
  0
LINE
  5
258
  8
1
  6
CONTINUOUS
 62
     7
 10
176.0068225504193
 20
-15.2791519211995
 30
0.0
 11
176.01960697117
 21
-15.29118974342228
 31
0.0
  0
LINE
  5
259
  8
1
  6
CONTINUOUS
 62
     7
 10
228.90223002202
 20
-15.3893639925452
 30
0.0
 11
228.913501888016
 21
-15.37168258595578
 31
0.0
  0
LINE
  5
25A
  8
1
  6
CONTINUOUS
 62
     7
 10
178.3090926172662
 20
-17.14805298112546
 30
0.0
 11
178.4128701202272
 21
-17.20157100890249
 31
0.0
  0
LINE
  5
25B
  8
1
  6
CONTINUOUS
 62
     7
 10
228.8819422376103
 20
-15.42609936710917
 30
0.0
 11
228.8917010165067
 21
-15.40751902058779
 31
0.0
  0
LINE
  5
25C
  8
1
  6
CONTINUOUS
 62
     7
 10
229.2565814794704
 20
-15.15382651604608
 30
0.0
 11
229.2753606909272
 21
-15.15132392122798
 31
0.0
  0
LINE
  5
25D
  8
1
  6
CONTINUOUS
 62
     7
 10
175.8878894275713
 20
-15.19872564284858
 30
0.0
 11
175.9113461536066
 21
-15.21087151227476
 31
0.0
  0
LINE
  5
25E
  8
2
  6
CONTINUOUS
 62
     7
 10
204.9619317059
 20
-164.2344450110999
 30
0.0
 11
204.9688770992
 21
-164.2639459961999
 31
0.0
  0
LINE
  5
25F
  8
2
  6
CONTINUOUS
 62
     7
 10
204.2841838119
 20
-163.7095161665
 30
0.0
 11
204.2507263179
 21
-163.7095161665
 31
0.0
  0
LINE
  5
260
  8
2
  6
CONTINUOUS
 62
     7
 10
217.8816623088001
 20
-167.0534857258999
 30
0.0
 11
217.9039453258001
 21
-167.0336540975999
 31
0.0
  0
LINE
  5
261
  8
2
  6
CONTINUOUS
 62
     7
 10
211.0396882390001
 20
-164.2282860120001
 30
0.0
 11
211.0477715142001
 21
-164.2004406206
 31
0.0
  0
LINE
  5
262
  8
2
  6
CONTINUOUS
 62
     7
 10
204.9794238387001
 20
-164.3280431742
 30
0.0
 11
204.9826083893001
 21
-164.3626156881
 31
0.0
  0
LINE
  5
263
  8
2
  6
CONTINUOUS
 62
     7
 10
217.272987921
 20
-167.3058465701
 30
0.0
 11
217.3177245123001
 21
-167.3012652372
 31
0.0
  0
LINE
  5
264
  8
1
  6
CONTINUOUS
 62
     7
 10
176.1334552221961
 20
-15.46011924491017
 30
0.0
 11
176.1410294067086
 21
-15.47985626263468
 31
0.0
  0
LINE
  5
265
  8
1
  6
CONTINUOUS
 62
     7
 10
170.4999999999999
 20
-15.14805298112545
 30
0.0
 11
178.4999999999999
 21
-15.14805298112545
 31
0.0
  0
LINE
  5
266
  8
2
  6
CONTINUOUS
 62
     7
 10
203.6890203411
 20
-163.9918004789999
 30
0.0
 11
203.7117313152
 21
-163.962901686
 31
0.0
  0
LINE
  5
267
  8
2
  6
CONTINUOUS
 62
     7
 10
204.9826083893001
 20
-164.3626156880999
 30
0.0
 11
204.9840771985
 21
-164.397299482
 31
0.0
  0
LINE
  5
268
  8
2
  6
CONTINUOUS
 62
     7
 10
204.3446637091
 20
-163.7121376521
 30
0.0
 11
204.3748297292001
 21
-163.7154122168
 31
0.0
  0
LINE
  5
269
  8
2
  6
CONTINUOUS
 62
     7
 10
211.0225336015
 20
-164.3127905863
 30
0.0
 11
211.0269932789
 21
-164.2849248356
 31
0.0
  0
LINE
  5
26A
  8
2
  6
CONTINUOUS
 62
     7
 10
217.6250655752002
 20
-166.5630196341999
 30
0.0
 11
217.6128095390001
 21
-166.6012174615
 31
0.0
  0
LINE
  5
26B
  8
2
  6
CONTINUOUS
 62
     7
 10
203.761396026
 20
-163.9090257628
 30
0.0
 11
203.7881186580001
 21
-163.8842139446999
 31
0.0
  0
LINE
  5
26C
  8
2
  6
CONTINUOUS
 62
     7
 10
211.1842021758
 20
-163.9541222893999
 30
0.0
 11
211.2029420299
 21
-163.9331184074999
 31
0.0
  0
LINE
  5
26D
  8
1
  6
CONTINUOUS
 62
     7
 10
234.4999999999999
 20
-15.19805298112536
 30
0.0
 11
234.4999999999999
 21
-15.14805298112545
 31
0.0
  0
LINE
  5
26E
  8
2
  6
CONTINUOUS
 62
     7
 10
204.7854790134
 20
-163.9209507951999
 30
0.0
 11
204.8061377477
 21
-163.9430827167999
 31
0.0
  0
LINE
  5
26F
  8
2
  6
CONTINUOUS
 62
     7
 10
204.6909792974
 20
-163.8398592004
 30
0.0
 11
204.7167170537001
 21
-163.8591432928
 31
0.0
  0
ARC
  5
270
  8
2
  6
CONTINUOUS
 62
     7
 10
220.6500000000001
 20
-162.6095161665
 30
0.0
 40
1.000000000000001
 50
0.0
 51
90.0
  0
LINE
  5
271
  8
2
  6
CONTINUOUS
 62
     7
 10
211.0159228015
 20
-164.3972994820001
 30
0.0
 11
211.0169891367001
 21
-164.3690521333999
 31
0.0
  0
LINE
  5
272
  8
2
  6
CONTINUOUS
 62
     7
 10
217.8588282623001
 20
-167.0726409049
 30
0.0
 11
217.8816623088
 21
-167.0534857259
 31
0.0
  0
LINE
  5
273
  8
2
  6
CONTINUOUS
 62
     7
 10
204.9443008751
 20
-164.1766096124001
 30
0.0
 11
204.9537305855
 21
-164.2053038211
 31
0.0
  0
LINE
  5
274
  8
1
  6
CONTINUOUS
 62
     7
 10
176.0319663160133
 20
-15.30367117323558
 30
0.0
 11
176.0438775827362
 21
-15.31657356498417
 31
0.0
  0
LINE
  5
275
  8
1
  6
CONTINUOUS
 62
     7
 10
178.4999999999999
 20
-15.19805298112536
 30
0.0
 11
178.4999999999999
 21
-15.14805298112545
 31
0.0
  0
ARC
  5
276
  8
1
  6
CONTINUOUS
 62
     7
 10
175.4999999999999
 20
-15.64805298112545
 30
0.0
 40
0.5000000000000004
 50
359.9999999999998
 51
64.15806723683079
  0
LINE
  5
277
  8
1
  6
CONTINUOUS
 62
     7
 10
175.9113461536066
 20
-15.21087151227476
 30
0.0
 11
175.9299220948821
 21
-15.22163864274079
 31
0.0
  0
LINE
  5
278
  8
1
  6
CONTINUOUS
 62
     7
 10
176.0438775827362
 20
-15.31657356498417
 30
0.0
 11
176.0577792155258
 21
-15.332860399426
 31
0.0
  0
LINE
  5
279
  8
1
  6
CONTINUOUS
 62
     7
 10
176.1477536420757
 20
-15.4998787112704
 30
0.0
 11
176.1537026128042
 21
-15.520478724456
 31
0.0
  0
LINE
  5
27A
  8
2
  6
CONTINUOUS
 62
     7
 10
204.4659883587001
 20
-163.7335424363001
 30
0.0
 11
204.4961476937001
 21
-163.7423822975
 31
0.0
  0
LINE
  5
27B
  8
2
  6
CONTINUOUS
 62
     7
 10
211.0327539483002
 20
-164.2564728603001
 30
0.0
 11
211.0396882390001
 21
-164.228286012
 31
0.0
  0
LINE
  5
27C
  8
2
  6
CONTINUOUS
 62
     7
 10
204.9339938899001
 20
-164.1492410549
 30
0.0
 11
204.9443008751
 21
-164.1766096124001
 31
0.0
  0
LINE
  5
27D
  8
2
  6
CONTINUOUS
 62
     7
 10
217.2281011636
 20
-167.3085981382
 30
0.0
 11
217.272987921
 21
-167.3058465701
 31
0.0
  0
LINE
  5
27E
  8
2
  6
CONTINUOUS
 62
     7
 10
211.7492736821001
 20
-163.7095161665
 30
0.0
 11
211.7158161881
 21
-163.7095161665
 31
0.0
  0
LINE
  5
27F
  8
2
  6
CONTINUOUS
 62
     7
 10
204.6102140932001
 20
-163.7900804988
 30
0.0
 11
204.6372392158001
 21
-163.8050727185
 31
0.0
  0
LINE
  5
280
  8
1
  6
CONTINUOUS
 62
     7
 10
176.1690533527493
 20
-15.61206618638766
 30
0.0
 11
176.170032190113
 21
-15.63005071731208
 31
0.0
  0
LINE
  5
281
  8
2
  6
CONTINUOUS
 62
     7
 10
195.35
 20
-161.6095161665
 30
0.0
 11
220.65
 21
-161.6095161665
 31
0.0
  0
LINE
  5
282
  8
2
  6
CONTINUOUS
 62
     7
 10
211.1174593391001
 20
-164.0462452355
 30
0.0
 11
211.1328154592001
 21
-164.0220832701
 31
0.0
  0
LINE
  5
283
  8
2
  6
CONTINUOUS
 62
     7
 10
217.6500000000001
 20
-167.3095161664999
 30
0.0
 11
217.1295324533001
 21
-167.3095161664999
 31
0.0
  0
LINE
  5
284
  8
2
  6
CONTINUOUS
 62
     7
 10
221.6500000000001
 20
-163.6095161665
 30
0.0
 11
221.6500000000001
 21
-162.6095161665
 31
0.0
  0
LINE
  5
285
  8
1
  6
CONTINUOUS
 62
     7
 10
176.125053082725
 20
-15.44072017571107
 30
0.0
 11
176.1334552221961
 21
-15.46011924491017
 31
0.0
  0
LINE
  5
286
  8
2
  6
CONTINUOUS
 62
     7
 10
217.8968918406001
 20
-163.7127104525999
 30
0.0
 11
217.9222484627001
 21
-163.7095161665
 31
0.0
  0
LINE
  5
287
  8
2
  6
CONTINUOUS
 62
     7
 10
203.5728280842
 20
-164.2350243400999
 30
0.0
 11
203.5802894645001
 21
-164.2082434210999
 31
0.0
  0
LINE
  5
288
  8
2
  6
CONTINUOUS
 62
     7
 10
204.3144230400001
 20
-163.7101717926
 30
0.0
 11
204.3446637091001
 21
-163.7121376521
 31
0.0
  0
LINE
  5
289
  8
2
  6
CONTINUOUS
 62
     7
 10
211.2224647957
 20
-163.9129263634
 30
0.0
 11
211.2427178904
 21
-163.8935917527
 31
0.0
  0
LINE
  5
28A
  8
2
  6
CONTINUOUS
 62
     7
 10
211.0169891367001
 20
-164.3690521333999
 30
0.0
 11
211.0191958121001
 21
-164.3408577601999
 31
0.0
  0
LINE
  5
28B
  8
2
  6
CONTINUOUS
 62
     7
 10
217.5412189878002
 20
-167.2493474779
 30
0.0
 11
217.5833496719001
 21
-167.2336914886
 31
0.0
  0
LINE
  5
28C
  8
2
  6
CONTINUOUS
 62
     7
 10
204.9537305855
 20
-164.2053038211
 30
0.0
 11
204.9619317059
 21
-164.2344450110999
 31
0.0
  0
LINE
  5
28D
  8
1
  6
CONTINUOUS
 62
     7
 10
176.01960697117
 20
-15.29118974342228
 30
0.0
 11
176.0319663160133
 21
-15.30367117323558
 31
0.0
  0
LINE
  5
28E
  8
1
  6
CONTINUOUS
 62
     7
 10
176.1410294067086
 20
-15.47985626263468
 30
0.0
 11
176.1477536420757
 21
-15.4998787112704
 31
0.0
  0
LINE
  5
28F
  8
2
  6
CONTINUOUS
 62
     7
 10
204.4355254236001
 20
-163.7260748864
 30
0.0
 11
204.4659883587001
 21
-163.7335424363001
 31
0.0
  0
LINE
  5
290
  8
2
  6
CONTINUOUS
 62
     7
 10
204.9688770992001
 20
-164.2639459961999
 30
0.0
 11
204.9745396281
 21
-164.29371959
 31
0.0
  0
LINE
  5
291
  8
1
  6
CONTINUOUS
 62
     7
 10
175.9657884300966
 20
-15.24562489032197
 30
0.0
 11
175.9830019153839
 21
-15.25881646632057
 31
0.0
  0
LINE
  5
292
  8
1
  6
CONTINUOUS
 62
     7
 10
176.0953616458069
 20
-15.38544341973727
 30
0.0
 11
176.1059816358697
 21
-15.40336383445187
 31
0.0
  0
LINE
  5
293
  8
1
  6
CONTINUOUS
 62
     7
 10
176.1587587148977
 20
-15.54131586413165
 30
0.0
 11
176.162278295719
 21
-15.55881282197077
 31
0.0
  0
LINE
  5
294
  8
2
  6
CONTINUOUS
 62
     7
 10
204.9745396281
 20
-164.29371959
 30
0.0
 11
204.9794238387001
 21
-164.3280431742
 31
0.0
  0
LINE
  5
295
  8
2
  6
CONTINUOUS
 62
     7
 10
221.6500000000001
 20
-163.6095161665
 30
0.0
 11
194.3500000000001
 21
-163.6095161665
 31
0.0
  0
LINE
  5
296
  8
2
  6
CONTINUOUS
 62
     7
 10
217.7497602360002
 20
-163.8609297634999
 30
0.0
 11
217.8129312832001
 21
-163.7680148099
 31
0.0
  0
LINE
  5
297
  8
2
  6
CONTINUOUS
 62
     7
 10
204.8061377477
 20
-163.9430827168
 30
0.0
 11
204.825848124
 21
-163.9661204369
 31
0.0
  0
LINE
  5
298
  8
2
  6
CONTINUOUS
 62
     7
 10
204.825848124
 20
-163.9661204368999
 30
0.0
 11
204.8451668802001
 21
-163.9908359607999
 31
0.0
  0
LINE
  5
299
  8
2
  6
CONTINUOUS
 62
     7
 10
217.8129312832001
 20
-163.7680148099
 30
0.0
 11
217.8968918406001
 21
-163.7127104525999
 31
0.0
  0
LINE
  5
29A
  8
2
  6
CONTINUOUS
 62
     7
 10
217.9348265086001
 20
-163.7095161665
 30
0.0
 11
218.0327714056
 21
-163.7638068242999
 31
0.0
  0
LINE
  5
29B
  8
1
  6
CONTINUOUS
 62
     7
 10
170.4999999999999
 20
-15.19805298112536
 30
0.0
 11
170.4999999999999
 21
-15.14805298112545
 31
0.0
  0
LINE
  5
29C
  8
2
  6
CONTINUOUS
 62
     7
 10
211.1491106122
 20
-163.9986129338
 30
0.0
 11
211.1662978162002
 21
-163.9758924137
 31
0.0
  0
LINE
  5
29D
  8
1
  6
CONTINUOUS
 62
     7
 10
170.4999999999999
 20
-15.19805298112536
 30
0.0
 11
178.4999999999999
 21
-15.19805298112536
 31
0.0
  0
LINE
  5
29E
  8
2
  6
CONTINUOUS
 62
     7
 10
204.8805398433001
 20
-164.0429720076
 30
0.0
 11
204.8964669831001
 21
-164.0702385246
 31
0.0
  0
LINE
  5
29F
  8
2
  6
CONTINUOUS
 62
     7
 10
203.5508329313
 20
-164.3972994820001
 30
0.0
 11
203.5
 21
-167.3095161664999
 31
0.0
  0
LINE
  5
2A0
  8
2
  6
CONTINUOUS
 62
     7
 10
217.1831771224001
 20
-167.3095161664999
 30
0.0
 11
217.2281011636001
 21
-167.3085981382
 31
0.0
  0
LINE
  5
2A1
  8
2
  6
CONTINUOUS
 62
     7
 10
198.1734570424001
 20
-163.7542349142
 30
0.0
 11
198.2409693476
 21
-163.8438676953
 31
0.0
  0
LINE
  5
2A2
  8
2
  6
CONTINUOUS
 62
     7
 10
203.5518331225
 20
-164.3702123357999
 30
0.0
 11
203.55388272
 21
-164.3431629021999
 31
0.0
  0
LINE
  5
2A3
  8
2
  6
CONTINUOUS
 62
     7
 10
217.4526812543
 20
-167.2759237005999
 30
0.0
 11
217.4972557247
 21
-167.2635796389
 31
0.0
  0
LINE
  5
2A4
  8
2
  6
CONTINUOUS
 62
     7
 10
204.6644573901
 20
-163.8218195741
 30
0.0
 11
204.6909792974
 21
-163.8398592004
 31
0.0
  0
LINE
  5
2A5
  8
2
  6
CONTINUOUS
 62
     7
 10
198.7346685605
 20
-167.3064515729
 30
0.0
 11
198.7756884769001
 21
-167.3087492431
 31
0.0
  0
LINE
  5
2A6
  8
2
  6
CONTINUOUS
 62
     7
 10
204.5544720198
 20
-163.7638068243
 30
0.0
 11
204.5825979883
 21
-163.7763160691
 31
0.0
  0
LINE
  5
2A7
  8
2
  6
CONTINUOUS
 62
     7
 10
217.4972557247
 20
-167.2635796389
 30
0.0
 11
217.5412189878001
 21
-167.2493474779
 31
0.0
  0
LINE
  5
2A8
  8
2
  6
CONTINUOUS
 62
     7
 10
218.6349101299001
 20
-165.3095161664999
 30
0.0
 11
218.6052365195001
 21
-163.6095161664999
 31
0.0
  0
LINE
  5
2A9
  8
2
  6
CONTINUOUS
 62
     7
 10
203.5802894645001
 20
-164.2082434210999
 30
0.0
 11
203.5887819142001
 21
-164.1818550007999
 31
0.0
  0
LINE
  5
2AA
  8
2
  6
CONTINUOUS
 62
     7
 10
204.2841838119
 20
-163.7095161665
 30
0.0
 11
204.31442304
 21
-163.7101717926
 31
0.0
  0
LINE
  5
2AB
  8
2
  6
CONTINUOUS
 62
     7
 10
204.7415827750001
 20
-163.8796235466
 30
0.0
 11
204.7639384971001
 21
-163.8997794718
 31
0.0
  0
ARC
  5
2AC
  8
2
  6
CONTINUOUS
 62
     7
 10
197.0594462707001
 20
-164.3684022759001
 30
0.0
 40
1.298893869099982
 50
358.7252041117
 51
18.77617583099999
  0
LINE
  5
2AD
  8
2
  6
CONTINUOUS
 62
     7
 10
204.5259173063002
 20
-163.7525801592
 30
0.0
 11
204.5544720198
 21
-163.7638068242999
 31
0.0
  0
LINE
  5
2AE
  8
2
  6
CONTINUOUS
 62
     7
 10
211.5783497953001
 20
-163.7231534618001
 30
0.0
 11
211.6125135411001
 21
-163.7171956296
 31
0.0
  0
LINE
  5
2AF
  8
2
  6
CONTINUOUS
 62
     7
 10
204.7167170537001
 20
-163.8591432928
 30
0.0
 11
204.7415827750001
 21
-163.8796235466
 31
0.0
  0
LINE
  5
2B0
  8
2
  6
CONTINUOUS
 62
     7
 10
204.7639384971001
 20
-163.8997794718
 30
0.0
 11
204.7854790134
 21
-163.9209507952
 31
0.0
  0
LINE
  5
2B1
  8
2
  6
CONTINUOUS
 62
     7
 10
204.4961476937001
 20
-163.7423822975
 30
0.0
 11
204.5259173063
 21
-163.7525801592001
 31
0.0
  0
LINE
  5
2B2
  8
2
  6
CONTINUOUS
 62
     7
 10
204.8634186311
 20
-164.0164788185999
 30
0.0
 11
204.8805398433
 21
-164.0429720075999
 31
0.0
  0
LINE
  5
2B3
  8
2
  6
CONTINUOUS
 62
     7
 10
203.55388272
 20
-164.3431629021999
 30
0.0
 11
203.5569733945
 21
-164.3162243163999
 31
0.0
  0
LINE
  5
2B4
  8
2
  6
CONTINUOUS
 62
     7
 10
203.9438755469
 20
-163.7803559291
 30
0.0
 11
203.9705950695
 21
-163.7680148099
 31
0.0
  0
LINE
  5
2B5
  8
2
  6
CONTINUOUS
 62
     7
 10
204.5825979883
 20
-163.7763160691
 30
0.0
 11
204.6102140932
 21
-163.7900804988
 31
0.0
  0
LINE
  5
2B6
  8
2
  6
CONTINUOUS
 62
     7
 10
198.2409693476
 20
-163.8438676953
 30
0.0
 11
198.2892171381
 21
-163.9503246552
 31
0.0
  0
LINE
  5
2B7
  8
2
  6
CONTINUOUS
 62
     7
 10
218.0327714056
 20
-163.7638068243
 30
0.0
 11
218.0887822574001
 21
-163.8591432928
 31
0.0
  0
LINE
  5
2B8
  8
2
  6
CONTINUOUS
 62
     7
 10
203.5508329313
 20
-164.3972994820001
 30
0.0
 11
203.5518331225
 21
-164.3702123358
 31
0.0
  0
LINE
  5
2B9
  8
2
  6
CONTINUOUS
 62
     7
 10
204.6372392158001
 20
-163.8050727185
 30
0.0
 11
204.6644573901001
 21
-163.8218195740999
 31
0.0
  0
ARC
  5
2BA
  8
2
  6
CONTINUOUS
 62
     7
 10
218.9588576921002
 20
-164.3703784162
 30
0.0
 40
1.317151492699953
 50
161.9792091032
 51
181.1711415701
  0
LINE
  5
2BB
  8
2
  6
CONTINUOUS
 62
     7
 10
203.5979977316
 20
-164.1566476013
 30
0.0
 11
203.6081569248
 21
-164.1318483047999
 31
0.0
  0
LINE
  5
2BC
  8
2
  6
CONTINUOUS
 62
     7
 10
217.7063199604
 20
-163.962901686
 30
0.0
 11
217.749760236
 21
-163.8609297635
 31
0.0
  0
ARC
  5
2BD
  8
2
  6
CONTINUOUS
 62
     7
 10
216.6647163152001
 20
-164.3821333624
 30
0.0
 40
1.517063749799985
 50
359.4272032914
 51
20.16582513000003
  0
LINE
  5
2BE
  8
2
  6
CONTINUOUS
 62
     7
 10
203.9705950695001
 20
-163.7680148099
 30
0.0
 11
203.9977891530001
 21
-163.7568153563
 31
0.0
  0
LINE
  5
2BF
  8
2
  6
CONTINUOUS
 62
     7
 10
216.8442074653001
 20
-167.2721665134999
 30
0.0
 11
217.1295324533
 21
-167.3095161664999
 31
0.0
  0
ARC
  5
2C0
  8
2
  6
CONTINUOUS
 62
     7
 10
217.6500000000001
 20
-166.3095161664999
 30
0.0
 40
1.000000000000001
 50
270.0
 51
313.6028189727
  0
TEXT
  5
2C1
  8
0
  6
CONTINUOUS
 62
     7
 10
264.8130048768289
 20
-34.63479742403398
 30
0.0
 40
7.0
  1
MTKB-1SBPY
  0
ARC
  5
2C2
  8
1
  6
CONTINUOUS
 62
     7
 10
267.2480529811253
 20
20.65000000000008
 30
0.0
 40
1.000000000000001
 50
90.0
 51
180.0
  0
LINE
  5
2C3
  8
0
  6
CONTINUOUS
 62
     7
 10
320.0000000000001
 20
-142.647529403
 30
0.0
 11
320.0000000000001
 21
-155.1579510295
 31
0.0
  0
ARC
  5
2C4
  8
0
  6
CONTINUOUS
 62
     7
 10
325.0
 20
-130.0
 30
0.0
 40
25.65000000000006
 50
258.759261959
 51
269.4415527612
  0
LINE
  5
2C5
  8
0
  6
CONTINUOUS
 62
     7
 10
324.7500000000001
 20
-135.6035533906
 30
0.0
 11
324.7500000000001
 21
-157.648869778
 31
0.0
  0
ARC
  5
2C6
  8
0
  6
CONTINUOUS
 62
     7
 10
325.0
 20
-130.0
 30
0.0
 40
27.65000000000006
 50
270.5180520814
 51
269.4819479186
  0
LINE
  5
2C7
  8
0
  6
CONTINUOUS
 62
     7
 10
318.0000000000001
 20
-156.749252326
 30
0.0
 11
318.0000000000001
 21
-143.9413055343
 31
0.0
  0
ARC
  5
2C8
  8
0
  6
CONTINUOUS
 62
     7
 10
325.0
 20
-130.0
 30
0.0
 40
15.60000000000006
 50
296.6614585815
 51
243.3385414185
  0
LINE
  5
2C9
  8
0
  6
CONTINUOUS
 62
     7
 10
332.0000000000001
 20
-143.9413055343
 30
0.0
 11
332.0000000000001
 21
-156.749252326
 31
0.0
  0
LINE
  5
2CA
  8
0
  6
CONTINUOUS
 62
     7
 10
325.2500000000001
 20
-157.648869778
 30
0.0
 11
325.2500000000001
 21
-135.6035533906
 31
0.0
  0
ARC
  5
2CB
  8
0
  6
CONTINUOUS
 62
     7
 10
325.0
 20
-130.0
 30
0.0
 40
25.65000000000006
 50
270.5584472388
 51
281.240738041
  0
LINE
  5
2CC
  8
0
  6
CONTINUOUS
 62
     7
 10
330.0000000000001
 20
-155.1579510295
 30
0.0
 11
330.0000000000001
 21
-142.647529403
 31
0.0
  0
ARC
  5
2CD
  8
0
  6
CONTINUOUS
 62
     7
 10
325.0
 20
-130.0
 30
0.0
 40
13.60000000000006
 50
291.5705783016001
 51
248.4294216984001
  0
LINE
  5
2CE
  8
0
  6
CONTINUOUS
 62
     7
 10
325.5000000000001
 20
-131.2071067812
 30
0.0
 11
325.2500000000001
 21
-135.6035533906
 31
0.0
  0
LINE
  5
2CF
  8
0
  6
CONTINUOUS
 62
     7
 10
332.0710678119
 20
-137.0710678119
 30
0.0
 11
325.5000000000001
 21
-131.2071067812
 31
0.0
  0
LINE
  5
2D0
  8
0
  6
CONTINUOUS
 62
     7
 10
326.2071067812001
 20
-130.5
 30
0.0
 11
332.0710678119001
 21
-137.0710678119
 31
0.0
  0
LINE
  5
2D1
  8
0
  6
CONTINUOUS
 62
     7
 10
335.0
 20
-130.0
 30
0.0
 11
326.2071067812
 21
-130.5
 31
0.0
  0
LINE
  5
2D2
  8
0
  6
CONTINUOUS
 62
     7
 10
326.2071067812001
 20
-129.5
 30
0.0
 11
335.0000000000001
 21
-130.0
 31
0.0
  0
LINE
  5
2D3
  8
0
  6
CONTINUOUS
 62
     7
 10
332.0710678119
 20
-122.9289321881
 30
0.0
 11
326.2071067812
 21
-129.5
 31
0.0
  0
LINE
  5
2D4
  8
0
  6
CONTINUOUS
 62
     7
 10
325.5000000000001
 20
-128.7928932188
 30
0.0
 11
332.0710678119
 21
-122.9289321881
 31
0.0
  0
LINE
  5
2D5
  8
0
  6
CONTINUOUS
 62
     7
 10
325.2500000000001
 20
-124.3964466094
 30
0.0
 11
325.5000000000001
 21
-128.7928932188
 31
0.0
  0
LINE
  5
2D6
  8
0
  6
CONTINUOUS
 62
     7
 10
325.2500000000001
 20
-124.3964466094
 30
0.0
 11
325.2500000000001
 21
-118.9028156724
 31
0.0
  0
LINE
  5
2D7
  8
0
  6
CONTINUOUS
 62
     7
 10
324.7500000000001
 20
-118.9028156724
 30
0.0
 11
324.7500000000001
 21
-124.3964466094
 31
0.0
  0
LINE
  5
2D8
  8
0
  6
CONTINUOUS
 62
     7
 10
324.5000000000001
 20
-128.7928932188
 30
0.0
 11
324.7500000000001
 21
-124.3964466094
 31
0.0
  0
LINE
  5
2D9
  8
0
  6
CONTINUOUS
 62
     7
 10
317.9289321881001
 20
-122.9289321881
 30
0.0
 11
324.5000000000001
 21
-128.7928932188
 31
0.0
  0
LINE
  5
2DA
  8
0
  6
CONTINUOUS
 62
     7
 10
323.7928932188
 20
-129.5
 30
0.0
 11
317.9289321881
 21
-122.9289321881
 31
0.0
  0
LINE
  5
2DB
  8
0
  6
CONTINUOUS
 62
     7
 10
315.0
 20
-130.0
 30
0.0
 11
323.7928932188
 21
-129.5
 31
0.0
  0
LINE
  5
2DC
  8
0
  6
CONTINUOUS
 62
     7
 10
323.7928932188
 20
-130.5
 30
0.0
 11
315.0000000000001
 21
-130.0
 31
0.0
  0
LINE
  5
2DD
  8
0
  6
CONTINUOUS
 62
     7
 10
317.9289321881001
 20
-137.0710678119
 30
0.0
 11
323.7928932188001
 21
-130.5
 31
0.0
  0
LINE
  5
2DE
  8
0
  6
CONTINUOUS
 62
     7
 10
324.5000000000001
 20
-131.2071067812
 30
0.0
 11
317.9289321881001
 21
-137.0710678119
 31
0.0
  0
LINE
  5
2DF
  8
0
  6
CONTINUOUS
 62
     7
 10
324.7500000000001
 20
-135.6035533906
 30
0.0
 11
324.5
 21
-131.2071067812
 31
0.0
  0
ARC
  5
2E0
  8
0
  6
CONTINUOUS
 62
     7
 10
325.0
 20
-130.0
 30
0.0
 40
11.10000000000011
 50
88.7094453911
 51
91.29055460890002
  0
LINE
  5
2E1
  8
0
  6
CONTINUOUS
 62
     7
 10
297.3500000000001
 20
-192.9154326913
 30
0.0
 11
324.7500000000002
 21
-192.9154326913
 31
0.0
  0
LINE
  5
2E2
  8
0
  6
CONTINUOUS
 62
     7
 10
297.3500000000001
 20
-190.9154326912999
 30
0.0
 11
318.0000000000001
 21
-190.9154326912999
 31
0.0
  0
LINE
  5
2E3
  8
0
  6
CONTINUOUS
 62
     7
 10
332.0000000000001
 20
-190.9154326912999
 30
0.0
 11
352.6500000000001
 21
-190.9154326912999
 31
0.0
  0
LINE
  5
2E4
  8
0
  6
CONTINUOUS
 62
     7
 10
340.6000000000001
 20
-187.9154326912999
 30
0.0
 11
309.4000000000001
 21
-187.9154326912999
 31
0.0
  0
LINE
  5
2E5
  8
0
  6
CONTINUOUS
 62
     7
 10
310.7519234775002
 20
-218.9154326913
 30
0.0
 11
339.2480765225001
 21
-218.9154326913
 31
0.0
  0
LINE
  5
2E6
  8
0
  6
CENTER
 62
     1
 10
325.0
 20
-159.6500000000001
 30
0.0
 11
325.0
 21
-150.3499999999999
 31
0.0
  0
LINE
  5
2E7
  8
0
  6
CONTINUOUS
 62
     7
 10
325.2500000000001
 20
-192.9154326913
 30
0.0
 11
352.6500000000001
 21
-192.9154326913
 31
0.0
  0
LINE
  5
2E8
  8
1
  6
CONTINUOUS
 62
     7
 10
174.4999999999999
 20
37.50000000000001
 30
0.0
 11
174.4999999999999
 21
38.49999999999989
 31
0.0
  0
LINE
  5
2E9
  8
1
  6
CONTINUOUS
 62
     7
 10
177.5999999999999
 20
55.00000000000002
 30
0.0
 11
177.5999999999999
 21
55.19999999999992
 31
0.0
  0
LINE
  5
2EA
  8
1
  6
CONTINUOUS
 62
     7
 10
178.7563692751086
 20
91.50000000000001
 30
0.0
 11
178.3090926172662
 21
89.9
 31
0.0
  0
ARC
  5
2EB
  8
1
  6
CONTINUOUS
 62
     7
 10
202.4999999999999
 20
84.0
 30
0.0
 40
26.5
 50
16.44046311663868
 51
16.66602194077836
  0
LINE
  5
2EC
  8
1
  6
CONTINUOUS
 62
     7
 10
229.4999999999999
 20
55.19999999999992
 30
0.0
 11
226.4999999999999
 21
55.19999999999992
 31
0.0
  0
LINE
  5
2ED
  8
1
  6
CONTINUOUS
 62
     7
 10
179.4999999999999
 20
28.3999999999999
 30
0.0
 11
225.4999999999997
 21
28.3999999999999
 31
0.0
  0
LINE
  5
2EE
  8
1
  6
CONTINUOUS
 62
     7
 10
226.6909073827336
 20
30.10000000000002
 30
0.0
 11
227.9999999999999
 21
30.10000000000002
 31
0.0
  0
ARC
  5
2EF
  8
1
  6
CONTINUOUS
 62
     7
 10
202.4999999999999
 20
84.0
 30
0.0
 40
24.90000000000001
 50
166.2935337414017
 51
173.0800831969697
  0
ARC
  5
2F0
  8
1
  6
CONTINUOUS
 62
     7
 10
202.4999999999999
 20
84.0
 30
0.0
 40
24.90000000000001
 50
17.52998173307304
 51
17.77145327832835
  0
LINE
  5
2F1
  8
1
  6
CONTINUOUS
 62
     7
 10
232.4999999999999
 20
94.00000000000001
 30
0.0
 11
232.4999999999999
 21
83.5000000000001
 31
0.0
  0
ARC
  5
2F2
  8
1
  6
CONTINUOUS
 62
     7
 10
202.4999999999999
 20
36.0
 30
0.0
 40
24.90000000000001
 50
197.529981733073
 51
197.7714532783289
  0
ARC
  5
2F3
  8
1
  6
CONTINUOUS
 62
     7
 10
211.4999999999999
 20
102.85
 30
0.0
 40
4.099999999999993
 50
276.9682567413781
 51
96.96825674137784
  0
LINE
  5
2F4
  8
1
  6
CONTINUOUS
 62
     7
 10
229.4999999999999
 20
64.79999999999991
 30
0.0
 11
229.4999999999999
 21
65.00000000000011
 31
0.0
  0
ARC
  5
2F5
  8
1
  6
CONTINUOUS
 62
     7
 10
231.4999999999999
 20
66.00000000000011
 30
0.0
 40
1.000000000000001
 50
270.0
 51
359.9999999999996
  0
LINE
  5
2F6
  8
1
  6
CONTINUOUS
 62
     7
 10
229.4999999999999
 20
55.00000000000002
 30
0.0
 11
229.4999999999999
 21
55.19999999999992
 31
0.0
  0
LINE
  5
2F7
  8
1
  6
CONTINUOUS
 62
     7
 10
170.4999999999999
 20
108.9999999999999
 30
0.0
 11
170.4999999999999
 21
10.9999999999999
 31
0.0
  0
ARC
  5
2F8
  8
1
  6
CONTINUOUS
 62
     7
 10
202.4999999999999
 20
84.0
 30
0.0
 40
26.5
 50
163.3339780592216
 51
163.5595368833613
  0
CIRCLE
  5
2F9
  8
1
  6
CONTINUOUS
 62
     7
 10
202.4999999999999
 20
75.00000000000001
 30
0.0
 40
10.64999999999999
  0
LINE
  5
2FA
  8
1
  6
CONTINUOUS
 62
     7
 10
231.4999999999999
 20
80.50000000000011
 30
0.0
 11
232.4999999999999
 21
80.50000000000011
 31
0.0
  0
LINE
  5
2FB
  8
1
  6
CONTINUOUS
 62
     7
 10
172.4999999999999
 20
36.50000000000001
 30
0.0
 11
173.4999999999998
 21
36.50000000000001
 31
0.0
  0
ARC
  5
2FC
  8
1
  6
CONTINUOUS
 62
     7
 10
173.4999999999999
 20
37.50000000000001
 30
0.0
 40
1.000000000000001
 50
269.9999999999992
 51
0.0
  0
ARC
  5
2FD
  8
1
  6
CONTINUOUS
 62
     7
 10
226.4999999999999
 20
108.9999999999999
 30
0.0
 40
7.99999999999998
 50
359.9999999999998
 51
90.0
  0
LINE
  5
2FE
  8
1
  6
CONTINUOUS
 62
     7
 10
177.0834699457222
 20
91.50000000000001
 30
0.0
 11
178.7563692751086
 21
91.50000000000001
 31
0.0
  0
LINE
  5
2FF
  8
1
  6
CONTINUOUS
 62
     7
 10
175.4999999999999
 20
65.00000000000011
 30
0.0
 11
175.4999999999999
 21
64.79999999999991
 31
0.0
  0
LINE
  5
300
  8
1
  6
CONTINUOUS
 62
     7
 10
227.9999999999999
 20
92.8741196746494
 30
0.0
 11
227.9999999999999
 21
96.0
 31
0.0
  0
LINE
  5
301
  8
1
  6
CONTINUOUS
 62
     7
 10
176.9999999999999
 20
27.12588032535063
 30
0.0
 11
176.9999999999999
 21
24.00000000000002
 31
0.0
  0
ARC
  5
302
  8
1
  6
CONTINUOUS
 62
     7
 10
231.4999999999999
 20
82.50000000000011
 30
0.0
 40
1.000000000000001
 50
89.9999999999992
 51
180.0
  0
LINE
  5
303
  8
1
  6
CONTINUOUS
 62
     7
 10
211.9974096628574
 20
98.7802845766201
 30
0.0
 11
203.901723615314
 21
97.79081183747601
 31
0.0
  0
ARC
  5
304
  8
1
  6
CONTINUOUS
 62
     7
 10
173.4999999999999
 20
66.00000000000011
 30
0.0
 40
1.000000000000001
 50
180.0000000000004
 51
270.0
  0
ARC
  5
305
  8
1
  6
CONTINUOUS
 62
     7
 10
202.4999999999999
 20
36.0
 30
0.0
 40
24.90000000000001
 50
346.2935337414016
 51
353.0800831969696
  0
LINE
  5
306
  8
1
  6
CONTINUOUS
 62
     7
 10
227.9999999999999
 20
96.0
 30
0.0
 11
230.4999999999999
 21
96.0
 31
0.0
  0
ARC
  5
307
  8
1
  6
CONTINUOUS
 62
     7
 10
202.4999999999999
 20
36.0
 30
0.0
 40
26.5
 50
343.3339780592211
 51
343.5595368833614
  0
LINE
  5
308
  8
1
  6
CONTINUOUS
 62
     7
 10
231.4999999999999
 20
65.00000000000011
 30
0.0
 11
229.4999999999999
 21
65.00000000000011
 31
0.0
  0
ARC
  5
309
  8
1
  6
CONTINUOUS
 62
     7
 10
202.4999999999999
 20
36.0
 30
0.0
 40
24.90000000000001
 50
342.2285467216711
 51
342.470018266927
  0
ARC
  5
30A
  8
1
  6
CONTINUOUS
 62
     7
 10
202.4999999999999
 20
84.0
 30
0.0
 40
24.90000000000001
 50
6.919916803030331
 51
13.70646625859831
  0
ARC
  5
30B
  8
1
  6
CONTINUOUS
 62
     7
 10
202.4999999999999
 20
36.0
 30
0.0
 40
24.90000000000001
 50
186.9199168030303
 51
193.7064662585983
  0
ARC
  5
30C
  8
1
  6
CONTINUOUS
 62
     7
 10
178.4999999999999
 20
108.9999999999999
 30
0.0
 40
7.99999999999998
 50
90.0
 51
180.0
  0
LINE
  5
30D
  8
1
  6
CONTINUOUS
 62
     7
 10
175.4999999999999
 20
64.79999999999991
 30
0.0
 11
178.4999999999999
 21
64.79999999999991
 31
0.0
  0
LINE
  5
30E
  8
1
  6
CONTINUOUS
 62
     7
 10
226.4999999999999
 20
64.79999999999991
 30
0.0
 11
229.4999999999999
 21
64.79999999999991
 31
0.0
  0
LINE
  5
30F
  8
1
  6
CONTINUOUS
 62
     7
 10
178.4999999999999
 20
55.19999999999992
 30
0.0
 11
175.4999999999999
 21
55.19999999999992
 31
0.0
  0
LINE
  5
310
  8
1
  6
CONTINUOUS
 62
     7
 10
225.4999999999997
 20
28.3999999999999
 30
0.0
 11
227.9999999999999
 21
28.3999999999999
 31
0.0
  0
LINE
  5
311
  8
1
  6
CONTINUOUS
 62
     7
 10
193.0025903371424
 20
21.21971542337991
 30
0.0
 11
201.0982763846858
 21
22.2091881625241
 31
0.0
  0
LINE
  5
312
  8
1
  6
CONTINUOUS
 62
     7
 10
202.906904289599
 20
105.9302426842357
 30
0.0
 11
211.0025903371424
 21
106.9197154233799
 31
0.0
  0
LINE
  5
313
  8
1
  6
CONTINUOUS
 62
     7
 10
227.9999999999999
 20
91.5999999999999
 30
0.0
 11
225.4999999999999
 21
91.5999999999999
 31
0.0
  0
LINE
  5
314
  8
1
  6
CONTINUOUS
 62
     7
 10
174.4999999999999
 20
82.50000000000011
 30
0.0
 11
174.4999999999999
 21
81.50000000000011
 31
0.0
  0
LINE
  5
315
  8
1
  6
CONTINUOUS
 62
     7
 10
226.4999999999999
 20
55.19999999999992
 30
0.0
 11
226.4999999999999
 21
64.79999999999991
 31
0.0
  0
CIRCLE
  5
316
  8
1
  6
CONTINUOUS
 62
     7
 10
187.4999999999999
 20
60.0
 30
0.0
 40
1.750000000000002
  0
LINE
  5
317
  8
1
  6
CONTINUOUS
 62
     7
 10
225.4999999999999
 20
91.5999999999999
 30
0.0
 11
179.5
 21
91.5999999999999
 31
0.0
  0
LINE
  5
318
  8
1
  6
CONTINUOUS
 62
     7
 10
173.4999999999999
 20
80.50000000000011
 30
0.0
 11
172.4999999999999
 21
80.50000000000011
 31
0.0
  0
LINE
  5
319
  8
1
  6
CONTINUOUS
 62
     7
 10
179.5
 20
91.5999999999999
 30
0.0
 11
176.9999999999999
 21
91.5999999999999
 31
0.0
  0
ARC
  5
31A
  8
1
  6
CONTINUOUS
 62
     7
 10
173.4999999999999
 20
81.50000000000011
 30
0.0
 40
1.000000000000001
 50
270.0000000000002
 51
0.0000000000005684
  0
ARC
  5
31B
  8
1
  6
CONTINUOUS
 62
     7
 10
178.4999999999999
 20
10.9999999999999
 30
0.0
 40
7.99999999999998
 50
179.9999999999999
 51
270.0000000000001
  0
LINE
  5
31C
  8
1
  6
CONTINUOUS
 62
     7
 10
178.4999999999999
 20
64.79999999999991
 30
0.0
 11
178.4999999999999
 21
55.19999999999992
 31
0.0
  0
LINE
  5
31D
  8
1
  6
CONTINUOUS
 62
     7
 10
234.4999999999999
 20
10.9999999999999
 30
0.0
 11
234.4999999999999
 21
108.9999999999999
 31
0.0
  0
ARC
  5
31E
  8
1
  6
CONTINUOUS
 62
     7
 10
202.4999999999999
 20
84.0
 30
0.0
 40
24.90000000000001
 50
162.2285467216716
 51
162.470018266927
  0
LINE
  5
31F
  8
1
  6
CONTINUOUS
 62
     7
 10
176.9999999999999
 20
28.3999999999999
 30
0.0
 11
179.4999999999999
 21
28.3999999999999
 31
0.0
  0
CIRCLE
  5
320
  8
1
  6
CONTINUOUS
 62
     7
 10
202.4999999999999
 20
45.00000000000001
 30
0.0
 40
10.64999999999999
  0
ARC
  5
321
  8
1
  6
CONTINUOUS
 62
     7
 10
193.4999999999999
 20
17.15000000000003
 30
0.0
 40
4.099999999999993
 50
96.96825674137814
 51
276.9682567413779
  0
LINE
  5
322
  8
1
  6
CONTINUOUS
 62
     7
 10
178.4999999999999
 20
2.999999999999892
 30
0.0
 11
226.4999999999999
 21
2.999999999999892
 31
0.0
  0
LINE
  5
323
  8
1
  6
CONTINUOUS
 62
     7
 10
172.4999999999999
 20
26.0
 30
0.0
 11
172.4999999999999
 21
36.50000000000001
 31
0.0
  0
LINE
  5
324
  8
1
  6
CONTINUOUS
 62
     7
 10
226.4999999999999
 20
116.9999999999999
 30
0.0
 11
178.4999999999999
 21
116.9999999999999
 31
0.0
  0
ARC
  5
325
  8
1
  6
CONTINUOUS
 62
     7
 10
226.4999999999999
 20
10.9999999999999
 30
0.0
 40
7.99999999999998
 50
269.9999999999999
 51
0.0
  0
ARC
  5
326
  8
1
  6
CONTINUOUS
 62
     7
 10
173.4999999999999
 20
38.50000000000001
 30
0.0
 40
1.000000000000001
 50
359.9999999999993
 51
89.99999999999982
  0
ARC
  5
327
  8
1
  6
CONTINUOUS
 62
     7
 10
202.4999999999999
 20
36.0
 30
0.0
 40
26.5
 50
196.4404631166386
 51
196.6660219407788
  0
LINE
  5
328
  8
1
  6
CONTINUOUS
 62
     7
 10
201.9849999999999
 20
102.265
 30
0.0
 11
200.3097317515883
 21
102.265
 31
0.0
  0
LINE
  5
329
  8
1
  6
CONTINUOUS
 62
     7
 10
201.9849999999999
 20
16.05973175158839
 30
0.0
 11
201.9849999999999
 21
17.73500000000003
 31
0.0
  0
ARC
  5
32A
  8
1
  6
CONTINUOUS
 62
     7
 10
202.4999999999999
 20
18.25000000000001
 30
0.0
 40
2.250000000000002
 50
76.76833517570076
 51
103.2316648242992
  0
LINE
  5
32B
  8
1
  6
CONTINUOUS
 62
     7
 10
220.3999999999999
 20
-64.14805298112536
 30
0.0
 11
184.5999999999999
 21
-64.14805298112536
 31
0.0
  0
CIRCLE
  5
32C
  8
1
  6
CONTINUOUS
 62
     7
 10
202.4999999999999
 20
18.25000000000001
 30
0.0
 40
4.200000000000009
  0
LINE
  5
32D
  8
1
  6
CONTINUOUS
 62
     7
 10
200.3097317515883
 20
18.765
 30
0.0
 11
201.9849999999999
 21
18.765
 31
0.0
  0
ARC
  5
32E
  8
1
  6
CONTINUOUS
 62
     7
 10
202.4999999999999
 20
101.75
 30
0.0
 40
2.250000000000002
 50
256.7683351757008
 51
283.2316648242992
  0
ARC
  5
32F
  8
1
  6
CONTINUOUS
 62
     7
 10
202.4999999999999
 20
18.25000000000001
 30
0.0
 40
1.030668528585355
 50
330.0214543835138
 51
29.97854561648614
  0
LINE
  5
330
  8
1
  6
CONTINUOUS
 62
     7
 10
190.7499999999999
 20
16.65000000000003
 30
0.0
 11
192.1999999999999
 21
16.65000000000003
 31
0.0
  0
LINE
  5
331
  8
1
  6
CONTINUOUS
 62
     7
 10
186.4999999999999
 20
-18.74805298112547
 30
0.0
 11
218.4999999999999
 21
-18.74805298112547
 31
0.0
  0
LINE
  5
332
  8
1
  6
CONTINUOUS
 62
     7
 10
192.9999999999999
 20
19.343741096848
 30
0.0
 11
192.9999999999999
 21
18.44999999999999
 31
0.0
  0
ARC
  5
333
  8
1
  6
CONTINUOUS
 62
     7
 10
202.4999999999999
 20
101.75
 30
0.0
 40
1.030668528585355
 50
60.0214543835139
 51
119.9785456164861
  0
LINE
  5
334
  8
1
  6
CONTINUOUS
 62
     7
 10
203.0149999999999
 20
17.73500000000003
 30
0.0
 11
203.0149999999999
 21
16.05973175158839
 31
0.0
  0
ARC
  5
335
  8
1
  6
CONTINUOUS
 62
     7
 10
202.4999999999999
 20
18.25000000000001
 30
0.0
 40
1.030668528585355
 50
240.0214543835139
 51
299.9785456164861
  0
ARC
  5
336
  8
1
  6
CONTINUOUS
 62
     7
 10
202.4999999999999
 20
101.75
 30
0.0
 40
2.250000000000002
 50
76.76833517570076
 51
103.2316648242992
  0
LINE
  5
337
  8
1
  6
CONTINUOUS
 62
     7
 10
201.9849999999999
 20
103.9402682484116
 30
0.0
 11
201.9849999999999
 21
102.265
 31
0.0
  0
ARC
  5
338
  8
1
  6
CONTINUOUS
 62
     7
 10
193.4999999999999
 20
17.15000000000003
 30
0.0
 40
2.250000000000002
 50
77.16041159309584
 51
102.8395884069042
  0
ARC
  5
339
  8
1
  6
CONTINUOUS
 62
     7
 10
202.4999999999999
 20
18.25000000000001
 30
0.0
 40
2.250000000000002
 50
166.7683351757007
 51
193.2316648242993
  0
ARC
  5
33A
  8
1
  6
CONTINUOUS
 62
     7
 10
193.4999999999999
 20
17.15000000000003
 30
0.0
 40
1.801276552751918
 50
343.8841207182081
 51
16.11587928179188
  0
ARC
  5
33B
  8
1
  6
CONTINUOUS
 62
     7
 10
193.4999999999999
 20
17.15000000000003
 30
0.0
 40
1.200223116976651
 50
333.6862810513651
 51
26.31371894863605
  0
CIRCLE
  5
33C
  8
1
  6
CONTINUOUS
 62
     7
 10
193.4999999999999
 20
17.15000000000003
 30
0.0
 40
1.021236244656248
  0
LINE
  5
33D
  8
1
  6
CONTINUOUS
 62
     7
 10
204.6902682484115
 20
17.73500000000003
 30
0.0
 11
203.0149999999999
 21
17.73500000000003
 31
0.0
  0
LINE
  5
33E
  8
1
  6
CONTINUOUS
 62
     7
 10
196.2499999999999
 20
17.65000000000003
 30
0.0
 11
194.7999999999999
 21
17.65000000000003
 31
0.0
  0
ARC
  5
33F
  8
1
  6
CONTINUOUS
 62
     7
 10
193.4999999999999
 20
17.15000000000003
 30
0.0
 40
1.200223116976651
 50
63.68628105136501
 51
116.3137189486361
  0
LINE
  5
340
  8
1
  6
CONTINUOUS
 62
     7
 10
201.9849999999999
 20
18.765
 30
0.0
 11
201.9849999999999
 21
20.44026824841161
 31
0.0
  0
LINE
  5
341
  8
1
  6
CONTINUOUS
 62
     7
 10
204.6902682484115
 20
102.265
 30
0.0
 11
203.0149999999999
 21
102.265
 31
0.0
  0
LINE
  5
342
  8
1
  6
CONTINUOUS
 62
     7
 10
203.0149999999999
 20
20.44026824841161
 30
0.0
 11
203.0149999999999
 21
18.765
 31
0.0
  0
LINE
  5
343
  8
1
  6
CONTINUOUS
 62
     7
 10
267.2480529811253
 20
21.65000000000008
 30
0.0
 11
311.6480529811253
 21
21.65000000000008
 31
0.0
  0
LINE
  5
344
  8
1
  6
CONTINUOUS
 62
     7
 10
193.9999999999999
 20
14.956258903152
 30
0.0
 11
193.9999999999999
 21
15.85
 31
0.0
  0
LINE
  5
345
  8
1
  6
CONTINUOUS
 62
     7
 10
196.2499999999999
 20
16.65000000000003
 30
0.0
 11
196.2499999999999
 21
17.65000000000003
 31
0.0
  0
LINE
  5
346
  8
1
  6
CONTINUOUS
 62
     7
 10
192.1999999999999
 20
17.65000000000003
 30
0.0
 11
190.7499999999999
 21
17.65000000000003
 31
0.0
  0
LINE
  5
347
  8
1
  6
CONTINUOUS
 62
     7
 10
200.3097317515883
 20
101.235
 30
0.0
 11
201.9849999999999
 21
101.235
 31
0.0
  0
LINE
  5
348
  8
1
  6
CONTINUOUS
 62
     7
 10
203.0149999999999
 20
99.55973175158842
 30
0.0
 11
203.0149999999999
 21
101.235
 31
0.0
  0
LINE
  5
349
  8
1
  6
CONTINUOUS
 62
     7
 10
311.6480529811253
 20
107.2500000000001
 30
0.0
 11
273.2480529811253
 21
107.2500000000001
 31
0.0
  0
CIRCLE
  5
34A
  8
1
  6
CONTINUOUS
 62
     7
 10
193.4999999999999
 20
17.15000000000003
 30
0.0
 40
4.000000000000004
  0
ARC
  5
34B
  8
1
  6
CONTINUOUS
 62
     7
 10
194.7999999999999
 20
18.44999999999999
 30
0.0
 40
0.7999999999999952
 50
180.0
 51
269.9999999999995
  0
ARC
  5
34C
  8
1
  6
CONTINUOUS
 62
     7
 10
192.1999999999999
 20
15.85
 30
0.0
 40
0.7999999999999952
 50
0.0
 51
89.99999999999949
  0
ARC
  5
34D
  8
1
  6
CONTINUOUS
 62
     7
 10
202.4999999999999
 20
18.25000000000001
 30
0.0
 40
2.250000000000002
 50
256.7683351757007
 51
283.2316648242993
  0
ARC
  5
34E
  8
1
  6
CONTINUOUS
 62
     7
 10
202.4999999999999
 20
101.75
 30
0.0
 40
2.250000000000002
 50
166.7683351757008
 51
193.2316648242993
  0
LINE
  5
34F
  8
1
  6
CONTINUOUS
 62
     7
 10
267.2480529811253
 20
98.35000000000011
 30
0.0
 11
311.6480529811253
 21
98.35000000000011
 31
0.0
  0
ARC
  5
350
  8
1
  6
CONTINUOUS
 62
     7
 10
193.4999999999999
 20
17.15000000000003
 30
0.0
 40
1.801276552751918
 50
163.8841207182081
 51
196.1158792817919
  0
LINE
  5
351
  8
1
  6
CONTINUOUS
 62
     7
 10
193.9999999999999
 20
18.44999999999999
 30
0.0
 11
193.9999999999999
 21
19.343741096848
 31
0.0
  0
ARC
  5
352
  8
1
  6
CONTINUOUS
 62
     7
 10
202.4999999999999
 20
101.75
 30
0.0
 40
1.030668528585355
 50
330.0214543835139
 51
29.97854561648619
  0
LINE
  5
353
  8
1
  6
CONTINUOUS
 62
     7
 10
311.6480529811253
 20
12.75000000000012
 30
0.0
 11
273.2480529811253
 21
12.75000000000012
 31
0.0
  0
ARC
  5
354
  8
1
  6
CONTINUOUS
 62
     7
 10
202.4999999999999
 20
101.75
 30
0.0
 40
1.030668528585355
 50
240.0214543835139
 51
299.9785456164861
  0
LINE
  5
355
  8
1
  6
CONTINUOUS
 62
     7
 10
201.9849999999999
 20
101.235
 30
0.0
 11
201.9849999999999
 21
99.55973175158842
 31
0.0
  0
LINE
  5
356
  8
1
  6
CONTINUOUS
 62
     7
 10
203.0149999999999
 20
18.765
 30
0.0
 11
204.6902682484115
 21
18.765
 31
0.0
  0
ARC
  5
357
  8
1
  6
CONTINUOUS
 62
     7
 10
202.4999999999999
 20
18.25000000000001
 30
0.0
 40
1.030668528585355
 50
150.0214543835139
 51
209.9785456164862
  0
LINE
  5
358
  8
1
  6
CONTINUOUS
 62
     7
 10
201.9849999999999
 20
17.73500000000003
 30
0.0
 11
200.3097317515883
 21
17.73500000000003
 31
0.0
  0
ARC
  5
359
  8
1
  6
CONTINUOUS
 62
     7
 10
193.4999999999999
 20
17.15000000000003
 30
0.0
 40
1.200223116976651
 50
153.686281051365
 51
206.3137189486361
  0
ARC
  5
35A
  8
1
  6
CONTINUOUS
 62
     7
 10
202.4999999999999
 20
101.75
 30
0.0
 40
1.030668528585355
 50
150.0214543835138
 51
209.9785456164862
  0
ARC
  5
35B
  8
1
  6
CONTINUOUS
 62
     7
 10
192.1999999999999
 20
18.44999999999999
 30
0.0
 40
0.7999999999999952
 50
270.0
 51
359.9999999999996
  0
LINE
  5
35C
  8
1
  6
CONTINUOUS
 62
     7
 10
190.7499999999999
 20
17.65000000000003
 30
0.0
 11
190.7499999999999
 21
16.65000000000003
 31
0.0
  0
LINE
  5
35D
  8
1
  6
CONTINUOUS
 62
     7
 10
192.9999999999999
 20
15.85
 30
0.0
 11
192.9999999999999
 21
14.956258903152
 31
0.0
  0
CIRCLE
  5
35E
  8
1
  6
CONTINUOUS
 62
     7
 10
202.4999999999999
 20
101.75
 30
0.0
 40
4.200000000000009
  0
LINE
  5
35F
  8
1
  6
CONTINUOUS
 62
     7
 10
203.0149999999999
 20
102.265
 30
0.0
 11
203.0149999999999
 21
103.9402682484116
 31
0.0
  0
ARC
  5
360
  8
1
  6
CONTINUOUS
 62
     7
 10
202.4999999999999
 20
101.75
 30
0.0
 40
2.250000000000002
 50
346.7683351757009
 51
13.23166482429929
  0
ARC
  5
361
  8
1
  6
CONTINUOUS
 62
     7
 10
202.4999999999999
 20
18.25000000000001
 30
0.0
 40
2.250000000000002
 50
346.7683351757007
 51
13.23166482429923
  0
LINE
  5
362
  8
1
  6
CONTINUOUS
 62
     7
 10
194.7999999999999
 20
16.65000000000003
 30
0.0
 11
196.2499999999999
 21
16.65000000000003
 31
0.0
  0
ARC
  5
363
  8
1
  6
CONTINUOUS
 62
     7
 10
202.4999999999999
 20
18.25000000000001
 30
0.0
 40
1.030668528585355
 50
60.02145438351387
 51
119.9785456164861
  0
ARC
  5
364
  8
1
  6
CONTINUOUS
 62
     7
 10
194.7999999999999
 20
15.85
 30
0.0
 40
0.7999999999999952
 50
90.0
 51
180.0
  0
LINE
  5
365
  8
1
  6
CONTINUOUS
 62
     7
 10
203.0149999999999
 20
101.235
 30
0.0
 11
204.6902682484115
 21
101.235
 31
0.0
  0
ARC
  5
366
  8
1
  6
CONTINUOUS
 62
     7
 10
193.4999999999999
 20
17.15000000000003
 30
0.0
 40
2.250000000000002
 50
257.1604115930959
 51
282.8395884069041
  0
ARC
  5
367
  8
1
  6
CONTINUOUS
 62
     7
 10
193.4999999999999
 20
17.15000000000003
 30
0.0
 40
1.200223116976651
 50
243.686281051365
 51
296.3137189486361
  0
LINE
  5
368
  8
1
  6
CONTINUOUS
 62
     7
 10
177.7813835338625
 20
33.0
 30
0.0
 11
176.9999999999999
 21
33.0
 31
0.0
  0
LINE
  5
369
  8
1
  6
CONTINUOUS
 62
     7
 10
210.1999999999999
 20
103.35
 30
0.0
 11
208.7499999999999
 21
103.35
 31
0.0
  0
LINE
  5
36A
  8
1
  6
CONTINUOUS
 62
     7
 10
227.9999999999999
 20
33.0
 30
0.0
 11
227.2186164661373
 21
33.0
 31
0.0
  0
LINE
  5
36B
  8
1
  6
CONTINUOUS
 62
     7
 10
231.4999999999999
 20
39.50000000000001
 30
0.0
 11
232.4999999999999
 21
39.50000000000001
 31
0.0
  0
LINE
  5
36C
  8
1
  6
CONTINUOUS
 62
     7
 10
229.4999999999999
 20
65.00000000000011
 30
0.0
 11
227.3999999999999
 21
65.00000000000011
 31
0.0
  0
ARC
  5
36D
  8
1
  6
CONTINUOUS
 62
     7
 10
231.4999999999999
 20
37.50000000000001
 30
0.0
 40
1.000000000000001
 50
180.0
 51
270.0000000000007
  0
LINE
  5
36E
  8
1
  6
CONTINUOUS
 62
     7
 10
232.4999999999999
 20
36.50000000000001
 30
0.0
 11
231.4999999999999
 21
36.50000000000001
 31
0.0
  0
LINE
  5
36F
  8
1
  6
CONTINUOUS
 62
     7
 10
227.9999999999999
 20
27.12588032535063
 30
0.0
 11
227.9999999999999
 21
33.0
 31
0.0
  0
LINE
  5
370
  8
1
  6
CONTINUOUS
 62
     7
 10
227.9999999999999
 20
27.12588032535063
 30
0.0
 11
227.9999999999999
 21
24.00000000000002
 31
0.0
  0
ARC
  5
371
  8
1
  6
CONTINUOUS
 62
     7
 10
202.4999999999999
 20
36.0
 30
0.0
 40
27.0
 50
180.0
 51
199.188136453721
  0
ARC
  5
372
  8
1
  6
CONTINUOUS
 62
     7
 10
202.4999999999999
 20
84.0
 30
0.0
 40
24.90000000000001
 50
0.000000000000016
 51
6.919916803030417
  0
ARC
  5
373
  8
1
  6
CONTINUOUS
 62
     7
 10
212.7999999999999
 20
104.15
 30
0.0
 40
0.7999999999999952
 50
180.0
 51
269.9999999999995
  0
ARC
  5
374
  8
1
  6
CONTINUOUS
 62
     7
 10
211.4999999999999
 20
102.85
 30
0.0
 40
1.801276552751918
 50
163.8841207182081
 51
196.1158792817919
  0
ARC
  5
375
  8
1
  6
CONTINUOUS
 62
     7
 10
211.4999999999999
 20
102.85
 30
0.0
 40
2.250000000000002
 50
77.16041159309587
 51
102.8395884069042
  0
LINE
  5
376
  8
1
  6
CONTINUOUS
 62
     7
 10
177.5999999999999
 20
84.0
 30
0.0
 11
177.5999999999998
 21
65.00000000000011
 31
0.0
  0
ARC
  5
377
  8
1
  6
CONTINUOUS
 62
     7
 10
210.1999999999999
 20
101.55
 30
0.0
 40
0.7999999999999952
 50
0.0
 51
89.99999999999949
  0
LINE
  5
378
  8
1
  6
CONTINUOUS
 62
     7
 10
176.9999999999999
 20
87.0
 30
0.0
 11
177.7813835338625
 21
87.0
 31
0.0
  0
ARC
  5
379
  8
1
  6
CONTINUOUS
 62
     7
 10
210.1999999999999
 20
104.15
 30
0.0
 40
0.7999999999999952
 50
270.0
 51
0.0
  0
LINE
  5
37A
  8
1
  6
CONTINUOUS
 62
     7
 10
227.3999999999999
 20
65.00000000000011
 30
0.0
 11
227.3999999999999
 21
84.0
 31
0.0
  0
ARC
  5
37B
  8
1
  6
CONTINUOUS
 62
     7
 10
212.7999999999999
 20
101.55
 30
0.0
 40
0.7999999999999952
 50
90.0
 51
179.9999999999995
  0
ARC
  5
37C
  8
1
  6
CONTINUOUS
 62
     7
 10
230.4999999999999
 20
26.0
 30
0.0
 40
2.000000000000002
 50
269.9999999999999
 51
0.0
  0
ARC
  5
37D
  8
1
  6
CONTINUOUS
 62
     7
 10
211.4999999999999
 20
102.85
 30
0.0
 40
1.200223116976651
 50
63.68628105136501
 51
116.3137189486361
  0
ARC
  5
37E
  8
1
  6
CONTINUOUS
 62
     7
 10
202.4999999999999
 20
36.0
 30
0.0
 40
27.0
 50
340.811863546279
 51
0.0
  0
LINE
  5
37F
  8
1
  6
CONTINUOUS
 62
     7
 10
227.9999999999999
 20
24.00000000000002
 30
0.0
 11
230.4999999999999
 21
24.00000000000002
 31
0.0
  0
LINE
  5
380
  8
1
  6
CONTINUOUS
 62
     7
 10
212.7999999999999
 20
102.35
 30
0.0
 11
214.2499999999999
 21
102.35
 31
0.0
  0
LINE
  5
381
  8
1
  6
CONTINUOUS
 62
     7
 10
211.9999999999999
 20
100.656258903152
 30
0.0
 11
211.9999999999999
 21
101.55
 31
0.0
  0
LINE
  5
382
  8
1
  6
CONTINUOUS
 62
     7
 10
214.2499999999999
 20
102.35
 30
0.0
 11
214.2499999999999
 21
103.35
 31
0.0
  0
LINE
  5
383
  8
1
  6
CONTINUOUS
 62
     7
 10
232.4999999999999
 20
39.50000000000001
 30
0.0
 11
232.4999999999999
 21
54.00000000000002
 31
0.0
  0
LINE
  5
384
  8
1
  6
CONTINUOUS
 62
     7
 10
176.9999999999999
 20
33.0
 30
0.0
 11
176.9999999999999
 21
27.12588032535063
 31
0.0
  0
ARC
  5
385
  8
1
  6
CONTINUOUS
 62
     7
 10
211.4999999999999
 20
102.85
 30
0.0
 40
1.200223116976651
 50
153.686281051365
 51
206.313718948636
  0
LINE
  5
386
  8
1
  6
CONTINUOUS
 62
     7
 10
175.4999999999999
 20
55.00000000000002
 30
0.0
 11
177.5999999999999
 21
55.00000000000002
 31
0.0
  0
ARC
  5
387
  8
1
  6
CONTINUOUS
 62
     7
 10
202.4999999999999
 20
36.0
 30
0.0
 40
24.90000000000001
 50
180.0
 51
186.9199168030304
  0
LINE
  5
388
  8
1
  6
CONTINUOUS
 62
     7
 10
232.4999999999999
 20
26.0
 30
0.0
 11
232.4999999999999
 21
36.50000000000001
 31
0.0
  0
ARC
  5
389
  8
1
  6
CONTINUOUS
 62
     7
 10
231.4999999999999
 20
53.99999999999988
 30
0.0
 40
1.000000000000001
 50
0.0000000000003976
 51
90.0
  0
LINE
  5
38A
  8
1
  6
CONTINUOUS
 62
     7
 10
229.4999999999999
 20
84.0
 30
0.0
 11
229.4999999999999
 21
65.00000000000011
 31
0.0
  0
LINE
  5
38B
  8
1
  6
CONTINUOUS
 62
     7
 10
177.5999999999998
 20
55.00000000000002
 30
0.0
 11
177.5999999999999
 21
36.0
 31
0.0
  0
ARC
  5
38C
  8
1
  6
CONTINUOUS
 62
     7
 10
211.4999999999999
 20
102.85
 30
0.0
 40
1.801276552751918
 50
343.8841207182081
 51
16.11587928179188
  0
LINE
  5
38D
  8
1
  6
CONTINUOUS
 62
     7
 10
176.9999999999999
 20
92.8741196746494
 30
0.0
 11
176.9999999999999
 21
87.0
 31
0.0
  0
LINE
  5
38E
  8
1
  6
CONTINUOUS
 62
     7
 10
175.4999999999999
 20
65.00000000000011
 30
0.0
 11
175.4999999999999
 21
84.0
 31
0.0
  0
LINE
  5
38F
  8
1
  6
CONTINUOUS
 62
     7
 10
175.4999999999999
 20
36.0
 30
0.0
 11
175.4999999999999
 21
55.00000000000002
 31
0.0
  0
ARC
  5
390
  8
1
  6
CONTINUOUS
 62
     7
 10
211.4999999999999
 20
102.85
 30
0.0
 40
1.200223116976651
 50
333.6862810513651
 51
26.31371894863605
  0
ARC
  5
391
  8
1
  6
CONTINUOUS
 62
     7
 10
202.4999999999999
 20
84.0
 30
0.0
 40
27.0
 50
160.811863546279
 51
180.0
  0
ARC
  5
392
  8
1
  6
CONTINUOUS
 62
     7
 10
202.4999999999999
 20
36.0
 30
0.0
 40
24.90000000000001
 50
353.0800831969696
 51
0.0
  0
LINE
  5
393
  8
1
  6
CONTINUOUS
 62
     7
 10
227.3999999999999
 20
55.00000000000002
 30
0.0
 11
229.4999999999999
 21
55.00000000000002
 31
0.0
  0
ARC
  5
394
  8
1
  6
CONTINUOUS
 62
     7
 10
231.4999999999999
 20
38.50000000000001
 30
0.0
 40
1.000000000000001
 50
90.00000000000021
 51
180.0000000000006
  0
LINE
  5
395
  8
1
  6
CONTINUOUS
 62
     7
 10
230.4999999999999
 20
37.50000000000001
 30
0.0
 11
230.4999999999999
 21
38.49999999999989
 31
0.0
  0
ARC
  5
396
  8
1
  6
CONTINUOUS
 62
     7
 10
211.4999999999999
 20
102.85
 30
0.0
 40
2.250000000000002
 50
257.1604115930959
 51
282.8395884069041
  0
LINE
  5
397
  8
1
  6
CONTINUOUS
 62
     7
 10
231.4999999999999
 20
55.00000000000002
 30
0.0
 11
229.4999999999999
 21
55.00000000000002
 31
0.0
  0
LINE
  5
398
  8
1
  6
CONTINUOUS
 62
     7
 10
208.7499999999999
 20
103.35
 30
0.0
 11
208.7499999999999
 21
102.35
 31
0.0
  0
LINE
  5
399
  8
1
  6
CONTINUOUS
 62
     7
 10
229.4999999999999
 20
55.00000000000002
 30
0.0
 11
229.4999999999999
 21
36.0
 31
0.0
  0
ARC
  5
39A
  8
1
  6
CONTINUOUS
 62
     7
 10
211.4999999999999
 20
102.85
 30
0.0
 40
1.200223116976651
 50
243.686281051365
 51
296.3137189486361
  0
LINE
  5
39B
  8
1
  6
CONTINUOUS
 62
     7
 10
227.3999999999999
 20
36.0
 30
0.0
 11
227.4
 21
55.00000000000002
 31
0.0
  0
ARC
  5
39C
  8
1
  6
CONTINUOUS
 62
     7
 10
202.4999999999999
 20
84.0
 30
0.0
 40
24.90000000000001
 50
173.0800831969696
 51
180.0
  0
LINE
  5
39D
  8
1
  6
CONTINUOUS
 62
     7
 10
214.2499999999999
 20
103.35
 30
0.0
 11
212.7999999999999
 21
103.35
 31
0.0
  0
LINE
  5
39E
  8
1
  6
CONTINUOUS
 62
     7
 10
227.2186164661373
 20
87.0
 30
0.0
 11
227.9999999999999
 21
87.0
 31
0.0
  0
CIRCLE
  5
39F
  8
1
  6
CONTINUOUS
 62
     7
 10
211.4999999999999
 20
102.85
 30
0.0
 40
1.021236244656248
  0
ARC
  5
3A0
  8
1
  6
CONTINUOUS
 62
     7
 10
202.4999999999999
 20
84.0
 30
0.0
 40
27.0
 50
0.0000000000000568
 51
19.18813645372097
  0
CIRCLE
  5
3A1
  8
1
  6
CONTINUOUS
 62
     7
 10
211.4999999999999
 20
102.85
 30
0.0
 40
4.000000000000004
  0
LINE
  5
3A2
  8
1
  6
CONTINUOUS
 62
     7
 10
227.9999999999999
 20
87.0
 30
0.0
 11
227.9999999999999
 21
92.8741196746494
 31
0.0
  0
LINE
  5
3A3
  8
1
  6
CONTINUOUS
 62
     7
 10
211.9999999999999
 20
104.15
 30
0.0
 11
211.9999999999999
 21
105.0437410968481
 31
0.0
  0
LINE
  5
3A4
  8
1
  6
CONTINUOUS
 62
     7
 10
210.9999999999999
 20
101.55
 30
0.0
 11
210.9999999999999
 21
100.656258903152
 31
0.0
  0
LINE
  5
3A5
  8
1
  6
CONTINUOUS
 62
     7
 10
210.9999999999999
 20
105.0437410968481
 30
0.0
 11
210.9999999999999
 21
104.15
 31
0.0
  0
LINE
  5
3A6
  8
1
  6
CONTINUOUS
 62
     7
 10
177.5999999999999
 20
65.00000000000011
 30
0.0
 11
175.4999999999999
 21
65.00000000000011
 31
0.0
  0
LINE
  5
3A7
  8
1
  6
CONTINUOUS
 62
     7
 10
208.7499999999999
 20
102.35
 30
0.0
 11
210.1999999999999
 21
102.35
 31
0.0
  0
LINE
  5
3A8
  8
1
  6
CONTINUOUS
 62
     7
 10
232.4999999999999
 20
83.5000000000001
 30
0.0
 11
231.4999999999999
 21
83.5000000000001
 31
0.0
  0
ARC
  5
3A9
  8
1
  6
CONTINUOUS
 62
     7
 10
174.4999999999999
 20
26.0
 30
0.0
 40
2.000000000000002
 50
180.0
 51
270.0000000000001
  0
LINE
  5
3AA
  8
1
  6
CONTINUOUS
 62
     7
 10
175.9999999999999
 20
55.19999999999992
 30
0.0
 11
175.9999999999999
 21
55.00000000000002
 31
0.0
  0
LINE
  5
3AB
  8
1
  6
CONTINUOUS
 62
     7
 10
172.4999999999999
 20
94.00000000000001
 30
0.0
 11
172.4999999999999
 21
83.5000000000001
 31
0.0
  0
LINE
  5
3AC
  8
1
  6
CONTINUOUS
 62
     7
 10
227.3999999999999
 20
65.00000000000011
 30
0.0
 11
227.3999999999999
 21
64.79999999999991
 31
0.0
  0
LINE
  5
3AD
  8
1
  6
CONTINUOUS
 62
     7
 10
173.4999999999999
 20
39.50000000000001
 30
0.0
 11
172.4999999999999
 21
39.50000000000001
 31
0.0
  0
ARC
  5
3AE
  8
1
  6
CONTINUOUS
 62
     7
 10
174.4999999999999
 20
94.00000000000001
 30
0.0
 40
2.000000000000002
 50
89.9999999999999
 51
180.0
  0
ARC
  5
3AF
  8
1
  6
CONTINUOUS
 62
     7
 10
173.4999999999999
 20
82.50000000000011
 30
0.0
 40
1.000000000000001
 50
0.0
 51
90.0000000000008
  0
LINE
  5
3B0
  8
1
  6
CONTINUOUS
 62
     7
 10
172.4999999999999
 20
39.50000000000001
 30
0.0
 11
172.4999999999998
 21
54.00000000000002
 31
0.0
  0
LINE
  5
3B1
  8
1
  6
CONTINUOUS
 62
     7
 10
226.2436307248911
 20
91.50000000000001
 30
0.0
 11
227.9165300542775
 21
91.50000000000001
 31
0.0
  0
LINE
  5
3B2
  8
1
  6
CONTINUOUS
 62
     7
 10
226.6909073827336
 20
89.9
 30
0.0
 11
226.2436307248911
 21
91.50000000000001
 31
0.0
  0
LINE
  5
3B3
  8
1
  6
CONTINUOUS
 62
     7
 10
227.9999999999999
 20
89.9
 30
0.0
 11
226.6909073827336
 21
89.9
 31
0.0
  0
ARC
  5
3B4
  8
1
  6
CONTINUOUS
 62
     7
 10
231.4999999999999
 20
81.50000000000011
 30
0.0
 40
1.000000000000001
 50
179.9999999999994
 51
269.9999999999998
  0
LINE
  5
3B5
  8
1
  6
CONTINUOUS
 62
     7
 10
176.9999999999999
 20
24.00000000000002
 30
0.0
 11
174.4999999999999
 21
24.00000000000002
 31
0.0
  0
LINE
  5
3B6
  8
1
  6
CONTINUOUS
 62
     7
 10
228.9999999999999
 20
64.79999999999991
 30
0.0
 11
228.9999999999999
 21
65.00000000000011
 31
0.0
  0
LINE
  5
3B7
  8
1
  6
CONTINUOUS
 62
     7
 10
226.2436307248911
 20
28.5
 30
0.0
 11
226.6909073827336
 21
30.10000000000002
 31
0.0
  0
LINE
  5
3B8
  8
1
  6
CONTINUOUS
 62
     7
 10
177.5999999999998
 20
64.79999999999991
 30
0.0
 11
177.5999999999998
 21
65.00000000000011
 31
0.0
  0
LINE
  5
3B9
  8
1
  6
CONTINUOUS
 62
     7
 10
230.4999999999999
 20
82.50000000000011
 30
0.0
 11
230.4999999999999
 21
81.50000000000011
 31
0.0
  0
LINE
  5
3BA
  8
1
  6
CONTINUOUS
 62
     7
 10
172.4999999999999
 20
83.5000000000001
 30
0.0
 11
173.4999999999998
 21
83.5000000000001
 31
0.0
  0
ARC
  5
3BB
  8
1
  6
CONTINUOUS
 62
     7
 10
173.4999999999999
 20
53.99999999999988
 30
0.0
 40
1.000000000000001
 50
90.0
 51
179.9999999999995
  0
LINE
  5
3BC
  8
1
  6
CONTINUOUS
 62
     7
 10
175.9999999999999
 20
65.00000000000011
 30
0.0
 11
175.9999999999999
 21
64.79999999999991
 31
0.0
  0
LINE
  5
3BD
  8
1
  6
CONTINUOUS
 62
     7
 10
173.4999999999999
 20
65.00000000000011
 30
0.0
 11
175.4999999999999
 21
65.00000000000011
 31
0.0
  0
LINE
  5
3BE
  8
1
  6
CONTINUOUS
 62
     7
 10
176.9999999999999
 20
30.10000000000002
 30
0.0
 11
178.3090926172662
 21
30.10000000000002
 31
0.0
  0
LINE
  5
3BF
  8
1
  6
CONTINUOUS
 62
     7
 10
227.3999999999999
 20
55.19999999999992
 30
0.0
 11
227.3999999999999
 21
55.00000000000002
 31
0.0
  0
LINE
  5
3C0
  8
1
  6
CONTINUOUS
 62
     7
 10
178.7563692751086
 20
28.5
 30
0.0
 11
177.0834699457222
 21
28.5
 31
0.0
  0
LINE
  5
3C1
  8
1
  6
CONTINUOUS
 62
     7
 10
232.4999999999999
 20
80.50000000000011
 30
0.0
 11
232.4999999999999
 21
66.00000000000011
 31
0.0
  0
LINE
  5
3C2
  8
1
  6
CONTINUOUS
 62
     7
 10
172.4999999999999
 20
80.50000000000011
 30
0.0
 11
172.4999999999998
 21
66.00000000000011
 31
0.0
  0
LINE
  5
3C3
  8
1
  6
CONTINUOUS
 62
     7
 10
176.9999999999999
 20
92.8741196746494
 30
0.0
 11
176.9999999999999
 21
96.0
 31
0.0
  0
LINE
  5
3C4
  8
1
  6
CONTINUOUS
 62
     7
 10
178.3090926172662
 20
30.10000000000002
 30
0.0
 11
178.7563692751086
 21
28.5
 31
0.0
  0
LINE
  5
3C5
  8
1
  6
CONTINUOUS
 62
     7
 10
176.9999999999999
 20
96.0
 30
0.0
 11
174.4999999999999
 21
96.0
 31
0.0
  0
LINE
  5
3C6
  8
1
  6
CONTINUOUS
 62
     7
 10
178.3090926172662
 20
89.9
 30
0.0
 11
176.9999999999999
 21
89.9
 31
0.0
  0
ARC
  5
3C7
  8
1
  6
CONTINUOUS
 62
     7
 10
230.4999999999999
 20
94.00000000000001
 30
0.0
 40
2.000000000000002
 50
0.0
 51
90.00000000000011
  0
LINE
  5
3C8
  8
1
  6
CONTINUOUS
 62
     7
 10
227.9165300542775
 20
28.5
 30
0.0
 11
226.2436307248911
 21
28.5
 31
0.0
  0
LINE
  5
3C9
  8
1
  6
CONTINUOUS
 62
     7
 10
173.4999999999999
 20
55.00000000000002
 30
0.0
 11
175.4999999999999
 21
55.00000000000002
 31
0.0
  0
LINE
  5
3CA
  8
1
  6
CONTINUOUS
 62
     7
 10
228.9999999999999
 20
55.00000000000002
 30
0.0
 11
228.9999999999999
 21
55.19999999999992
 31
0.0
  0
LINE
  5
3CB
  8
1
  6
CONTINUOUS
 62
     7
 10
311.6480529811253
 20
107.2500000000001
 30
0.0
 11
311.6480529811253
 21
98.35000000000011
 31
0.0
  0
LINE
  5
3CC
  8
1
  6
CONTINUOUS
 62
     7
 10
261.0480529811253
 20
80.50000000000021
 30
0.0
 11
261.0480529811253
 21
66.0000000000002
 31
0.0
  0
LINE
  5
3CD
  8
1
  6
CONTINUOUS
 62
     7
 10
261.0480529811253
 20
26.00000000000014
 30
0.0
 11
261.0480529811253
 21
36.50000000000011
 31
0.0
  0
LINE
  5
3CE
  8
1
  6
CONTINUOUS
 62
     7
 10
261.0480529811253
 20
54.00000000000013
 30
0.0
 11
261.0480529811253
 21
55.00000000000013
 31
0.0
  0
LINE
  5
3CF
  8
1
  6
CONTINUOUS
 62
     7
 10
262.6480529811253
 20
65.0000000000002
 30
0.0
 11
261.0480529811253
 21
65.0000000000002
 31
0.0
  0
LINE
  5
3D0
  8
1
  6
CONTINUOUS
 62
     7
 10
261.0480529811253
 20
66.0000000000002
 30
0.0
 11
261.0480529811253
 21
65.0000000000002
 31
0.0
  0
LINE
  5
3D1
  8
1
  6
CONTINUOUS
 62
     7
 10
261.0480529811253
 20
96.00000000000011
 30
0.0
 11
261.0480529811253
 21
94.00000000000011
 31
0.0
  0
LINE
  5
3D2
  8
1
  6
CONTINUOUS
 62
     7
 10
261.0480529811253
 20
37.50000000000011
 30
0.0
 11
261.0480529811253
 21
36.50000000000011
 31
0.0
  0
LINE
  5
3D3
  8
1
  6
CONTINUOUS
 62
     7
 10
263.1480529811253
 20
33.00000000000011
 30
0.0
 11
262.697977798138
 21
33.00000000000011
 31
0.0
  0
LINE
  5
3D4
  8
1
  6
CONTINUOUS
 62
     7
 10
261.0480529811253
 20
80.50000000000021
 30
0.0
 11
261.0480529811253
 21
81.50000000000021
 31
0.0
  0
LINE
  5
3D5
  8
1
  6
CONTINUOUS
 62
     7
 10
263.1480529811253
 20
55.00000000000013
 30
0.0
 11
262.6980529811253
 21
55.00000000000013
 31
0.0
  0
LINE
  5
3D6
  8
1
  6
CONTINUOUS
 62
     7
 10
263.1480529811253
 20
36.00000000000011
 30
0.0
 11
263.1480529811253
 21
33.00000000000011
 31
0.0
  0
LINE
  5
3D7
  8
1
  6
CONTINUOUS
 62
     7
 10
261.0480529811253
 20
24.00000000000013
 30
0.0
 11
261.0480529811253
 21
26.00000000000014
 31
0.0
  0
LINE
  5
3D8
  8
1
  6
CONTINUOUS
 62
     7
 10
261.0480529811253
 20
82.50000000000021
 30
0.0
 11
261.0480529811253
 21
83.50000000000021
 31
0.0
  0
LINE
  5
3D9
  8
1
  6
CONTINUOUS
 62
     7
 10
261.0480529811253
 20
39.50000000000012
 30
0.0
 11
261.0480529811253
 21
38.50000000000011
 31
0.0
  0
LINE
  5
3DA
  8
1
  6
CONTINUOUS
 62
     7
 10
261.0480529811253
 20
37.50000000000011
 30
0.0
 11
261.0480529811253
 21
38.50000000000011
 31
0.0
  0
LINE
  5
3DB
  8
1
  6
CONTINUOUS
 62
     7
 10
273.2480529811253
 20
107.2500000000001
 30
0.0
 11
266.2480529811253
 21
108.9500000000001
 31
0.0
  0
LINE
  5
3DC
  8
1
  6
CONTINUOUS
 62
     7
 10
266.2480529811253
 20
107.3708876084862
 30
0.0
 11
266.2480529811253
 21
108.0500000000001
 31
0.0
  0
ENDSEC
  0
EOF
