  0
SECTION
  2
HEADER
  9
$ACADVER
  1
AC1006
  9
$DWGCODEPAGE
  3
ansi_932
  9
$INSBASE
 10
0.0
 20
0.0
 30
0.0
  9
$EXTMIN
 10
509.9999999999999
 20
-442.9154326913001
  9
$EXTMAX
 10
684.4181933245286
 20
-128.0
  9
$LIMMIN
 10
0.0
 20
0.0
  9
$LIMMAX
 10
12.0
 20
9.0
  9
$ORTHOMODE
 70
     0
  9
$REGENMODE
 70
     1
  9
$FILLMODE
 70
     1
  9
$QTEXTMODE
 70
     0
  9
$MIRRTEXT
 70
     1
  9
$DRAGMODE
 70
     2
  9
$LTSCALE
 40
1.0
  9
$OSMODE
 70
    37
  9
$ATTMODE
 70
     1
  9
$TEXTSIZE
 40
0.2
  9
$TRACEWID
 40
0.05
  9
$TEXTSTYLE
  7
STANDARD
  9
$CLAYER
  8
0
  9
$CELTYPE
  6
BYLAYER
  9
$CECOLOR
 62
   256
  9
$DIMSCALE
 40
1.0
  9
$DIMASZ
 40
3.0
  9
$DIMEXO
 40
0.0625
  9
$DIMDLI
 40
0.38
  9
$DIMRND
 40
0.0
  9
$DIMDLE
 40
0.0
  9
$DIMEXE
 40
1.5
  9
$DIMTP
 40
0.0
  9
$DIMTM
 40
0.0
  9
$DIMTXT
 40
3.0
  9
$DIMCEN
 40
0.09
  9
$DIMTSZ
 40
0.0
  9
$DIMTOL
 70
     0
  9
$DIMLIM
 70
     0
  9
$DIMTIH
 70
     1
  9
$DIMTOH
 70
     1
  9
$DIMSE1
 70
     0
  9
$DIMSE2
 70
     0
  9
$DIMTAD
 70
     1
  9
$DIMZIN
 70
     0
  9
$DIMBLK
  1

  9
$DIMASO
 70
     1
  9
$DIMSHO
 70
     1
  9
$DIMPOST
  1

  9
$DIMAPOST
  1

  9
$DIMALT
 70
     0
  9
$DIMALTD
 70
     2
  9
$DIMALTF
 40
25.4
  9
$DIMLFAC
 40
1.0
  9
$DIMTOFL
 70
     0
  9
$DIMTVP
 40
0.0
  9
$DIMTIX
 70
     0
  9
$DIMSOXD
 70
     0
  9
$DIMSAH
 70
     0
  9
$DIMBLK1
  1

  9
$DIMBLK2
  1

  9
$LUNITS
 70
     2
  9
$LUPREC
 70
     4
  9
$SKETCHINC
 40
0.1
  9
$FILLETRAD
 40
0.5
  9
$AUNITS
 70
     0
  9
$AUPREC
 70
     0
  9
$MENU
  1
.
  9
$ELEVATION
 40
0.0
  9
$THICKNESS
 40
0.0
  9
$LIMCHECK
 70
     0
  9
$CHAMFERA
 40
0.0
  9
$CHAMFERB
 40
0.0
  9
$SKPOLY
 70
     0
  9
$TDCREATE
 40
2460613.805166736
  9
$TDUPDATE
 40
2460613.805167083
  9
$TDINDWG
 40
0.0000000116
  9
$TDUSRTIMER
 40
0.0000000116
  9
$USRTIMER
 70
     1
  9
$ANGBASE
 50
0.0
  9
$ANGDIR
 70
     0
  9
$PDMODE
 70
     0
  9
$PDSIZE
 40
0.0
  9
$PLINEWID
 40
0.0
  9
$COORDS
 70
     1
  9
$SPLFRAME
 70
     0
  9
$SPLINETYPE
 70
     6
  9
$SPLINESEGS
 70
     8
  9
$ATTDIA
 70
     0
  9
$ATTREQ
 70
     1
  9
$HANDLING
 70
     1
  9
$HANDSEED
  5
42A
  9
$SURFTAB1
 70
     6
  9
$SURFTAB2
 70
     6
  9
$SURFTYPE
 70
     6
  9
$SURFU
 70
     6
  9
$SURFV
 70
     6
  9
$UCSNAME
  2

  9
$UCSORG
 10
0.0
 20
0.0
 30
0.0
  9
$UCSXDIR
 10
1.0
 20
0.0
 30
0.0
  9
$UCSYDIR
 10
0.0
 20
1.0
 30
0.0
  9
$USERI1
 70
     0
  9
$USERI2
 70
     0
  9
$USERI3
 70
     0
  9
$USERI4
 70
     0
  9
$USERI5
 70
     0
  9
$USERR1
 40
0.0
  9
$USERR2
 40
0.0
  9
$USERR3
 40
0.0
  9
$USERR4
 40
0.0
  9
$USERR5
 40
0.0
  9
$WORLDVIEW
 70
     1
  0
ENDSEC
  0
SECTION
  2
TABLES
  0
TABLE
  2
VPORT
 70
     1
  0
VPORT
  2
*ACTIVE
 70
     0
 10
0.0
 20
0.0
 11
1.0
 21
1.0
 12
597.2090966622643
 22
-285.4577163456501
 13
0.0
 23
0.0
 14
0.5
 24
0.5
 15
0.5
 25
0.5
 16
0.0
 26
0.0
 36
1.0
 17
0.0
 27
0.0
 37
0.0
 40
314.9154326913001
 41
1.6
 42
50.0
 43
0.0
 44
0.0
 50
0.0
 51
0.0
 71
     0
 72
   100
 73
     1
 74
     3
 75
     0
 76
     0
 77
     0
 78
     0
  0
ENDTAB
  0
TABLE
  2
LTYPE
 70
     2
  0
LTYPE
  2
CONTINUOUS
 70
     0
  3
Solid line
 72
    65
 73
     0
 40
0.0
  0
LTYPE
  2
________________
 70
     0
  3

 72
    65
 73
     4
 40
6.0
 49
4.000000000000001
 49
-0.6666666666666665
 49
0.6666666666666665
 49
-0.6666666666666665
  0
ENDTAB
  0
TABLE
  2
LAYER
 70
     3
  0
LAYER
  2
0
 70
     0
 62
     7
  6
CONTINUOUS
  0
LAYER
  2
1
 70
     0
 62
     7
  6
CONTINUOUS
  0
LAYER
  2
2
 70
     0
 62
     7
  6
CONTINUOUS
  0
ENDTAB
  0
TABLE
  2
STYLE
 70
     2
  0
STYLE
  2
STANDARD
 70
     0
 40
0.0
 41
1.0
 50
0.0
 71
     0
 42
0.2
  3
txt
  4

  0
STYLE
  2
ＭＳ_ゴシック
 70
     0
 40
0.0
 41
1.0
 50
0.0
 71
     0
 42
0.2
  3
ＭＳ ゴシック.shx
  4

  0
ENDTAB
  0
TABLE
  2
VIEW
 70
     0
  0
ENDTAB
  0
TABLE
  2
UCS
 70
     0
  0
ENDTAB
  0
ENDSEC
  0
SECTION
  2
BLOCKS
  0
ENDSEC
  0
SECTION
  2
ENTITIES
  0
LINE
  5
71
  8
1
  6
CONTINUOUS
 62
     7
 10
645.4181933245284
 20
-179.0000000000001
 30
0.0
 11
643.8181933245285
 21
-179.0000000000001
 31
0.0
  0
LINE
  5
72
  8
1
  6
CONTINUOUS
 62
     7
 10
614.9932407889322
 20
-260.6068513040414
 30
0.0
 11
615.0065281815465
 21
-260.5909168504674
 31
0.0
  0
LINE
  5
73
  8
1
  6
CONTINUOUS
 62
     7
 10
643.8181933245286
 20
-162.5000000000001
 30
0.0
 11
643.8181933245286
 21
-163.5000000000001
 31
0.0
  0
LINE
  5
74
  8
1
  6
CONTINUOUS
 62
     7
 10
643.8181933245286
 20
-162.5000000000001
 30
0.0
 11
643.8181933245286
 21
-161.5000000000001
 31
0.0
  0
ARC
  5
75
  8
1
  6
CONTINUOUS
 62
     7
 10
597.0000000000002
 20
-142.15
 30
0.0
 40
4.099999999999993
 50
276.9682567413776
 51
96.9682567413784
  0
LINE
  5
76
  8
1
  6
CONTINUOUS
 62
     7
 10
514.8383606674763
 20
-260.4709522194912
 30
0.0
 11
514.8569686090212
 21
-260.4807040871881
 31
0.0
  0
LINE
  5
77
  8
1
  6
CONTINUOUS
 62
     7
 10
645.9181933245286
 20
-160.5
 30
0.0
 11
645.9181933245286
 21
-180.0000000000001
 31
0.0
  0
LINE
  5
78
  8
1
  6
CONTINUOUS
 62
     7
 10
684.4181933245286
 20
-223.3500000000001
 30
0.0
 11
684.4181933245286
 21
-232.25
 31
0.0
  0
LINE
  5
79
  8
1
  6
CONTINUOUS
 62
     7
 10
684.4181933245286
 20
-209.0470422433077
 30
0.0
 11
684.4181933245286
 21
-216.3364642676324
 31
0.0
  0
LINE
  5
7A
  8
1
  6
CONTINUOUS
 62
     7
 10
647.4181933245284
 20
-214.8999999999999
 30
0.0
 11
647.4181933245284
 21
-212.0000000000001
 31
0.0
  0
LINE
  5
7B
  8
1
  6
CONTINUOUS
 62
     7
 10
516.5
 20
-216.6000000000001
 30
0.0
 11
519.0000000000001
 21
-216.6000000000001
 31
0.0
  0
LINE
  5
7C
  8
1
  6
CONTINUOUS
 62
     7
 10
643.8181933245286
 20
-149.0
 30
0.0
 11
643.8181933245286
 21
-151.0
 31
0.0
  0
ARC
  5
7D
  8
1
  6
CONTINUOUS
 62
     7
 10
677.8181933245285
 20
-153.2499999999999
 30
0.0
 40
6.599999999999939
 50
0.0
 51
90.0
  0
ARC
  5
7E
  8
1
  6
CONTINUOUS
 62
     7
 10
649.018217324397
 20
-214.8999760001317
 30
0.0
 40
1.600024000048217
 50
180.0008594190868
 51
269.9991405809142
  0
LINE
  5
7F
  8
1
  6
CONTINUOUS
 62
     7
 10
649.0181933245287
 20
-153.5000000000001
 30
0.0
 11
653.9181933245286
 21
-153.5000000000001
 31
0.0
  0
LINE
  5
80
  8
1
  6
CONTINUOUS
 62
     7
 10
647.4181933245284
 20
-145.65
 30
0.0
 11
647.4181933245284
 21
-146.7845235059859
 31
0.0
  0
LINE
  5
81
  8
1
  6
CONTINUOUS
 62
     7
 10
515.1041923929258
 20
-260.8104489859096
 30
0.0
 11
515.1077666922009
 21
-260.8280800189636
 31
0.0
  0
LINE
  5
82
  8
1
  6
CONTINUOUS
 62
     7
 10
647.4181933245284
 20
-158.0
 30
0.0
 11
647.4181933245284
 21
-155.1000000000001
 31
0.0
  0
LINE
  5
83
  8
1
  6
CONTINUOUS
 62
     7
 10
649.0181933245287
 20
-233.95
 30
0.0
 11
656.0181933245286
 21
-232.25
 31
0.0
  0
LINE
  5
84
  8
1
  6
CONTINUOUS
 62
     7
 10
645.4681933245286
 20
-180.0000000000001
 30
0.0
 11
645.9181933245286
 21
-180.0000000000001
 31
0.0
  0
ARC
  5
85
  8
1
  6
CONTINUOUS
 62
     7
 10
649.0182138608998
 20
-155.1000205363713
 30
0.0
 40
1.600020536502988
 50
90.0007353951822
 51
179.9992646048158
  0
LINE
  5
86
  8
1
  6
CONTINUOUS
 62
     7
 10
517.9999999999999
 20
-242.0
 30
0.0
 11
611.9999999999998
 21
-242.0
 31
0.0
  0
ARC
  5
87
  8
1
  6
CONTINUOUS
 62
     7
 10
677.8181933245286
 20
-216.7500000000003
 30
0.0
 40
6.599999999999717
 50
269.999999999999
 51
0.0000000000014779
  0
LINE
  5
88
  8
1
  6
CONTINUOUS
 62
     7
 10
653.9181933245285
 20
-219.0955882352941
 30
0.0
 11
653.9181933245285
 21
-216.4999999999999
 31
0.0
  0
LINE
  5
89
  8
1
  6
CONTINUOUS
 62
     7
 10
614.0768096208106
 20
-264.0181933245285
 30
0.0
 11
614.0768096208106
 21
-268.9181933245285
 31
0.0
  0
LINE
  5
8A
  8
1
  6
CONTINUOUS
 62
     7
 10
613.3256918278074
 20
-260.4681736411745
 30
0.0
 11
613.2766690843553
 21
-260.9181933245285
 31
0.0
  0
LINE
  5
8B
  8
1
  6
CONTINUOUS
 62
     7
 10
611.0000000000002
 20
-153.4
 30
0.0
 11
565.0
 21
-153.4
 31
0.0
  0
LINE
  5
8C
  8
1
  6
CONTINUOUS
 62
     7
 10
684.4181933245286
 20
-137.7500000000001
 30
0.0
 11
684.4181933245286
 21
-146.65
 31
0.0
  0
ARC
  5
8D
  8
1
  6
CONTINUOUS
 62
     7
 10
650.0181933245286
 20
-224.3500000000001
 30
0.0
 40
1.000000000000112
 50
90.0000000000003
 51
180.0
  0
LINE
  5
8E
  8
1
  6
CONTINUOUS
 62
     7
 10
612.6525124682846
 20
-262.5876779940537
 30
0.0
 11
612.7137232846809
 21
-262.4870946208265
 31
0.0
  0
LINE
  5
8F
  8
1
  6
CONTINUOUS
 62
     7
 10
645.9181933245286
 20
-189.9999999999999
 30
0.0
 11
645.9181933245286
 21
-209.5000000000001
 31
0.0
  0
LINE
  5
90
  8
1
  6
CONTINUOUS
 62
     7
 10
647.4181933245284
 20
-231.2485631709316
 30
0.0
 11
647.4181933245284
 21
-224.35
 31
0.0
  0
LINE
  5
91
  8
1
  6
CONTINUOUS
 62
     7
 10
645.4181933245284
 20
-190.9999999999999
 30
0.0
 11
643.8181933245285
 21
-190.9999999999999
 31
0.0
  0
LINE
  5
92
  8
1
  6
CONTINUOUS
 62
     7
 10
647.4181933245284
 20
-223.2154764940143
 30
0.0
 11
647.4181933245284
 21
-224.3500000000001
 31
0.0
  0
LINE
  5
93
  8
1
  6
CONTINUOUS
 62
     7
 10
643.8181933245286
 20
-221.0000000000001
 30
0.0
 11
643.8181933245286
 21
-219.0000000000001
 31
0.0
  0
LINE
  5
94
  8
1
  6
CONTINUOUS
 62
     7
 10
647.4181933245284
 20
-234.0
 30
0.0
 11
647.4181933245284
 21
-231.2485631709316
 31
0.0
  0
LINE
  5
95
  8
1
  6
CONTINUOUS
 62
     7
 10
614.8857362888969
 20
-260.8768072369524
 30
0.0
 11
614.8878871912011
 21
-260.8561946619083
 31
0.0
  0
LINE
  5
96
  8
1
  6
CONTINUOUS
 62
     7
 10
614.9802985072243
 20
-260.6237750770122
 30
0.0
 11
614.9932407889322
 21
-260.6068513040414
 31
0.0
  0
LINE
  5
97
  8
1
  6
CONTINUOUS
 62
     7
 10
615.020476364774
 20
-260.5755334022398
 30
0.0
 11
615.0350483439653
 21
-260.5607394458428
 31
0.0
  0
LINE
  5
98
  8
1
  6
CONTINUOUS
 62
     7
 10
515.1107032230574
 20
-260.8458343727089
 30
0.0
 11
515.1129961442693
 21
-260.8636773350326
 31
0.0
  0
LINE
  5
99
  8
1
  6
CONTINUOUS
 62
     7
 10
684.4181933245286
 20
-202.1124796407128
 30
0.0
 11
684.4181933245286
 21
-209.0470422433077
 31
0.0
  0
LINE
  5
9A
  8
1
  6
CONTINUOUS
 62
     7
 10
684.4181933245286
 20
-216.3364642676324
 30
0.0
 11
684.4181933245285
 21
-216.7500000000001
 31
0.0
  0
LINE
  5
9B
  8
1
  6
CONTINUOUS
 62
     7
 10
643.8181933245286
 20
-164.5000000000001
 30
0.0
 11
643.8181933245286
 21
-179.0000000000001
 31
0.0
  0
LINE
  5
9C
  8
1
  6
CONTINUOUS
 62
     7
 10
515.5618368230945
 20
-262.4201804299923
 30
0.0
 11
515.5455107779417
 21
-262.4181933245285
 31
0.0
  0
LINE
  5
9D
  8
1
  6
CONTINUOUS
 62
     7
 10
643.8181933245286
 20
-219.0000000000001
 30
0.0
 11
643.8181933245286
 21
-208.4999999999999
 31
0.0
  0
LINE
  5
9E
  8
1
  6
CONTINUOUS
 62
     7
 10
645.4681933245286
 20
-136.0000000000001
 30
0.0
 11
645.4181933245284
 21
-136.0000000000001
 31
0.0
  0
LINE
  5
9F
  8
1
  6
CONTINUOUS
 62
     7
 10
515.114657974575
 20
-260.8818067803645
 30
0.0
 11
515.1156565660941
 21
-260.8999909259481
 31
0.0
  0
LINE
  5
A0
  8
1
  6
CONTINUOUS
 62
     7
 10
647.4181933245284
 20
-180.5000000000002
 30
0.0
 11
647.4181933245284
 21
-189.4999999999999
 31
0.0
  0
LINE
  5
A1
  8
1
  6
CONTINUOUS
 62
     7
 10
645.9181933245285
 20
-209.5000000000001
 30
0.0
 11
645.9181933245285
 21
-212.0000000000001
 31
0.0
  0
LINE
  5
A2
  8
1
  6
CONTINUOUS
 62
     7
 10
645.4181933245284
 20
-189.9999999999999
 30
0.0
 11
643.8181933245285
 21
-189.9999999999999
 31
0.0
  0
LINE
  5
A3
  8
1
  6
CONTINUOUS
 62
     7
 10
649.0181933245287
 20
-136.0
 30
0.0
 11
647.4181933245285
 21
-136.0
 31
0.0
  0
LINE
  5
A4
  8
1
  6
CONTINUOUS
 62
     7
 10
645.9181933245286
 20
-189.9999999999999
 30
0.0
 11
646.9181933245286
 21
-189.9999999999999
 31
0.0
  0
LINE
  5
A5
  8
1
  6
CONTINUOUS
 62
     7
 10
649.0181933245287
 20
-234.0000000000001
 30
0.0
 11
649.0181933245287
 21
-231.2485631709318
 31
0.0
  0
LINE
  5
A6
  8
1
  6
CONTINUOUS
 62
     7
 10
612.0000000000001
 20
-128.0000000000001
 30
0.0
 11
518.0000000000001
 21
-128.0000000000001
 31
0.0
  0
LINE
  5
A7
  8
1
  6
CONTINUOUS
 62
     7
 10
588.4069042895992
 20
-139.0697573157644
 30
0.0
 11
596.5025903371426
 21
-138.0802845766203
 31
0.0
  0
LINE
  5
A8
  8
1
  6
CONTINUOUS
 62
     7
 10
614.4544892220581
 20
-262.4181933245285
 30
0.0
 11
614.3681469723996
 21
-262.470823974261
 31
0.0
  0
LINE
  5
A9
  8
1
  6
CONTINUOUS
 62
     7
 10
643.8181933245286
 20
-221.0000000000001
 30
0.0
 11
645.4181933245285
 21
-221.0000000000001
 31
0.0
  0
LINE
  5
AA
  8
1
  6
CONTINUOUS
 62
     7
 10
643.8181933245286
 20
-179.0000000000001
 30
0.0
 11
643.8181933245286
 21
-180.0000000000001
 31
0.0
  0
LINE
  5
AB
  8
1
  6
CONTINUOUS
 62
     7
 10
614.8997480621003
 20
-260.7940101284444
 30
0.0
 11
614.9055061456453
 21
-260.773473758462
 31
0.0
  0
LINE
  5
AC
  8
1
  6
CONTINUOUS
 62
     7
 10
645.4181933245284
 20
-180.0000000000001
 30
0.0
 11
643.8181933245285
 21
-180.0000000000001
 31
0.0
  0
LINE
  5
AD
  8
1
  6
CONTINUOUS
 62
     7
 10
649.0181933245287
 20
-216.4999999999999
 30
0.0
 11
653.9181933245286
 21
-216.4999999999999
 31
0.0
  0
LINE
  5
AE
  8
1
  6
CONTINUOUS
 62
     7
 10
645.9181933245286
 20
-158.0
 30
0.0
 11
647.4181933245284
 21
-158.0
 31
0.0
  0
LINE
  5
AF
  8
1
  6
CONTINUOUS
 62
     7
 10
647.4181933245284
 20
-212.0000000000001
 30
0.0
 11
645.9181933245286
 21
-212.0000000000001
 31
0.0
  0
LINE
  5
B0
  8
1
  6
CONTINUOUS
 62
     7
 10
643.8181933245286
 20
-149.0
 30
0.0
 11
645.4181933245285
 21
-149.0
 31
0.0
  0
LINE
  5
B1
  8
1
  6
CONTINUOUS
 62
     7
 10
515.1000000000001
 20
-180.2
 30
0.0
 11
518.5
 21
-180.2
 31
0.0
  0
LINE
  5
B2
  8
2
  6
CONTINUOUS
 62
     7
 10
540.8403515237003
 20
-396.3821414729
 30
0.0
 11
540.8368785536001
 21
-396.2920637601
 31
0.0
  0
LINE
  5
B3
  8
1
  6
CONTINUOUS
 62
     7
 10
684.4181933245286
 20
-167.8875203592872
 30
0.0
 11
684.4181933245286
 21
-202.1124796407128
 31
0.0
  0
LINE
  5
B4
  8
1
  6
CONTINUOUS
 62
     7
 10
649.0181933245287
 20
-145.65
 30
0.0
 11
649.0181933245287
 21
-138.7514368290684
 31
0.0
  0
LINE
  5
B5
  8
2
  6
CONTINUOUS
 62
     7
 10
540.8582165376998
 20
-396.4983306143
 30
0.0
 11
540.8403515237
 21
-396.3821414728999
 31
0.0
  0
LINE
  5
B6
  8
1
  6
CONTINUOUS
 62
     7
 10
645.9181933245286
 20
-189.9999999999999
 30
0.0
 11
645.4681933245286
 21
-189.9999999999999
 31
0.0
  0
ARC
  5
B7
  8
2
  6
CONTINUOUS
 62
     7
 10
541.9486363235
 20
-396.1237801109
 30
0.0
 40
1.185800090000022
 50
225.1168761
 51
270.5954433851
  0
LINE
  5
B8
  8
1
  6
CONTINUOUS
 62
     7
 10
643.8181933245286
 20
-205.4999999999999
 30
0.0
 11
643.8181933245286
 21
-190.9999999999999
 31
0.0
  0
LINE
  5
B9
  8
1
  6
CONTINUOUS
 62
     7
 10
645.4181933245284
 20
-234.0
 30
0.0
 11
645.4181933245284
 21
-136.0000000000001
 31
0.0
  0
LINE
  5
BA
  8
1
  6
CONTINUOUS
 62
     7
 10
649.0181933245287
 20
-136.0
 30
0.0
 11
649.0181933245287
 21
-136.9499999999999
 31
0.0
  0
LINE
  5
BB
  8
1
  6
CONTINUOUS
 62
     7
 10
509.9999999999999
 20
-136.0
 30
0.0
 11
509.9999999999999
 21
-234.0
 31
0.0
  0
LINE
  5
BC
  8
1
  6
CONTINUOUS
 62
     7
 10
649.0181933245287
 20
-136.95
 30
0.0
 11
649.0181933245287
 21
-137.6291123915141
 31
0.0
  0
LINE
  5
BD
  8
1
  6
CONTINUOUS
 62
     7
 10
645.4681933245286
 20
-234.0
 30
0.0
 11
645.4681933245286
 21
-136.0000000000001
 31
0.0
  0
LINE
  5
BE
  8
1
  6
CONTINUOUS
 62
     7
 10
653.9181933245285
 20
-150.9044117647061
 30
0.0
 11
653.9181933245285
 21
-153.5000000000001
 31
0.0
  0
LINE
  5
BF
  8
1
  6
CONTINUOUS
 62
     7
 10
643.8181933245286
 20
-207.4999999999999
 30
0.0
 11
643.8181933245286
 21
-206.4999999999999
 31
0.0
  0
LINE
  5
C0
  8
1
  6
CONTINUOUS
 62
     7
 10
643.8181933245286
 20
-207.4999999999999
 30
0.0
 11
643.8181933245286
 21
-208.4999999999999
 31
0.0
  0
LINE
  5
C1
  8
1
  6
CONTINUOUS
 62
     7
 10
643.8181933245286
 20
-190.9999999999999
 30
0.0
 11
643.8181933245286
 21
-189.9999999999999
 31
0.0
  0
LINE
  5
C2
  8
1
  6
CONTINUOUS
 62
     7
 10
645.4681933245286
 20
-136.0000000000001
 30
0.0
 11
645.4681933245286
 21
-128.0000000000001
 31
0.0
  0
LINE
  5
C3
  8
1
  6
CONTINUOUS
 62
     7
 10
684.4181933245284
 20
-153.2499999999999
 30
0.0
 11
684.4181933245285
 21
-153.6635357323677
 31
0.0
  0
ARC
  5
C4
  8
1
  6
CONTINUOUS
 62
     7
 10
646.9181933245286
 20
-189.4999999999999
 30
0.0
 40
0.4999999999999449
 50
270.0000000000005
 51
0.0
  0
ARC
  5
C5
  8
1
  6
CONTINUOUS
 62
     7
 10
650.0181933245286
 20
-145.65
 30
0.0
 40
1.000000000000112
 50
180.0
 51
269.9999999999995
  0
ARC
  5
C6
  8
1
  6
CONTINUOUS
 62
     7
 10
649.7576070148291
 20
-145.65
 30
0.0
 40
2.599999999999936
 50
205.8715584082989
 51
270.0
  0
LINE
  5
C7
  8
1
  6
CONTINUOUS
 62
     7
 10
647.4181933245284
 20
-136.0
 30
0.0
 11
647.4181933245284
 21
-138.7514368290684
 31
0.0
  0
LINE
  5
C8
  8
2
  6
CONTINUOUS
 62
     7
 10
541.1118611894
 20
-396.9639760573999
 30
0.0
 11
541.0262628744999
 21
-396.8633646448999
 31
0.0
  0
LINE
  5
C9
  8
1
  6
CONTINUOUS
 62
     7
 10
649.0181933245287
 20
-231.2485631709316
 30
0.0
 11
649.0181933245287
 21
-224.35
 31
0.0
  0
LINE
  5
CA
  8
1
  6
CONTINUOUS
 62
     7
 10
645.9181933245286
 20
-212.0000000000001
 30
0.0
 11
645.4681104250276
 21
-212.0000000000001
 31
0.0
  0
LINE
  5
CB
  8
1
  6
CONTINUOUS
 62
     7
 10
684.4181933245286
 20
-160.9529577566923
 30
0.0
 11
684.4181933245286
 21
-167.8875203592872
 31
0.0
  0
ARC
  5
CC
  8
1
  6
CONTINUOUS
 62
     7
 10
649.7576070148291
 20
-224.3500000000001
 30
0.0
 40
2.599999999999936
 50
90.0
 51
154.1284415916994
  0
LINE
  5
CD
  8
2
  6
CONTINUOUS
 62
     7
 10
541.0262628744999
 20
-396.8633646448999
 30
0.0
 11
540.9471306637998
 21
-396.7386375593999
 31
0.0
  0
LINE
  5
CE
  8
1
  6
CONTINUOUS
 62
     7
 10
645.4681933245286
 20
-242.0
 30
0.0
 11
645.4681933245286
 21
-234.0
 31
0.0
  0
LINE
  5
CF
  8
1
  6
CONTINUOUS
 62
     7
 10
653.9181933245285
 20
-146.65
 30
0.0
 11
653.9181933245285
 21
-150.9044117647061
 31
0.0
  0
LINE
  5
D0
  8
1
  6
CONTINUOUS
 62
     7
 10
645.4681093839873
 20
-158.0
 30
0.0
 11
645.9181933245286
 21
-158.0
 31
0.0
  0
ARC
  5
D1
  8
1
  6
CONTINUOUS
 62
     7
 10
646.9181933245286
 20
-180.5000000000002
 30
0.0
 40
0.4999999999999449
 50
0.0
 51
89.99999999999955
  0
LINE
  5
D2
  8
1
  6
CONTINUOUS
 62
     7
 10
643.8181933245286
 20
-205.4999999999999
 30
0.0
 11
643.8181933245286
 21
-206.4999999999999
 31
0.0
  0
LINE
  5
D3
  8
1
  6
CONTINUOUS
 62
     7
 10
643.8181933245286
 20
-164.5000000000001
 30
0.0
 11
643.8181933245286
 21
-163.5000000000001
 31
0.0
  0
LINE
  5
D4
  8
1
  6
CONTINUOUS
 62
     7
 10
653.9181933245285
 20
-223.35
 30
0.0
 11
653.9181933245285
 21
-219.0955882352941
 31
0.0
  0
LINE
  5
D5
  8
1
  6
CONTINUOUS
 62
     7
 10
683.2181933245284
 20
-137.7500000000001
 30
0.0
 11
656.0181933245286
 21
-137.7500000000001
 31
0.0
  0
LINE
  5
D6
  8
1
  6
CONTINUOUS
 62
     7
 10
645.4681933245286
 20
-234.0
 30
0.0
 11
645.4181933245284
 21
-234.0
 31
0.0
  0
LINE
  5
D7
  8
1
  6
CONTINUOUS
 62
     7
 10
645.9181933245285
 20
-158.0
 30
0.0
 11
645.9181933245285
 21
-160.5
 31
0.0
  0
LINE
  5
D8
  8
1
  6
CONTINUOUS
 62
     7
 10
645.4181933245284
 20
-242.0
 30
0.0
 11
645.4181933245284
 21
-234.0
 31
0.0
  0
LINE
  5
D9
  8
1
  6
CONTINUOUS
 62
     7
 10
645.9181933245286
 20
-180.0000000000001
 30
0.0
 11
646.9181933245286
 21
-180.0000000000001
 31
0.0
  0
LINE
  5
DA
  8
1
  6
CONTINUOUS
 62
     7
 10
649.0181933245287
 20
-137.6291123915141
 30
0.0
 11
649.0181933245287
 21
-138.7514368290684
 31
0.0
  0
LINE
  5
DB
  8
1
  6
CONTINUOUS
 62
     7
 10
684.4181933245286
 20
-153.6635357323677
 30
0.0
 11
684.4181933245286
 21
-160.9529577566923
 31
0.0
  0
LINE
  5
DC
  8
1
  6
CONTINUOUS
 62
     7
 10
653.9181933245285
 20
-148.2500000000002
 30
0.0
 11
650.0181933245286
 21
-148.2500000000002
 31
0.0
  0
LINE
  5
DD
  8
1
  6
CONTINUOUS
 62
     7
 10
519.0
 20
-153.4
 30
0.0
 11
516.5
 21
-153.4
 31
0.0
  0
LINE
  5
DE
  8
1
  6
CONTINUOUS
 62
     7
 10
647.4181933245284
 20
-145.65
 30
0.0
 11
647.4181933245284
 21
-138.7514368290684
 31
0.0
  0
LINE
  5
DF
  8
1
  6
CONTINUOUS
 62
     7
 10
645.4681933245286
 20
-242.0
 30
0.0
 11
645.4181933245284
 21
-242.0
 31
0.0
  0
LINE
  5
E0
  8
1
  6
CONTINUOUS
 62
     7
 10
645.4181933245284
 20
-136.0000000000001
 30
0.0
 11
645.4181933245284
 21
-128.0000000000001
 31
0.0
  0
LINE
  5
E1
  8
1
  6
CONTINUOUS
 62
     7
 10
645.4681933245286
 20
-128.0000000000001
 30
0.0
 11
645.4181933245284
 21
-128.0000000000001
 31
0.0
  0
LINE
  5
E2
  8
2
  6
CONTINUOUS
 62
     7
 10
554.6350099149
 20
-393.8253899407999
 30
0.0
 11
554.661626108
 21
-393.8438676953
 31
0.0
  0
LINE
  5
E3
  8
1
  6
CONTINUOUS
 62
     7
 10
647.4181933245284
 20
-234.0
 30
0.0
 11
649.0181933245286
 21
-234.0
 31
0.0
  0
LINE
  5
E4
  8
1
  6
CONTINUOUS
 62
     7
 10
565.0
 20
-153.4
 30
0.0
 11
519.0
 21
-153.4
 31
0.0
  0
LINE
  5
E5
  8
1
  6
CONTINUOUS
 62
     7
 10
650.0181933245286
 20
-221.7500000000001
 30
0.0
 11
653.9181933245285
 21
-221.7500000000001
 31
0.0
  0
LINE
  5
E6
  8
2
  6
CONTINUOUS
 62
     7
 10
538.3499999999999
 20
-395.3095161665
 30
0.0
 11
540.1603448275998
 21
-397.0336540976
 31
0.0
  0
LINE
  5
E7
  8
1
  6
CONTINUOUS
 62
     7
 10
515.1000000000001
 20
-189.8
 30
0.0
 11
515.1000000000001
 21
-189.9999999999999
 31
0.0
  0
LINE
  5
E8
  8
2
  6
CONTINUOUS
 62
     7
 10
540.8948266381
 20
-396.6225297500999
 30
0.0
 11
540.8582165376998
 21
-396.4983306143
 31
0.0
  0
LINE
  5
E9
  8
2
  6
CONTINUOUS
 62
     7
 10
552.5606601717999
 20
-352.6464466094
 30
0.0
 11
556.8216780961
 21
-348.3854286851
 31
0.0
  0
ARC
  5
EA
  8
2
  6
CONTINUOUS
 62
     7
 10
551.4999999999999
 20
-356.4142135623999
 30
0.0
 40
0.500000000000056
 50
45.0
 51
180.0
  0
LINE
  5
EB
  8
2
  6
CONTINUOUS
 62
     7
 10
558.9402029004
 20
-353.5000000000001
 30
0.0
 11
552.9142135623999
 21
-353.5000000000001
 31
0.0
  0
LINE
  5
EC
  8
2
  6
CONTINUOUS
 62
     7
 10
553.5645837402
 20
-343.8836703058
 30
0.0
 11
553.5645837402
 21
-342.1761096738
 31
0.0
  0
LINE
  5
ED
  8
2
  6
CONTINUOUS
 62
     7
 10
666.5000000000001
 20
-416.9154326913
 30
0.0
 11
666.5000000000001
 21
-414.9154326913001
 31
0.0
  0
LINE
  5
EE
  8
2
  6
CONTINUOUS
 62
     7
 10
608.4999999999999
 20
-416.9154326913
 30
0.0
 11
608.9023803919999
 21
-439.9677899105999
 31
0.0
  0
LINE
  5
EF
  8
2
  6
CONTINUOUS
 62
     7
 10
632.25
 20
-411.9154326912999
 30
0.0
 11
632.25
 21
-442.9154326913
 31
0.0
  0
LINE
  5
F0
  8
2
  6
CONTINUOUS
 62
     7
 10
560.6817042549999
 20
-357.0159228015
 30
0.0
 11
560.7030051195998
 21
-357.0000000000001
 31
0.0
  0
LINE
  5
F1
  8
1
  6
CONTINUOUS
 62
     7
 10
518.5
 20
-189.8
 30
0.0
 11
515.1000000000001
 21
-189.8
 31
0.0
  0
LINE
  5
F2
  8
2
  6
CONTINUOUS
 62
     7
 10
560.7030051196
 20
-350.9999999999999
 30
0.0
 11
560.6817042550001
 21
-350.9840771985
 31
0.0
  0
LINE
  5
F3
  8
2
  6
CONTINUOUS
 62
     7
 10
548.0857864375998
 20
-353.5000000000001
 30
0.0
 11
542.0597970995997
 21
-353.5000000000001
 31
0.0
  0
LINE
  5
F4
  8
2
  6
CONTINUOUS
 62
     7
 10
540.6288044728001
 20
-397.0624023441999
 30
0.0
 11
540.6627818624
 21
-397.0897521886
 31
0.0
  0
LINE
  5
F5
  8
2
  6
CONTINUOUS
 62
     7
 10
553.5159228014999
 20
-364.181704255
 30
0.0
 11
553.5339563471999
 21
-364.1736838465
 31
0.0
  0
ARC
  5
F6
  8
2
  6
CONTINUOUS
 62
     7
 10
550.4999999999999
 20
-354.0
 30
0.0
 40
10.57032638959998
 50
163.1466367937
 51
196.8533632063
  0
LINE
  5
F7
  8
2
  6
CONTINUOUS
 62
     7
 10
551.0
 20
-362.4402029004
 30
0.0
 11
551.0
 21
-356.4142135624
 31
0.0
  0
ARC
  5
F8
  8
2
  6
CONTINUOUS
 62
     7
 10
550.4999999999999
 20
-354.0
 30
0.0
 40
7.750000000000035
 50
48.69907106320003
 51
86.30092893680002
  0
LINE
  5
F9
  8
2
  6
CONTINUOUS
 62
     7
 10
656.0976196080001
 20
-439.9677899105999
 30
0.0
 11
656.5000000000001
 21
-416.9154326912999
 31
0.0
  0
LINE
  5
FA
  8
2
  6
CONTINUOUS
 62
     7
 10
560.6632730677001
 20
-357.0296736104
 30
0.0
 11
560.6163296942001
 21
-357.0645837402
 31
0.0
  0
LINE
  5
FB
  8
1
  6
CONTINUOUS
 62
     7
 10
518.5
 20
-180.2
 30
0.0
 11
518.5
 21
-189.8
 31
0.0
  0
ARC
  5
FC
  8
2
  6
CONTINUOUS
 62
     7
 10
550.4999999999999
 20
-354.0
 30
0.0
 40
7.750000000000035
 50
318.6990710632
 51
356.3009289368
  0
CIRCLE
  5
FD
  8
2
  6
CONTINUOUS
 62
     7
 10
550.4999999999999
 20
-354.0
 30
0.0
 40
13.65000000000005
  0
LINE
  5
FE
  8
2
  6
CONTINUOUS
 62
     7
 10
652.1
 20
-414.9154326912999
 30
0.0
 11
652.1
 21
-411.9154326913
 31
0.0
  0
ARC
  5
FF
  8
2
  6
CONTINUOUS
 62
     7
 10
550.4999999999999
 20
-354.0
 30
0.0
 40
12.21458374020001
 50
345.4694921388
 51
14.53050786120002
  0
LINE
  5
100
  8
2
  6
CONTINUOUS
 62
     7
 10
553.5296736104
 20
-343.8367269322999
 30
0.0
 11
553.5645837401999
 21
-343.8836703058
 31
0.0
  0
ARC
  5
101
  8
2
  6
CONTINUOUS
 62
     7
 10
550.4999999999999
 20
-354.0
 30
0.0
 40
10.63491012990003
 50
163.6150279779
 51
196.3849720221
  0
LINE
  5
102
  8
2
  6
CONTINUOUS
 62
     7
 10
540.6627818624
 20
-397.0897521886
 30
0.0
 11
540.6978873012999
 21
-397.1156400127999
 31
0.0
  0
LINE
  5
103
  8
2
  6
CONTINUOUS
 62
     7
 10
639.5
 20
-414.9154326912999
 30
0.0
 11
639.5
 21
-411.9154326913
 31
0.0
  0
LINE
  5
104
  8
2
  6
CONTINUOUS
 62
     7
 10
548.4393398282
 20
-355.3535533906
 30
0.0
 11
544.1783219039
 21
-359.6145713148999
 31
0.0
  0
ARC
  5
105
  8
2
  6
CONTINUOUS
 62
     7
 10
611.9019234775
 20
-439.9154326912999
 30
0.0
 40
3.000000000000114
 50
181.0
 51
270.0
  0
ARC
  5
106
  8
2
  6
CONTINUOUS
 62
     7
 10
550.4999999999999
 20
-354.0
 30
0.0
 40
12.21458374020001
 50
75.4694921388
 51
104.5305078612
  0
ARC
  5
107
  8
2
  6
CONTINUOUS
 62
     7
 10
548.0857864375998
 20
-355.0
 30
0.0
 40
0.500000000000167
 50
315.0
 51
90.0
  0
LINE
  5
108
  8
2
  6
CONTINUOUS
 62
     7
 10
544.885428685
 20
-360.321678096
 30
0.0
 11
549.1464466094001
 21
-356.0606601718001
 31
0.0
  0
LINE
  5
109
  8
2
  6
CONTINUOUS
 62
     7
 10
560.6632730677001
 20
-350.9703263895999
 30
0.0
 11
560.6163296942001
 21
-350.9354162597999
 31
0.0
  0
ARC
  5
10A
  8
2
  6
CONTINUOUS
 62
     7
 10
550.4999999999999
 20
-354.0
 30
0.0
 40
10.57032638959998
 50
253.1466367937
 51
286.8533632063
  0
ARC
  5
10B
  8
1
  6
CONTINUOUS
 62
     7
 10
518.0
 20
-136.0
 30
0.0
 40
8.000000000000007
 50
89.99999999999994
 51
180.0
  0
ARC
  5
10C
  8
2
  6
CONTINUOUS
 62
     7
 10
653.0980765225
 20
-439.9154326912999
 30
0.0
 40
3.000000000000003
 50
270.0
 51
358.9999999999999
  0
LINE
  5
10D
  8
2
  6
________________
 62
     1
 10
550.4999999999999
 20
-390.6095161665
 30
0.0
 11
550.4999999999999
 21
-398.6095161665
 31
0.0
  0
ARC
  5
10F
  8
2
  6
CONTINUOUS
 62
     7
 10
550.4999999999999
 20
-354.0
 30
0.0
 40
10.57032638959998
 50
73.14663679369998
 51
106.8533632063
  0
ARC
  5
110
  8
2
  6
CONTINUOUS
 62
     7
 10
552.9142135623999
 20
-355.0
 30
0.0
 40
0.4999999999999449
 50
90.0
 51
225.0
  0
LINE
  5
111
  8
2
  6
CONTINUOUS
 62
     7
 10
562.3238903261998
 20
-350.9354162598
 30
0.0
 11
560.6163296942
 21
-350.9354162598
 31
0.0
  0
ARC
  5
112
  8
2
  6
CONTINUOUS
 62
     7
 10
550.4999999999999
 20
-354.0
 30
0.0
 40
12.21458374020001
 50
255.4694921388
 51
284.5305078612
  0
LINE
  5
113
  8
2
  6
CONTINUOUS
 62
     7
 10
547.4999999999999
 20
-343.7969948804
 30
0.0
 11
547.4840771985
 21
-343.8182957449999
 31
0.0
  0
LINE
  5
114
  8
2
  6
CONTINUOUS
 62
     7
 10
547.4354162597998
 20
-342.1761096737999
 30
0.0
 11
547.4354162597998
 21
-343.8836703058
 31
0.0
  0
LINE
  5
115
  8
1
  6
CONTINUOUS
 62
     7
 10
643.8181933245286
 20
-151.0
 30
0.0
 11
643.8181933245286
 21
-161.5000000000001
 31
0.0
  0
LINE
  5
116
  8
1
  6
CONTINUOUS
 62
     7
 10
613.5
 20
-153.4
 30
0.0
 11
611.0
 21
-153.4
 31
0.0
  0
LINE
  5
117
  8
1
  6
CONTINUOUS
 62
     7
 10
514.8569686090212
 20
-260.4807040871881
 30
0.0
 11
514.8755448081644
 21
-260.4914633144774
 31
0.0
  0
LINE
  5
118
  8
1
  6
CONTINUOUS
 62
     7
 10
614.8878871912011
 20
-260.8561946619083
 30
0.0
 11
614.890890582908
 21
-260.8357070838138
 31
0.0
  0
LINE
  5
119
  8
1
  6
CONTINUOUS
 62
     7
 10
614.8948712709441
 20
-260.8147734159328
 30
0.0
 11
614.8997480621003
 21
-260.7940101284444
 31
0.0
  0
LINE
  5
11A
  8
1
  6
CONTINUOUS
 62
     7
 10
614.88401011754
 20
-260.9181933245285
 30
0.0
 11
614.8844424172561
 21
-260.8974912956059
 31
0.0
  0
LINE
  5
11B
  8
1
  6
CONTINUOUS
 62
     7
 10
615.0065281815465
 20
-260.5909168504674
 30
0.0
 11
615.020476364774
 21
-260.5755334022398
 31
0.0
  0
LINE
  5
11C
  8
1
  6
CONTINUOUS
 62
     7
 10
614.91939456564
 20
-260.7338305565242
 30
0.0
 11
614.9274639670883
 21
-260.714742023855
 31
0.0
  0
LINE
  5
11D
  8
1
  6
CONTINUOUS
 62
     7
 10
611.0000000000002
 20
-216.6000000000001
 30
0.0
 11
613.5000000000001
 21
-216.6000000000001
 31
0.0
  0
ARC
  5
11E
  8
1
  6
CONTINUOUS
 62
     7
 10
611.9999999999999
 20
-234.0
 30
0.0
 40
8.000000000000007
 50
270.0
 51
0.0
  0
LINE
  5
11F
  8
1
  6
CONTINUOUS
 62
     7
 10
515.9231903791895
 20
-264.0181933245285
 30
0.0
 11
515.9231903791895
 21
-268.9181933245285
 31
0.0
  0
LINE
  5
120
  8
1
  6
CONTINUOUS
 62
     7
 10
515.0930875245605
 20
-260.7689149621454
 30
0.0
 11
515.0990879085166
 21
-260.7895622085392
 31
0.0
  0
LINE
  5
121
  8
1
  6
CONTINUOUS
 62
     7
 10
683.2181933245284
 20
-137.7500000000001
 30
0.0
 11
684.4181933245286
 21
-137.7500000000001
 31
0.0
  0
LINE
  5
122
  8
1
  6
CONTINUOUS
 62
     7
 10
620.0000000000001
 20
-234.0
 30
0.0
 11
620.0000000000001
 21
-136.0000000000001
 31
0.0
  0
LINE
  5
123
  8
1
  6
CONTINUOUS
 62
     7
 10
614.9566108848377
 20
-260.6592298999128
 30
0.0
 11
614.9680776635531
 21
-260.6412506119715
 31
0.0
  0
LINE
  5
124
  8
1
  6
CONTINUOUS
 62
     7
 10
517.1806527080182
 20
-262.4181933245285
 30
0.0
 11
517.2729694189171
 21
-262.4711217429623
 31
0.0
  0
ARC
  5
125
  8
1
  6
CONTINUOUS
 62
     7
 10
551.0
 20
-142.15
 30
0.0
 40
4.099999999999993
 50
276.9682567413781
 51
96.9682567413783
  0
LINE
  5
126
  8
1
  6
CONTINUOUS
 62
     7
 10
612.8016896488738
 20
-262.4202390002198
 30
0.0
 11
612.8193472919818
 21
-262.4181933245285
 31
0.0
  0
LINE
  5
127
  8
1
  6
CONTINUOUS
 62
     7
 10
516.7626331322247
 20
-268.9181933245285
 30
0.0
 11
515.9231903791895
 21
-268.9181933245285
 31
0.0
  0
LINE
  5
128
  8
1
  6
CONTINUOUS
 62
     7
 10
615.0350483439653
 20
-260.5607394458428
 30
0.0
 11
615.0502071244703
 21
-260.5465734677611
 31
0.0
  0
ARC
  5
129
  8
1
  6
CONTINUOUS
 62
     7
 10
514.5
 20
-260.9181933245285
 30
0.0
 40
0.4999999999999449
 50
359.9999999999953
 51
64.15806723683346
  0
LINE
  5
12A
  8
1
  6
CONTINUOUS
 62
     7
 10
614.9274639670883
 20
-260.714742023855
 30
0.0
 11
614.9363167622037
 21
-260.6960039229905
 31
0.0
  0
LINE
  5
12B
  8
1
  6
CONTINUOUS
 62
     7
 10
649.0181933245287
 20
-136.0500000000001
 30
0.0
 11
656.0181933245286
 21
-137.7500000000001
 31
0.0
  0
LINE
  5
12C
  8
1
  6
CONTINUOUS
 62
     7
 10
515.1077666922009
 20
-260.8280800189636
 30
0.0
 11
515.1107032230574
 21
-260.8458343727089
 31
0.0
  0
LINE
  5
12D
  8
1
  6
CONTINUOUS
 62
     7
 10
515.0288467741598
 20
-260.636696062366
 30
0.0
 11
515.0406489447615
 21
-260.6547726520968
 31
0.0
  0
LINE
  5
12E
  8
1
  6
CONTINUOUS
 62
     7
 10
597.4974096628575
 20
-146.2197154233799
 30
0.0
 11
589.4017236153146
 21
-147.2091881625241
 31
0.0
  0
LINE
  5
12F
  8
1
  6
CONTINUOUS
 62
     7
 10
515.1129961442693
 20
-260.8636773350325
 30
0.0
 11
515.1146579745749
 21
-260.8818067803645
 31
0.0
  0
LINE
  5
130
  8
1
  6
CONTINUOUS
 62
     7
 10
613.5
 20
-259.9779394837568
 30
0.0
 11
613.3373814528163
 21
-260.4180869369789
 31
0.0
  0
LINE
  5
131
  8
1
  6
CONTINUOUS
 62
     7
 10
565.0
 20
-216.6000000000001
 30
0.0
 11
611.0000000000001
 21
-216.6000000000001
 31
0.0
  0
LINE
  5
132
  8
1
  6
CONTINUOUS
 62
     7
 10
514.8755448081644
 20
-260.4914633144774
 30
0.0
 11
514.8936447849766
 21
-260.5030057024586
 31
0.0
  0
LINE
  5
133
  8
1
  6
CONTINUOUS
 62
     7
 10
614.8908905829081
 20
-260.8357070838138
 30
0.0
 11
614.8948712709441
 21
-260.8147734159328
 31
0.0
  0
LINE
  5
134
  8
1
  6
CONTINUOUS
 62
     7
 10
515.1159898824598
 20
-260.9181933245285
 30
0.0
 11
515.1159898824598
 21
-262.4181933245285
 31
0.0
  0
LINE
  5
135
  8
1
  6
CONTINUOUS
 62
     7
 10
649.0181933245287
 20
-136.95
 30
0.0
 11
656.0181933245286
 21
-137.7500000000001
 31
0.0
  0
LINE
  5
136
  8
1
  6
CONTINUOUS
 62
     7
 10
614.9121307108474
 20
-260.7532208430991
 30
0.0
 11
614.9193945656399
 21
-260.7338305565242
 31
0.0
  0
LINE
  5
137
  8
2
  6
CONTINUOUS
 62
     7
 10
546.2613960259998
 20
-393.9090257628
 30
0.0
 11
546.2881186579998
 21
-393.8842139446999
 31
0.0
  0
LINE
  5
138
  8
2
  6
CONTINUOUS
 62
     7
 10
553.9339680249
 20
-393.7687653468
 30
0.0
 11
553.9610603389
 21
-393.7575218605999
 31
0.0
  0
LINE
  5
139
  8
2
  6
CONTINUOUS
 62
     7
 10
559.772987921
 20
-397.3058465700999
 30
0.0
 11
559.8177245123
 21
-397.3012652371999
 31
0.0
  0
LINE
  5
13A
  8
2
  6
CONTINUOUS
 62
     7
 10
553.6491106122
 20
-393.9986129337999
 30
0.0
 11
553.6662978162
 21
-393.9758924136999
 31
0.0
  0
LINE
  5
13B
  8
2
  6
CONTINUOUS
 62
     7
 10
546.8446637091
 20
-393.7121376520999
 30
0.0
 11
546.8748297291999
 21
-393.7154122167999
 31
0.0
  0
LINE
  5
13C
  8
2
  6
CONTINUOUS
 62
     7
 10
546.9659883587
 20
-393.7335424363
 30
0.0
 11
546.9961476937
 21
-393.7423822974999
 31
0.0
  0
LINE
  5
13D
  8
2
  6
CONTINUOUS
 62
     7
 10
564.15
 20
-393.6095161665
 30
0.0
 11
536.8500000000001
 21
-393.6095161665
 31
0.0
  0
LINE
  5
13E
  8
2
  6
CONTINUOUS
 62
     7
 10
547.2639384970998
 20
-393.8997794717999
 30
0.0
 11
547.2854790133998
 21
-393.9209507952
 31
0.0
  0
LINE
  5
13F
  8
2
  6
CONTINUOUS
 62
     7
 10
553.5269932789
 20
-394.2849248356
 30
0.0
 11
553.5327539483
 21
-394.2564728602999
 31
0.0
  0
ARC
  5
140
  8
2
  6
CONTINUOUS
 62
     7
 10
561.4588576921
 20
-394.3703784161999
 30
0.0
 40
1.317151492699953
 50
161.9792091032
 51
181.1711415701
  0
LINE
  5
141
  8
2
  6
CONTINUOUS
 62
     7
 10
553.5900775509998
 20
-394.0957519389
 30
0.0
 11
553.6030892341998
 21
-394.0710406429001
 31
0.0
  0
LINE
  5
142
  8
1
  6
CONTINUOUS
 62
     7
 10
517.9999999999999
 20
-260.4681933245285
 30
0.0
 11
517.9999999999999
 21
-260.4181933245285
 31
0.0
  0
LINE
  5
143
  8
2
  6
CONTINUOUS
 62
     7
 10
547.4443008751
 20
-394.1766096123999
 30
0.0
 11
547.4537305854999
 21
-394.2053038211
 31
0.0
  0
LINE
  5
144
  8
1
  6
CONTINUOUS
 62
     7
 10
615.0664027133819
 20
-260.5326693879393
 30
0.0
 11
615.0831902761086
 21
-260.5194548243489
 31
0.0
  0
LINE
  5
145
  8
1
  6
CONTINUOUS
 62
     7
 10
620.0000000000001
 20
-260.4681933245285
 30
0.0
 11
620.0000000000001
 21
-260.4181933245285
 31
0.0
  0
LINE
  5
146
  8
2
  6
CONTINUOUS
 62
     7
 10
554.0783497953
 20
-393.7231534618
 30
0.0
 11
554.1125135411
 21
-393.7171956296
 31
0.0
  0
LINE
  5
147
  8
2
  6
CONTINUOUS
 62
     7
 10
547.4537305854999
 20
-394.2053038211
 30
0.0
 11
547.4619317058999
 21
-394.2344450111
 31
0.0
  0
LINE
  5
148
  8
2
  6
CONTINUOUS
 62
     7
 10
547.4688770991999
 20
-394.2639459961999
 30
0.0
 11
547.4745396280999
 21
-394.29371959
 31
0.0
  0
LINE
  5
149
  8
2
  6
CONTINUOUS
 62
     7
 10
540.8580186540999
 20
-394.397299482
 30
0.0
 11
540.8368785535998
 21
-396.2920637600998
 31
0.0
  0
LINE
  5
14A
  8
2
  6
CONTINUOUS
 62
     7
 10
547.4794238387
 20
-394.3280431741999
 30
0.0
 11
547.4826083892999
 21
-394.3626156880999
 31
0.0
  0
LINE
  5
14B
  8
2
  6
CONTINUOUS
 62
     7
 10
540.5960546742
 20
-397.0336540976
 30
0.0
 11
538.7261943280998
 21
-395.3095161665
 31
0.0
  0
LINE
  5
14C
  8
1
  6
CONTINUOUS
 62
     7
 10
615.1005232994836
 20
-260.506964235555
 30
0.0
 11
615.1183552703405
 21
-260.4952320801223
 31
0.0
  0
LINE
  5
14D
  8
2
  6
CONTINUOUS
 62
     7
 10
553.5225336015
 20
-394.3127905863
 30
0.0
 11
553.5269932789
 21
-394.2849248356
 31
0.0
  0
LINE
  5
14E
  8
1
  6
CONTINUOUS
 62
     7
 10
611.9999999999999
 20
-260.4681933245285
 30
0.0
 11
620.0
 21
-260.4681933245285
 31
0.0
  0
LINE
  5
14F
  8
2
  6
CONTINUOUS
 62
     7
 10
553.7224647956999
 20
-393.9129263633999
 30
0.0
 11
553.7427178904
 21
-393.8935917526999
 31
0.0
  0
LINE
  5
150
  8
2
  6
CONTINUOUS
 62
     7
 10
553.6030892341998
 20
-394.0710406429
 30
0.0
 11
553.6174593391
 21
-394.0462452355
 31
0.0
  0
LINE
  5
151
  8
2
  6
CONTINUOUS
 62
     7
 10
559.6831771224
 20
-397.3095161665
 30
0.0
 11
559.7281011636001
 21
-397.3085981382
 31
0.0
  0
LINE
  5
152
  8
1
  6
CONTINUOUS
 62
     7
 10
615.0502071244703
 20
-260.5465734677611
 30
0.0
 11
615.0664027133819
 21
-260.5326693879393
 31
0.0
  0
LINE
  5
153
  8
2
  6
CONTINUOUS
 62
     7
 10
553.5159228014999
 20
-394.397299482
 30
0.0
 11
553.5169891366999
 21
-394.3690521333999
 31
0.0
  0
LINE
  5
154
  8
2
  6
CONTINUOUS
 62
     7
 10
560.249760236
 20
-393.8609297634999
 30
0.0
 11
560.3129312832
 21
-393.7680148099
 31
0.0
  0
ARC
  5
155
  8
2
  6
CONTINUOUS
 62
     7
 10
551.4999999999999
 20
-351.5857864375999
 30
0.0
 40
0.500000000000056
 50
180.0
 51
315.0
  0
LINE
  5
156
  8
2
  6
CONTINUOUS
 62
     7
 10
547.325848124
 20
-393.9661204369
 30
0.0
 11
547.3451668801999
 21
-393.9908359608
 31
0.0
  0
LINE
  5
157
  8
2
  6
CONTINUOUS
 62
     7
 10
540.8115300412
 20
-397.1853089162
 30
0.0
 11
540.8516844869998
 21
-397.2054481278001
 31
0.0
  0
LINE
  5
158
  8
2
  6
CONTINUOUS
 62
     7
 10
554.1125135411
 20
-393.7171956296
 30
0.0
 11
554.1468883125
 21
-393.7129330321001
 31
0.0
  0
LINE
  5
159
  8
2
  6
CONTINUOUS
 62
     7
 10
560.2053188253
 20
-397.1762153174
 30
0.0
 11
560.2453724636999
 21
-397.1529276814999
 31
0.0
  0
LINE
  5
15A
  8
2
  6
CONTINUOUS
 62
     7
 10
560.2453724636999
 20
-397.1529276814999
 30
0.0
 11
560.2843900414
 21
-397.1278577362999
 31
0.0
  0
LINE
  5
15B
  8
1
  6
CONTINUOUS
 62
     7
 10
615.1362252163691
 20
-260.4845254270384
 30
0.0
 11
615.1545391499711
 21
-260.4745597863352
 31
0.0
  0
LINE
  5
15C
  8
2
  6
CONTINUOUS
 62
     7
 10
560.3816623088001
 20
-397.0534857258999
 30
0.0
 11
560.4039453258
 21
-397.0336540975999
 31
0.0
  0
LINE
  5
15D
  8
1
  6
CONTINUOUS
 62
     7
 10
615.1183552703405
 20
-260.4952320801223
 30
0.0
 11
615.1362252163691
 21
-260.4845254270384
 31
0.0
  0
LINE
  5
15E
  8
2
  6
CONTINUOUS
 62
     7
 10
564.15
 20
-393.6095161665
 30
0.0
 11
564.15
 21
-392.6095161665
 31
0.0
  0
LINE
  5
15F
  8
2
  6
CONTINUOUS
 62
     7
 10
541.1457366274999
 20
-397.2961329546
 30
0.0
 11
541.1901158567998
 21
-397.3022027232
 31
0.0
  0
LINE
  5
160
  8
1
  6
CONTINUOUS
 62
     7
 10
509.9999999999999
 20
-260.4681933245285
 30
0.0
 11
509.9999999999999
 21
-260.4181933245285
 31
0.0
  0
LINE
  5
161
  8
2
  6
CONTINUOUS
 62
     7
 10
553.5327539483001
 20
-394.2564728602999
 30
0.0
 11
553.539688239
 21
-394.228286012
 31
0.0
  0
LINE
  5
162
  8
2
  6
CONTINUOUS
 62
     7
 10
553.5169891366999
 20
-394.3690521333999
 30
0.0
 11
553.5191958120998
 21
-394.3408577601999
 31
0.0
  0
LINE
  5
163
  8
2
  6
CONTINUOUS
 62
     7
 10
541.1016433855999
 20
-397.2882531792
 30
0.0
 11
541.1457366275
 21
-397.2961329546001
 31
0.0
  0
LINE
  5
164
  8
2
  6
CONTINUOUS
 62
     7
 10
547.3964669830999
 20
-394.0702385245999
 30
0.0
 11
547.4100384714999
 21
-394.0959843402
 31
0.0
  0
LINE
  5
165
  8
2
  6
CONTINUOUS
 62
     7
 10
553.6174593391
 20
-394.0462452354999
 30
0.0
 11
553.6328154591998
 21
-394.0220832700999
 31
0.0
  0
LINE
  5
166
  8
2
  6
CONTINUOUS
 62
     7
 10
560.15
 20
-397.3095161665
 30
0.0
 11
559.6295324533
 21
-397.3095161665
 31
0.0
  0
LINE
  5
167
  8
2
  6
CONTINUOUS
 62
     7
 10
553.5780325550999
 20
-394.1210262858
 30
0.0
 11
553.5900775509998
 21
-394.0957519389
 31
0.0
  0
LINE
  5
168
  8
1
  6
CONTINUOUS
 62
     7
 10
611.9999999999999
 20
-260.4181933245285
 30
0.0
 11
620.0
 21
-260.4181933245285
 31
0.0
  0
LINE
  5
169
  8
2
  6
CONTINUOUS
 62
     7
 10
559.7281011636001
 20
-397.3085981382
 30
0.0
 11
559.7729879210001
 21
-397.3058465701
 31
0.0
  0
LINE
  5
16A
  8
2
  6
CONTINUOUS
 62
     7
 10
554.0164015966001
 20
-393.7385236751999
 30
0.0
 11
554.0445107613
 21
-393.7308008721999
 31
0.0
  0
LINE
  5
16B
  8
2
  6
CONTINUOUS
 62
     7
 10
541.2346685605
 20
-397.3064515729
 30
0.0
 11
541.2756884769
 21
-397.3087492431001
 31
0.0
  0
LINE
  5
16C
  8
2
  6
CONTINUOUS
 62
     7
 10
547.4354162597998
 20
-364.1163296942
 30
0.0
 11
547.4354162597998
 21
-365.8238903262
 31
0.0
  0
LINE
  5
16D
  8
2
  6
CONTINUOUS
 62
     7
 10
560.3129312832
 20
-393.7680148099
 30
0.0
 11
560.3968918406
 21
-393.7127104526
 31
0.0
  0
LINE
  5
16E
  8
2
  6
CONTINUOUS
 62
     7
 10
560.0412189878
 20
-397.2493474779
 30
0.0
 11
560.0833496718999
 21
-397.2336914886
 31
0.0
  0
LINE
  5
16F
  8
1
  6
CONTINUOUS
 62
     7
 10
517.9999999999999
 20
-260.4181933245285
 30
0.0
 11
611.9999999999998
 21
-260.4181933245285
 31
0.0
  0
LINE
  5
170
  8
1
  6
CONTINUOUS
 62
     7
 10
517.9999999999999
 20
-260.4681933245285
 30
0.0
 11
611.9999999999998
 21
-260.4681933245285
 31
0.0
  0
LINE
  5
171
  8
2
  6
CONTINUOUS
 62
     7
 10
560.5327714055999
 20
-393.7638068243
 30
0.0
 11
560.5887822573999
 21
-393.8591432928001
 31
0.0
  0
LINE
  5
172
  8
2
  6
CONTINUOUS
 62
     7
 10
559.9972557247
 20
-397.2635796389
 30
0.0
 11
560.0412189878
 21
-397.2493474779
 31
0.0
  0
LINE
  5
173
  8
2
  6
CONTINUOUS
 62
     7
 10
541.2756884768999
 20
-397.3087492430999
 30
0.0
 11
541.3168228775999
 21
-397.3095161664999
 31
0.0
  0
LINE
  5
174
  8
2
  6
CONTINUOUS
 62
     7
 10
546.0664223445
 20
-394.2621242675
 30
0.0
 11
546.0728280842
 21
-394.2350243401
 31
0.0
  0
LINE
  5
175
  8
2
  6
CONTINUOUS
 62
     7
 10
547.4826083892999
 20
-394.3626156881
 30
0.0
 11
547.4840771985
 21
-394.397299482
 31
0.0
  0
ARC
  5
176
  8
1
  6
CONTINUOUS
 62
     7
 10
588.0000000000001
 20
-226.7500000000001
 30
0.0
 40
1.030668528585466
 50
330.0214543835138
 51
29.97854561648614
  0
ARC
  5
177
  8
1
  6
CONTINUOUS
 62
     7
 10
597.0000000000002
 20
-142.15
 30
0.0
 40
4.199999999999982
 50
109.4961621812308
 51
180.0
  0
ARC
  5
178
  8
1
  6
CONTINUOUS
 62
     7
 10
533.0
 20
-227.8500000000001
 30
0.0
 40
1.030668528585355
 50
240.0214543835139
 51
299.9785456164861
  0
ARC
  5
179
  8
1
  6
CONTINUOUS
 62
     7
 10
551.0
 20
-142.15
 30
0.0
 40
2.249999999999974
 50
76.76833517570076
 51
103.2316648242992
  0
LINE
  5
17A
  8
1
  6
CONTINUOUS
 62
     7
 10
541.485
 20
-227.265
 30
0.0
 11
541.485
 21
-228.9402682484117
 31
0.0
  0
ARC
  5
17B
  8
1
  6
CONTINUOUS
 62
     7
 10
588.0000000000001
 20
-226.7500000000001
 30
0.0
 40
2.250000000000085
 50
346.7683351757007
 51
13.23166482429929
  0
LINE
  5
17C
  8
1
  6
CONTINUOUS
 62
     7
 10
535.1902682484115
 20
-227.3350000000001
 30
0.0
 11
533.515
 21
-227.3350000000001
 31
0.0
  0
ARC
  5
17D
  8
1
  6
CONTINUOUS
 62
     7
 10
551.0
 20
-142.15
 30
0.0
 40
4.199999999999982
 50
109.4961621812306
 51
180.0
  0
LINE
  5
17E
  8
1
  6
CONTINUOUS
 62
     7
 10
551.515
 20
-144.3402682484116
 30
0.0
 11
551.515
 21
-142.6650000000001
 31
0.0
  0
CIRCLE
  5
17F
  8
1
  6
CONTINUOUS
 62
     7
 10
541.9999999999998
 20
-143.2500000000001
 30
0.0
 40
4.199999999999982
  0
LINE
  5
180
  8
1
  6
CONTINUOUS
 62
     7
 10
516.5999999999999
 20
-160.5
 30
0.0
 11
514.5
 21
-160.5
 31
0.0
  0
LINE
  5
181
  8
1
  6
CONTINUOUS
 62
     7
 10
596.485
 20
-142.665
 30
0.0
 11
596.485
 21
-144.3402682484116
 31
0.0
  0
ARC
  5
182
  8
1
  6
CONTINUOUS
 62
     7
 10
579.0
 20
-227.8500000000001
 30
0.0
 40
4.200000000000093
 50
0.0
 51
84.4403513015215
  0
LINE
  5
183
  8
1
  6
CONTINUOUS
 62
     7
 10
597.5150000000001
 20
-142.665
 30
0.0
 11
599.1902682484118
 21
-142.665
 31
0.0
  0
ARC
  5
184
  8
1
  6
CONTINUOUS
 62
     7
 10
541.9999999999998
 20
-226.7500000000001
 30
0.0
 40
1.030668528585355
 50
150.0214543835138
 51
209.9785456164862
  0
LINE
  5
185
  8
1
  6
CONTINUOUS
 62
     7
 10
541.485
 20
-224.5597317515884
 30
0.0
 11
541.485
 21
-226.2350000000001
 31
0.0
  0
LINE
  5
186
  8
1
  6
CONTINUOUS
 62
     7
 10
594.8097317515885
 20
-142.665
 30
0.0
 11
596.4850000000001
 21
-142.665
 31
0.0
  0
LINE
  5
187
  8
1
  6
CONTINUOUS
 62
     7
 10
548.8097317515885
 20
-142.665
 30
0.0
 11
550.4850000000001
 21
-142.665
 31
0.0
  0
ARC
  5
188
  8
1
  6
CONTINUOUS
 62
     7
 10
551.0
 20
-142.15
 30
0.0
 40
1.030668528585355
 50
150.0214543835138
 51
209.9785456164862
  0
LINE
  5
189
  8
1
  6
CONTINUOUS
 62
     7
 10
516.5
 20
-150.2043698590132
 30
0.0
 11
516.5
 21
-158.0
 31
0.0
  0
LINE
  5
18A
  8
1
  6
CONTINUOUS
 62
     7
 10
579.515
 20
-228.3650000000001
 30
0.0
 11
581.1902682484116
 21
-228.3650000000001
 31
0.0
  0
LINE
  5
18B
  8
1
  6
CONTINUOUS
 62
     7
 10
597.5150000000001
 20
-141.635
 30
0.0
 11
597.5150000000001
 21
-139.9597317515885
 31
0.0
  0
LINE
  5
18C
  8
1
  6
CONTINUOUS
 62
     7
 10
596.485
 20
-141.635
 30
0.0
 11
594.8097317515885
 21
-141.635
 31
0.0
  0
ARC
  5
18D
  8
1
  6
CONTINUOUS
 62
     7
 10
551.0
 20
-142.15
 30
0.0
 40
2.249999999999974
 50
346.7683351757007
 51
13.23166482429929
  0
ARC
  5
18E
  8
1
  6
CONTINUOUS
 62
     7
 10
579.0
 20
-227.8500000000001
 30
0.0
 40
2.250000000000085
 50
76.76833517570076
 51
103.2316648242992
  0
ARC
  5
18F
  8
1
  6
CONTINUOUS
 62
     7
 10
579.0
 20
-227.8500000000001
 30
0.0
 40
1.030668528585466
 50
240.0214543835139
 51
299.9785456164861
  0
ARC
  5
190
  8
1
  6
CONTINUOUS
 62
     7
 10
551.0
 20
-142.15
 30
0.0
 40
2.249999999999974
 50
256.7683351757008
 51
283.2316648242992
  0
ARC
  5
191
  8
1
  6
CONTINUOUS
 62
     7
 10
551.0
 20
-142.15
 30
0.0
 40
2.249999999999974
 50
166.7683351757007
 51
193.2316648242993
  0
ARC
  5
192
  8
1
  6
CONTINUOUS
 62
     7
 10
541.9999999999998
 20
-143.2500000000001
 30
0.0
 40
1.030668528585355
 50
60.02145438351382
 51
119.9785456164862
  0
ARC
  5
193
  8
1
  6
CONTINUOUS
 62
     7
 10
579.0
 20
-227.8500000000001
 30
0.0
 40
1.030668528585466
 50
330.0214543835138
 51
29.97854561648614
  0
LINE
  5
194
  8
1
  6
CONTINUOUS
 62
     7
 10
599.1902682484118
 20
-141.635
 30
0.0
 11
597.5150000000002
 21
-141.635
 31
0.0
  0
ARC
  5
195
  8
1
  6
CONTINUOUS
 62
     7
 10
533.0
 20
-227.8500000000001
 30
0.0
 40
1.030668528585355
 50
330.0214543835138
 51
29.97854561648614
  0
LINE
  5
196
  8
1
  6
CONTINUOUS
 62
     7
 10
516.5
 20
-158.0
 30
0.0
 11
516.5873128452037
 21
-158.0
 31
0.0
  0
ARC
  5
197
  8
1
  6
CONTINUOUS
 62
     7
 10
597.0000000000002
 20
-142.15
 30
0.0
 40
2.249999999999863
 50
166.7683351757007
 51
193.2316648242993
  0
LINE
  5
198
  8
1
  6
CONTINUOUS
 62
     7
 10
581.1902682484116
 20
-227.3350000000001
 30
0.0
 11
579.515
 21
-227.3350000000001
 31
0.0
  0
LINE
  5
199
  8
1
  6
CONTINUOUS
 62
     7
 10
579.515
 20
-227.3350000000001
 30
0.0
 11
579.515
 21
-225.6597317515884
 31
0.0
  0
ARC
  5
19A
  8
1
  6
CONTINUOUS
 62
     7
 10
597.0000000000002
 20
-142.15
 30
0.0
 40
2.249999999999863
 50
76.76833517570074
 51
103.2316648242993
  0
ARC
  5
19B
  8
1
  6
CONTINUOUS
 62
     7
 10
597.0000000000002
 20
-142.15
 30
0.0
 40
1.030668528585243
 50
240.0214543835139
 51
299.9785456164861
  0
LINE
  5
19C
  8
1
  6
CONTINUOUS
 62
     7
 10
613.5
 20
-212.0000000000001
 30
0.0
 11
613.4126871547965
 21
-212.0000000000001
 31
0.0
  0
ARC
  5
19D
  8
1
  6
CONTINUOUS
 62
     7
 10
551.0
 20
-142.15
 30
0.0
 40
1.030668528585355
 50
60.02145438351391
 51
119.9785456164861
  0
LINE
  5
19E
  8
1
  6
CONTINUOUS
 62
     7
 10
551.515
 20
-142.665
 30
0.0
 11
553.1902682484116
 21
-142.665
 31
0.0
  0
LINE
  5
19F
  8
1
  6
CONTINUOUS
 62
     7
 10
587.485
 20
-143.765
 30
0.0
 11
587.485
 21
-145.4402682484116
 31
0.0
  0
ARC
  5
1A0
  8
1
  6
CONTINUOUS
 62
     7
 10
597.0000000000002
 20
-142.15
 30
0.0
 40
4.199999999999982
 50
180.0
 51
264.4403513015204
  0
ARC
  5
1A1
  8
1
  6
CONTINUOUS
 62
     7
 10
551.0
 20
-142.15
 30
0.0
 40
1.030668528585355
 50
240.0214543835139
 51
299.9785456164861
  0
LINE
  5
1A2
  8
1
  6
CONTINUOUS
 62
     7
 10
576.8097317515884
 20
-228.3650000000001
 30
0.0
 11
578.485
 21
-228.3650000000001
 31
0.0
  0
ARC
  5
1A3
  8
1
  6
CONTINUOUS
 62
     7
 10
541.9999999999998
 20
-160.5
 30
0.0
 40
25.39999999999998
 50
174.3515064830804
 51
180.0
  0
LINE
  5
1A4
  8
1
  6
CONTINUOUS
 62
     7
 10
542.515
 20
-143.765
 30
0.0
 11
544.1902682484115
 21
-143.765
 31
0.0
  0
ARC
  5
1A5
  8
1
  6
CONTINUOUS
 62
     7
 10
579.0
 20
-227.8500000000001
 30
0.0
 40
2.250000000000085
 50
256.7683351757008
 51
283.2316648242992
  0
LINE
  5
1A6
  8
1
  6
CONTINUOUS
 62
     7
 10
578.485
 20
-228.3650000000001
 30
0.0
 11
578.485
 21
-230.0402682484116
 31
0.0
  0
ARC
  5
1A7
  8
1
  6
CONTINUOUS
 62
     7
 10
579.0
 20
-227.8500000000001
 30
0.0
 40
1.030668528585466
 50
150.0214543835138
 51
209.9785456164862
  0
LINE
  5
1A8
  8
1
  6
CONTINUOUS
 62
     7
 10
578.485
 20
-225.6597317515884
 30
0.0
 11
578.485
 21
-227.3350000000001
 31
0.0
  0
LINE
  5
1A9
  8
1
  6
CONTINUOUS
 62
     7
 10
579.515
 20
-230.0402682484116
 30
0.0
 11
579.515
 21
-228.365
 31
0.0
  0
LINE
  5
1AA
  8
1
  6
CONTINUOUS
 62
     7
 10
596.485
 20
-139.9597317515884
 30
0.0
 11
596.485
 21
-141.635
 31
0.0
  0
ARC
  5
1AB
  8
1
  6
CONTINUOUS
 62
     7
 10
551.0
 20
-142.15
 30
0.0
 40
1.030668528585355
 50
330.0214543835138
 51
29.97854561648614
  0
LINE
  5
1AC
  8
1
  6
CONTINUOUS
 62
     7
 10
550.4850000000001
 20
-141.635
 30
0.0
 11
548.8097317515885
 21
-141.635
 31
0.0
  0
ARC
  5
1AD
  8
1
  6
CONTINUOUS
 62
     7
 10
579.0
 20
-227.8500000000001
 30
0.0
 40
1.030668528585466
 50
60.02145438351391
 51
119.9785456164861
  0
ARC
  5
1AE
  8
1
  6
CONTINUOUS
 62
     7
 10
588.0000000000001
 20
-226.7500000000001
 30
0.0
 40
1.030668528585466
 50
60.02145438351382
 51
119.9785456164862
  0
ARC
  5
1AF
  8
1
  6
CONTINUOUS
 62
     7
 10
533.0
 20
-227.8500000000001
 30
0.0
 40
2.249999999999974
 50
166.7683351757008
 51
193.2316648242993
  0
LINE
  5
1B0
  8
1
  6
CONTINUOUS
 62
     7
 10
550.4850000000001
 20
-139.9597317515884
 30
0.0
 11
550.4850000000001
 21
-141.635
 31
0.0
  0
LINE
  5
1B1
  8
1
  6
CONTINUOUS
 62
     7
 10
597.5150000000001
 20
-144.3402682484116
 30
0.0
 11
597.5150000000001
 21
-142.6650000000001
 31
0.0
  0
ARC
  5
1B2
  8
1
  6
CONTINUOUS
 62
     7
 10
579.0
 20
-227.8500000000001
 30
0.0
 40
2.250000000000085
 50
166.7683351757007
 51
193.2316648242993
  0
ARC
  5
1B3
  8
1
  6
CONTINUOUS
 62
     7
 10
597.0000000000002
 20
-142.15
 30
0.0
 40
2.249999999999863
 50
256.7683351757007
 51
283.2316648242992
  0
LINE
  5
1B4
  8
1
  6
CONTINUOUS
 62
     7
 10
539.8097317515884
 20
-227.265
 30
0.0
 11
541.485
 21
-227.265
 31
0.0
  0
LINE
  5
1B5
  8
2
  6
CONTINUOUS
 62
     7
 10
547.4339938899
 20
-394.1492410549
 30
0.0
 11
547.4443008751
 21
-394.1766096124001
 31
0.0
  0
LINE
  5
1B6
  8
2
  6
CONTINUOUS
 62
     7
 10
546.4438755468999
 20
-393.7803559290999
 30
0.0
 11
546.4705950695
 21
-393.7680148098999
 31
0.0
  0
LINE
  5
1B7
  8
2
  6
CONTINUOUS
 62
     7
 10
547.2854790133999
 20
-393.9209507952
 30
0.0
 11
547.3061377477
 21
-393.9430827168
 31
0.0
  0
LINE
  5
1B8
  8
2
  6
CONTINUOUS
 62
     7
 10
560.1655145146
 20
-397.1970855034999
 30
0.0
 11
560.2053188253
 21
-397.1762153174001
 31
0.0
  0
LINE
  5
1B9
  8
2
  6
CONTINUOUS
 62
     7
 10
546.2117313151999
 20
-393.9629016859999
 30
0.0
 11
546.2358950609
 21
-393.9352825619999
 31
0.0
  0
LINE
  5
1BA
  8
2
  6
CONTINUOUS
 62
     7
 10
560.0310236690999
 20
-396.7774398225001
 30
0.0
 11
560.0100417269999
 21
-396.8112124964001
 31
0.0
  0
LINE
  5
1BB
  8
1
  6
CONTINUOUS
 62
     7
 10
541.485
 20
-226.2350000000001
 30
0.0
 11
539.8097317515884
 21
-226.2350000000001
 31
0.0
  0
ARC
  5
1BC
  8
1
  6
CONTINUOUS
 62
     7
 10
541.9999999999998
 20
-226.7500000000001
 30
0.0
 40
2.249999999999974
 50
166.7683351757007
 51
193.2316648242993
  0
LINE
  5
1BD
  8
1
  6
CONTINUOUS
 62
     7
 10
544.1902682484115
 20
-226.2350000000001
 30
0.0
 11
542.515
 21
-226.2350000000001
 31
0.0
  0
LINE
  5
1BE
  8
2
  6
CONTINUOUS
 62
     7
 10
560.2063199604
 20
-393.9629016859999
 30
0.0
 11
560.249760236
 21
-393.8609297634999
 31
0.0
  0
LINE
  5
1BF
  8
2
  6
CONTINUOUS
 62
     7
 10
553.5669883744
 20
-394.1468009045001
 30
0.0
 11
553.5780325550999
 21
-394.1210262858
 31
0.0
  0
LINE
  5
1C0
  8
2
  6
CONTINUOUS
 62
     7
 10
546.3447667137
 20
-393.8392558753
 30
0.0
 11
546.3686846256
 21
-393.8229654770001
 31
0.0
  0
LINE
  5
1C1
  8
2
  6
CONTINUOUS
 62
     7
 10
540.7409693475997
 20
-393.8438676952999
 30
0.0
 11
540.7892171381
 21
-393.9503246551999
 31
0.0
  0
LINE
  5
1C2
  8
2
  6
CONTINUOUS
 62
     7
 10
546.81442304
 20
-393.7101717926001
 30
0.0
 11
546.8446637090999
 21
-393.7121376521001
 31
0.0
  0
LINE
  5
1C3
  8
2
  6
CONTINUOUS
 62
     7
 10
547.3634186310999
 20
-394.0164788185999
 30
0.0
 11
547.3805398433
 21
-394.0429720076
 31
0.0
  0
LINE
  5
1C4
  8
2
  6
CONTINUOUS
 62
     7
 10
559.8621980551
 20
-397.2948579148
 30
0.0
 11
559.9076204175
 21
-397.2863572602
 31
0.0
  0
LINE
  5
1C5
  8
2
  6
CONTINUOUS
 62
     7
 10
559.9876794528001
 20
-396.8441661717001
 30
0.0
 11
559.9639410036
 21
-396.8763040982
 31
0.0
  0
LINE
  5
1C6
  8
2
  6
CONTINUOUS
 62
     7
 10
547.1909792974
 20
-393.8398592003999
 30
0.0
 11
547.2167170537
 21
-393.8591432927999
 31
0.0
  0
ARC
  5
1C7
  8
1
  6
CONTINUOUS
 62
     7
 10
541.9999999999998
 20
-226.7500000000001
 30
0.0
 40
1.030668528585355
 50
60.02145438351382
 51
119.9785456164862
  0
LINE
  5
1C8
  8
1
  6
CONTINUOUS
 62
     7
 10
542.515
 20
-227.265
 30
0.0
 11
544.1902682484115
 21
-227.265
 31
0.0
  0
LINE
  5
1C9
  8
2
  6
CONTINUOUS
 62
     7
 10
546.7841838119
 20
-393.7095161665
 30
0.0
 11
546.81442304
 21
-393.7101717926
 31
0.0
  0
LINE
  5
1CA
  8
2
  6
CONTINUOUS
 62
     7
 10
547.4100384715
 20
-394.0959843402
 30
0.0
 11
547.4225602646001
 21
-394.1223422405
 31
0.0
  0
CIRCLE
  5
1CB
  8
1
  6
CONTINUOUS
 62
     7
 10
541.9999999999998
 20
-226.7500000000001
 30
0.0
 40
4.199999999999982
  0
LINE
  5
1CC
  8
2
  6
CONTINUOUS
 62
     7
 10
546.0979977315999
 20
-394.1566476013
 30
0.0
 11
546.1081569247999
 21
-394.1318483048
 31
0.0
  0
LINE
  5
1CD
  8
2
  6
CONTINUOUS
 62
     7
 10
546.6841509201
 20
-393.7127104526
 30
0.0
 11
546.7174217609
 21
-393.7103171254001
 31
0.0
  0
LINE
  5
1CE
  8
1
  6
CONTINUOUS
 62
     7
 10
542.515
 20
-226.2350000000001
 30
0.0
 11
542.515
 21
-224.5597317515884
 31
0.0
  0
LINE
  5
1CF
  8
2
  6
CONTINUOUS
 62
     7
 10
546.0802894645
 20
-394.2082434211
 30
0.0
 11
546.0887819141999
 21
-394.1818550008
 31
0.0
  0
LINE
  5
1D0
  8
2
  6
CONTINUOUS
 62
     7
 10
546.3686846255999
 20
-393.822965477
 30
0.0
 11
546.3932153029
 21
-393.8077009694001
 31
0.0
  0
LINE
  5
1D1
  8
2
  6
CONTINUOUS
 62
     7
 10
547.241582775
 20
-393.8796235465999
 30
0.0
 11
547.2639384970998
 21
-393.8997794717999
 31
0.0
  0
LINE
  5
1D2
  8
2
  6
CONTINUOUS
 62
     7
 10
546.0538827199998
 20
-394.3431629022
 30
0.0
 11
546.0569733944999
 21
-394.3162243164
 31
0.0
  0
LINE
  5
1D3
  8
2
  6
CONTINUOUS
 62
     7
 10
546.3159474047
 20
-393.8609297634999
 30
0.0
 11
546.3447667137
 21
-393.8392558753
 31
0.0
  0
LINE
  5
1D4
  8
2
  6
CONTINUOUS
 62
     7
 10
560.3588282623
 20
-397.0726409049001
 30
0.0
 11
560.3816623088001
 21
-397.0534857259
 31
0.0
  0
LINE
  5
1D5
  8
2
  6
CONTINUOUS
 62
     7
 10
546.9961476937
 20
-393.7423822975001
 30
0.0
 11
547.0259173063001
 21
-393.7525801592001
 31
0.0
  0
LINE
  5
1D6
  8
2
  6
CONTINUOUS
 62
     7
 10
547.4745396280999
 20
-394.29371959
 30
0.0
 11
547.4794238387
 21
-394.3280431741999
 31
0.0
  0
LINE
  5
1D7
  8
2
  6
CONTINUOUS
 62
     7
 10
553.539688239
 20
-394.228286012
 30
0.0
 11
553.5477715141999
 21
-394.2004406206
 31
0.0
  0
LINE
  5
1D8
  8
2
  6
CONTINUOUS
 62
     7
 10
547.1372392158
 20
-393.8050727185
 30
0.0
 11
547.1644573901
 21
-393.8218195741
 31
0.0
  0
LINE
  5
1D9
  8
1
  6
CONTINUOUS
 62
     7
 10
588.515
 20
-228.9402682484117
 30
0.0
 11
588.515
 21
-227.265
 31
0.0
  0
LINE
  5
1DA
  8
2
  6
CONTINUOUS
 62
     7
 10
547.0825979882999
 20
-393.7763160691
 30
0.0
 11
547.1102140931999
 21
-393.7900804988
 31
0.0
  0
LINE
  5
1DB
  8
2
  6
CONTINUOUS
 62
     7
 10
546.5855101959999
 20
-393.7293014062
 30
0.0
 11
546.6180981877
 21
-393.7222169169
 31
0.0
  0
LINE
  5
1DC
  8
2
  6
CONTINUOUS
 62
     7
 10
559.9125135057001
 20
-396.9379148639999
 30
0.0
 11
559.8846886871
 21
-396.9675232225999
 31
0.0
  0
LINE
  5
1DD
  8
2
  6
CONTINUOUS
 62
     7
 10
554.552662339
 20
-393.7786837042999
 30
0.0
 11
554.5804790361
 21
-393.7928316422999
 31
0.0
  0
LINE
  5
1DE
  8
1
  6
CONTINUOUS
 62
     7
 10
542.515
 20
-228.9402682484117
 30
0.0
 11
542.515
 21
-227.265
 31
0.0
  0
ARC
  5
1DF
  8
1
  6
CONTINUOUS
 62
     7
 10
541.9999999999998
 20
-226.7500000000001
 30
0.0
 40
2.249999999999974
 50
346.7683351757007
 51
13.23166482429929
  0
LINE
  5
1E0
  8
2
  6
CONTINUOUS
 62
     7
 10
554.0445107613
 20
-393.7308008721999
 30
0.0
 11
554.0783497953
 21
-393.7231534618001
 31
0.0
  0
LINE
  5
1E1
  8
2
  6
CONTINUOUS
 62
     7
 10
560.1029492485999
 20
-396.628449904
 30
0.0
 11
560.0922561926999
 21
-396.6553664042
 31
0.0
  0
LINE
  5
1E2
  8
2
  6
CONTINUOUS
 62
     7
 10
547.0259173063
 20
-393.7525801592
 30
0.0
 11
547.0544720198
 21
-393.7638068243
 31
0.0
  0
LINE
  5
1E3
  8
2
  6
CONTINUOUS
 62
     7
 10
547.3061377477
 20
-393.9430827167999
 30
0.0
 11
547.325848124
 21
-393.9661204368999
 31
0.0
  0
ARC
  5
1E4
  8
2
  6
CONTINUOUS
 62
     7
 10
539.5594462706999
 20
-394.3684022759
 30
0.0
 40
1.298893869099982
 50
358.7252041117
 51
18.77617583099999
  0
ARC
  5
1E5
  8
1
  6
CONTINUOUS
 62
     7
 10
541.9999999999998
 20
-226.7500000000001
 30
0.0
 40
1.030668528585355
 50
330.0214543835138
 51
29.97854561648614
  0
LINE
  5
1E6
  8
2
  6
CONTINUOUS
 62
     7
 10
559.9388532730999
 20
-396.9075912585
 30
0.0
 11
559.9125135057
 21
-396.9379148639999
 31
0.0
  0
LINE
  5
1E7
  8
2
  6
CONTINUOUS
 62
     7
 10
546.8748297291999
 20
-393.7154122168
 30
0.0
 11
546.9048450103999
 21
-393.7199939586
 31
0.0
  0
ARC
  5
1E8
  8
1
  6
CONTINUOUS
 62
     7
 10
588.0000000000001
 20
-226.7500000000001
 30
0.0
 40
2.250000000000085
 50
256.7683351757007
 51
283.2316648242992
  0
LINE
  5
1E9
  8
2
  6
CONTINUOUS
 62
     7
 10
546.1311739827999
 20
-394.0837019495
 30
0.0
 11
546.1443427990998
 21
-394.0598072587001
 31
0.0
  0
LINE
  5
1EA
  8
2
  6
CONTINUOUS
 62
     7
 10
560.0100417269999
 20
-396.8112124964
 30
0.0
 11
559.9876794528001
 21
-396.8441661717
 31
0.0
  0
LINE
  5
1EB
  8
2
  6
CONTINUOUS
 62
     7
 10
546.4705950695001
 20
-393.7680148099
 30
0.0
 11
546.4977891530001
 21
-393.7568153563
 31
0.0
  0
LINE
  5
1EC
  8
2
  6
CONTINUOUS
 62
     7
 10
546.3932153028999
 20
-393.8077009694
 30
0.0
 11
546.4182988938999
 21
-393.7934889280999
 31
0.0
  0
ARC
  5
1ED
  8
1
  6
CONTINUOUS
 62
     7
 10
541.9999999999998
 20
-226.7500000000001
 30
0.0
 40
2.249999999999974
 50
256.7683351757007
 51
283.2316648242992
  0
ARC
  5
1EE
  8
1
  6
CONTINUOUS
 62
     7
 10
541.9999999999998
 20
-226.7500000000001
 30
0.0
 40
1.030668528585355
 50
240.0214543835139
 51
299.9785456164861
  0
LINE
  5
1EF
  8
2
  6
CONTINUOUS
 62
     7
 10
546.0508329313
 20
-394.397299482
 30
0.0
 11
545.9999999999999
 21
-397.3095161664999
 31
0.0
  0
LINE
  5
1F0
  8
2
  6
CONTINUOUS
 62
     7
 10
553.4650898701
 20
-397.3095161665
 30
0.0
 11
547.5349101298999
 21
-397.3095161665
 31
0.0
  0
LINE
  5
1F1
  8
2
  6
CONTINUOUS
 62
     7
 10
546.1192266297
 20
-394.1075140934
 30
0.0
 11
546.1311739827999
 21
-394.0837019494999
 31
0.0
  0
LINE
  5
1F2
  8
2
  6
CONTINUOUS
 62
     7
 10
546.7841838119
 20
-393.7095161665
 30
0.0
 11
546.7507263179
 21
-393.7095161665
 31
0.0
  0
LINE
  5
1F3
  8
2
  6
CONTINUOUS
 62
     7
 10
559.9639410036
 20
-396.8763040982
 30
0.0
 11
559.9388532730999
 21
-396.9075912585
 31
0.0
  0
LINE
  5
1F4
  8
2
  6
CONTINUOUS
 62
     7
 10
560.3968918406
 20
-393.7127104526
 30
0.0
 11
560.4222484627
 21
-393.7095161665001
 31
0.0
  0
LINE
  5
1F5
  8
2
  6
CONTINUOUS
 62
     7
 10
546.2881186579999
 20
-393.8842139447
 30
0.0
 11
546.3159474047001
 21
-393.8609297635
 31
0.0
  0
LINE
  5
1F6
  8
2
  6
CONTINUOUS
 62
     7
 10
554.9369755962999
 20
-394.2788997093999
 30
0.0
 11
554.942027164
 21
-394.3090541673
 31
0.0
  0
LINE
  5
1F7
  8
2
  6
CONTINUOUS
 62
     7
 10
540.2969948803998
 20
-395.3095161665
 30
0.0
 11
540.318295745
 21
-394.397299482
 31
0.0
  0
LINE
  5
1F8
  8
2
  6
CONTINUOUS
 62
     7
 10
546.0887819141999
 20
-394.1818550008
 30
0.0
 11
546.0979977315999
 21
-394.1566476013
 31
0.0
  0
LINE
  5
1F9
  8
2
  6
CONTINUOUS
 62
     7
 10
559.7942762524
 20
-397.0499161792
 30
0.0
 11
559.7616910258
 21
-397.0753520357999
 31
0.0
  0
LINE
  5
1FA
  8
2
  6
CONTINUOUS
 62
     7
 10
547.3805398433001
 20
-394.0429720076
 30
0.0
 11
547.3964669831
 21
-394.0702385246
 31
0.0
  0
LINE
  5
1FB
  8
2
  6
CONTINUOUS
 62
     7
 10
554.661626108
 20
-393.8438676952999
 30
0.0
 11
554.6874349456001
 21
-393.8636126691
 31
0.0
  0
LINE
  5
1FC
  8
2
  6
CONTINUOUS
 62
     7
 10
560.1631214464
 20
-396.2920637601
 30
0.0
 11
560.162981627
 21
-396.3210282996
 31
0.0
  0
LINE
  5
1FD
  8
2
  6
CONTINUOUS
 62
     7
 10
553.4650898702
 20
-397.3095161665
 30
0.0
 11
553.5159228014
 21
-394.397299482
 31
0.0
  0
LINE
  5
1FE
  8
2
  6
CONTINUOUS
 62
     7
 10
560.1619178339
 20
-396.3499736496
 30
0.0
 11
560.1599216323
 21
-396.3789885545
 31
0.0
  0
LINE
  5
1FF
  8
2
  6
CONTINUOUS
 62
     7
 10
559.2741549845998
 20
-397.2875524717
 30
0.0
 11
559.2279518267999
 21
-397.2954041088001
 31
0.0
  0
LINE
  5
200
  8
2
  6
CONTINUOUS
 62
     7
 10
546.4182988939
 20
-393.7934889281
 30
0.0
 11
546.4438755469
 21
-393.7803559291
 31
0.0
  0
LINE
  5
201
  8
2
  6
CONTINUOUS
 62
     7
 10
560.1250655752
 20
-396.5630196341999
 30
0.0
 11
560.112809539
 21
-396.6012174615
 31
0.0
  0
LINE
  5
202
  8
2
  6
CONTINUOUS
 62
     7
 10
546.1733081453999
 20
-394.0138072687
 30
0.0
 11
546.1890203411
 21
-393.9918004789999
 31
0.0
  0
LINE
  5
203
  8
2
  6
CONTINUOUS
 62
     7
 10
560.4348265085998
 20
-393.7095161665
 30
0.0
 11
560.4222484626999
 21
-393.7095161665
 31
0.0
  0
ARC
  5
204
  8
2
  6
CONTINUOUS
 62
     7
 10
540.8500000000001
 20
-396.3095161664999
 30
0.0
 40
1.000000000000112
 50
226.3971810273
 51
270.0
  0
LINE
  5
205
  8
2
  6
CONTINUOUS
 62
     7
 10
554.7349761117999
 20
-393.9054434778
 30
0.0
 11
554.7567520224001
 21
-393.9273762808999
 31
0.0
  0
LINE
  5
206
  8
2
  6
CONTINUOUS
 62
     7
 10
554.607670425
 20
-393.8082244115
 30
0.0
 11
554.6350099148999
 21
-393.8253899407999
 31
0.0
  0
LINE
  5
207
  8
2
  6
CONTINUOUS
 62
     7
 10
547.4619317058999
 20
-394.2344450111
 30
0.0
 11
547.4688770992
 21
-394.2639459962
 31
0.0
  0
LINE
  5
208
  8
2
  6
CONTINUOUS
 62
     7
 10
546.0569733944999
 20
-394.3162243163999
 30
0.0
 11
546.0610968165998
 21
-394.2894697132999
 31
0.0
  0
LINE
  5
209
  8
2
  6
CONTINUOUS
 62
     7
 10
559.3442074652999
 20
-397.2721665135
 30
0.0
 11
559.6295324532998
 21
-397.3095161665
 31
0.0
  0
LINE
  5
20A
  8
2
  6
CONTINUOUS
 62
     7
 10
560.0922561927
 20
-396.6553664042
 30
0.0
 11
560.0806998044001
 21
-396.6820429734
 31
0.0
  0
LINE
  5
20B
  8
2
  6
CONTINUOUS
 62
     7
 10
554.7123523691
 20
-393.8845798565
 30
0.0
 11
554.7349761118
 21
-393.9054434777999
 31
0.0
  0
LINE
  5
20C
  8
2
  6
CONTINUOUS
 62
     7
 10
554.4954575166
 20
-393.7542349141999
 30
0.0
 11
554.5242964577
 21
-393.7658087455
 31
0.0
  0
LINE
  5
20D
  8
2
  6
CONTINUOUS
 62
     7
 10
560.112809539
 20
-396.6012174615
 30
0.0
 11
560.1029492486
 21
-396.628449904
 31
0.0
  0
LINE
  5
20E
  8
2
  6
CONTINUOUS
 62
     7
 10
547.2167170537
 20
-393.8591432927999
 30
0.0
 11
547.241582775
 21
-393.8796235465999
 31
0.0
  0
LINE
  5
20F
  8
1
  6
CONTINUOUS
 62
     7
 10
684.4181933245286
 20
-232.25
 30
0.0
 11
656.0181933245286
 21
-232.25
 31
0.0
  0
LINE
  5
210
  8
2
  6
CONTINUOUS
 62
     7
 10
559.8255197093999
 20
-397.0235587879
 30
0.0
 11
559.7942762524
 21
-397.0499161792
 31
0.0
  0
LINE
  5
211
  8
2
  6
CONTINUOUS
 62
     7
 10
554.942027164
 20
-394.3090541673
 30
0.0
 11
554.9456443925
 21
-394.3383429348
 31
0.0
  0
LINE
  5
212
  8
2
  6
CONTINUOUS
 62
     7
 10
559.4094974465
 20
-397.2539193388
 30
0.0
 11
559.3650232572
 21
-397.2667812988
 31
0.0
  0
LINE
  5
213
  8
1
  6
CONTINUOUS
 62
     7
 10
521.5999999999999
 20
-299.4181933245284
 30
0.0
 11
608.3999999999997
 21
-299.4181933245284
 31
0.0
  0
LINE
  5
214
  8
2
  6
CONTINUOUS
 62
     7
 10
546.0610968166
 20
-394.2894697133
 30
0.0
 11
546.0664223445
 21
-394.2621242675
 31
0.0
  0
LINE
  5
215
  8
2
  6
CONTINUOUS
 62
     7
 10
554.5242964577
 20
-393.7658087455
 30
0.0
 11
554.552662339
 21
-393.7786837042999
 31
0.0
  0
LINE
  5
216
  8
2
  6
CONTINUOUS
 62
     7
 10
546.0508329313
 20
-394.397299482
 30
0.0
 11
546.0518331224999
 21
-394.3702123357999
 31
0.0
  0
LINE
  5
217
  8
2
  6
CONTINUOUS
 62
     7
 10
554.3111966787
 20
-393.7122644329
 30
0.0
 11
554.3419973136001
 21
-393.7156867935001
 31
0.0
  0
LINE
  5
218
  8
2
  6
CONTINUOUS
 62
     7
 10
546.525393477
 20
-393.7467774488999
 30
0.0
 11
546.5533437207998
 21
-393.7379209682
 31
0.0
  0
LINE
  5
219
  8
2
  6
CONTINUOUS
 62
     7
 10
546.497789153
 20
-393.7568153562999
 30
0.0
 11
546.5253934769999
 21
-393.7467774488999
 31
0.0
  0
LINE
  5
21A
  8
2
  6
CONTINUOUS
 62
     7
 10
540.463174216
 20
-393.7687653468
 30
0.0
 11
540.5523396473
 21
-393.7103713256999
 31
0.0
  0
LINE
  5
21B
  8
2
  6
CONTINUOUS
 62
     7
 10
554.9140816091
 20
-394.1903577302
 30
0.0
 11
554.9229728563
 21
-394.2194530363
 31
0.0
  0
LINE
  5
21C
  8
2
  6
CONTINUOUS
 62
     7
 10
546.1081569247999
 20
-394.1318483047999
 30
0.0
 11
546.1192266297
 21
-394.1075140933999
 31
0.0
  0
LINE
  5
21D
  8
2
  6
CONTINUOUS
 62
     7
 10
559.8557333532
 20
-396.9960276666
 30
0.0
 11
559.8255197094
 21
-397.0235587879
 31
0.0
  0
LINE
  5
21E
  8
2
  6
CONTINUOUS
 62
     7
 10
546.6180981877
 20
-393.7222169169
 30
0.0
 11
546.6510107456999
 21
-393.7166818245
 31
0.0
  0
LINE
  5
21F
  8
2
  6
CONTINUOUS
 62
     7
 10
546.1584015756999
 20
-394.0364926134999
 30
0.0
 11
546.1733081453999
 21
-394.0138072687
 31
0.0
  0
LINE
  5
220
  8
2
  6
CONTINUOUS
 62
     7
 10
540.5777515373001
 20
-393.7095161665
 30
0.0
 11
540.5651734913998
 21
-393.7095161665
 31
0.0
  0
LINE
  5
221
  8
2
  6
CONTINUOUS
 62
     7
 10
554.8169556954
 20
-393.9999656047
 30
0.0
 11
554.8353104261
 21
-394.0266960549
 31
0.0
  0
LINE
  5
222
  8
2
  6
CONTINUOUS
 62
     7
 10
559.4523335787
 20
-397.2397628272
 30
0.0
 11
559.4094974464999
 21
-397.2539193388
 31
0.0
  0
LINE
  5
223
  8
2
  6
CONTINUOUS
 62
     7
 10
554.5804790361
 20
-393.7928316423
 30
0.0
 11
554.6076704249999
 21
-393.8082244115
 31
0.0
  0
LINE
  5
224
  8
2
  6
CONTINUOUS
 62
     7
 10
540.6734570423998
 20
-393.7542349141999
 30
0.0
 11
540.7409693475997
 21
-393.8438676952999
 31
0.0
  0
LINE
  5
225
  8
2
  6
CONTINUOUS
 62
     7
 10
559.3200298032998
 20
-397.2779682975
 30
0.0
 11
559.2741549845998
 21
-397.2875524716999
 31
0.0
  0
ARC
  5
226
  8
2
  6
CONTINUOUS
 62
     7
 10
541.9589721136
 20
-394.4040860819999
 30
0.0
 40
1.640690404799861
 50
160.5078515274
 51
179.7629993774
  0
LINE
  5
227
  8
2
  6
CONTINUOUS
 62
     7
 10
559.7616910257999
 20
-397.0753520358001
 30
0.0
 11
559.7281206815998
 21
-397.0995745596001
 31
0.0
  0
LINE
  5
228
  8
2
  6
CONTINUOUS
 62
     7
 10
554.4347463697999
 20
-393.7345393066
 30
0.0
 11
554.4653247951999
 21
-393.7436945092
 31
0.0
  0
LINE
  5
229
  8
2
  6
CONTINUOUS
 62
     7
 10
547.1102140932
 20
-393.7900804988001
 30
0.0
 11
547.1372392158
 21
-393.8050727185001
 31
0.0
  0
LINE
  5
22A
  8
2
  6
CONTINUOUS
 62
     7
 10
554.4038055925
 20
-393.7267889562
 30
0.0
 11
554.4347463698
 21
-393.7345393066001
 31
0.0
  0
LINE
  5
22B
  8
2
  6
CONTINUOUS
 62
     7
 10
541.3704675467003
 20
-397.3095161665
 30
0.0
 11
541.6558886124
 21
-397.2721409289
 31
0.0
  0
LINE
  5
22C
  8
2
  6
CONTINUOUS
 62
     7
 10
559.8846886870999
 20
-396.9675232225999
 30
0.0
 11
559.8557333532
 21
-396.9960276666
 31
0.0
  0
LINE
  5
22D
  8
2
  6
CONTINUOUS
 62
     7
 10
546.9048450104
 20
-393.7199939585999
 30
0.0
 11
546.9355254235999
 21
-393.7260748863999
 31
0.0
  0
LINE
  5
22E
  8
2
  6
CONTINUOUS
 62
     7
 10
546.6510107456999
 20
-393.7166818244999
 30
0.0
 11
546.6841509200999
 21
-393.7127104526
 31
0.0
  0
LINE
  5
22F
  8
2
  6
CONTINUOUS
 62
     7
 10
536.8500000000001
 20
-392.6095161665
 30
0.0
 11
536.8500000000001
 21
-393.6095161665
 31
0.0
  0
LINE
  5
230
  8
2
  6
CONTINUOUS
 62
     7
 10
546.2358950608999
 20
-393.935282562
 30
0.0
 11
546.2613960259998
 21
-393.9090257628
 31
0.0
  0
LINE
  5
231
  8
2
  6
CONTINUOUS
 62
     7
 10
554.7776100439
 20
-393.9503246552
 30
0.0
 11
554.7974801189998
 21
-393.9742349902
 31
0.0
  0
LINE
  5
232
  8
2
  6
CONTINUOUS
 62
     7
 10
554.9491670686999
 20
-394.397299482
 30
0.0
 11
555.0
 21
-397.3095161664999
 31
0.0
  0
LINE
  5
233
  8
2
  6
CONTINUOUS
 62
     7
 10
540.4123142279997
 20
-393.8566243122
 30
0.0
 11
540.463174216
 21
-393.7687653468
 31
0.0
  0
LINE
  5
234
  8
2
  6
CONTINUOUS
 62
     7
 10
554.3419973136
 20
-393.7156867935
 30
0.0
 11
554.3725858157001
 21
-393.7204631078
 31
0.0
  0
LINE
  5
235
  8
1
  6
CONTINUOUS
 62
     7
 10
522.9317672554587
 20
-268.9181933245284
 30
0.0
 11
526.0000000000001
 21
-268.9181933245284
 31
0.0
  0
LINE
  5
236
  8
2
  6
CONTINUOUS
 62
     7
 10
554.8934054837999
 20
-394.1354963392999
 30
0.0
 11
554.9043102134999
 21
-394.162690288
 31
0.0
  0
LINE
  5
237
  8
1
  6
CONTINUOUS
 62
     7
 10
516.5
 20
-258.8181933245285
 30
0.0
 11
514.0
 21
-258.8181933245285
 31
0.0
  0
LINE
  5
238
  8
2
  6
CONTINUOUS
 62
     7
 10
546.5533437207998
 20
-393.7379209682001
 30
0.0
 11
546.5855101959999
 21
-393.7293014062001
 31
0.0
  0
LINE
  5
239
  8
2
  6
CONTINUOUS
 62
     7
 10
559.039040533
 20
-397.3095161665
 30
0.0
 11
555.0
 21
-397.3095161665
 31
0.0
  0
LINE
  5
23A
  8
1
  6
CONTINUOUS
 62
     7
 10
572.0000000000001
 20
-264.0181933245285
 30
0.0
 11
603.9999999999999
 21
-264.0181933245285
 31
0.0
  0
LINE
  5
23B
  8
2
  6
CONTINUOUS
 62
     7
 10
554.9306141729
 20
-394.2489998475999
 30
0.0
 11
554.9369755963
 21
-394.2788997093999
 31
0.0
  0
LINE
  5
23C
  8
2
  6
CONTINUOUS
 62
     7
 10
554.8353104261
 20
-394.0266960549001
 30
0.0
 11
554.8524714254999
 21
-394.0543443088001
 31
0.0
  0
LINE
  5
23D
  8
2
  6
CONTINUOUS
 62
     7
 10
560.1629816269999
 20
-396.3210282996001
 30
0.0
 11
560.1619178339
 21
-396.3499736496001
 31
0.0
  0
LINE
  5
23E
  8
2
  6
CONTINUOUS
 62
     7
 10
554.9480273554999
 20
-394.3677896815
 30
0.0
 11
554.9491670686999
 21
-394.397299482
 31
0.0
  0
LINE
  5
23F
  8
1
  6
CONTINUOUS
 62
     7
 10
603.9999999999999
 20
-265.0181933245285
 30
0.0
 11
603.9999999999999
 21
-264.0181933245285
 31
0.0
  0
LINE
  5
240
  8
1
  6
CONTINUOUS
 62
     7
 10
615.9999999999999
 20
-258.8181933245285
 30
0.0
 11
615.9999999999999
 21
-260.4181933245285
 31
0.0
  0
LINE
  5
241
  8
1
  6
CONTINUOUS
 62
     7
 10
684.4181933245286
 20
-223.3500000000001
 30
0.0
 11
650.0181933245287
 21
-223.3500000000001
 31
0.0
  0
LINE
  5
242
  8
2
  6
CONTINUOUS
 62
     7
 10
554.8814098664
 20
-394.1088507370999
 30
0.0
 11
554.8934054837999
 21
-394.1354963392999
 31
0.0
  0
LINE
  5
243
  8
2
  6
CONTINUOUS
 62
     7
 10
560.1356264686999
 20
-396.5244740726001
 30
0.0
 11
560.1250655751999
 21
-396.5630196342
 31
0.0
  0
LINE
  5
244
  8
2
  6
CONTINUOUS
 62
     7
 10
559.2279518268
 20
-397.2954041088
 30
0.0
 11
559.1812234961002
 21
-397.3015530311001
 31
0.0
  0
LINE
  5
245
  8
1
  6
CONTINUOUS
 62
     7
 10
557.9999999999999
 20
-262.4181933245285
 30
0.0
 11
526.0000000000001
 21
-262.4181933245285
 31
0.0
  0
LINE
  5
246
  8
1
  6
CONTINUOUS
 62
     7
 10
607.0682327445412
 20
-268.9181933245285
 30
0.0
 11
613.2373668677754
 21
-268.9181933245285
 31
0.0
  0
LINE
  5
247
  8
2
  6
CONTINUOUS
 62
     7
 10
547.1644573901
 20
-393.8218195741001
 30
0.0
 11
547.1909792974
 21
-393.8398592004
 31
0.0
  0
LINE
  5
248
  8
2
  6
CONTINUOUS
 62
     7
 10
546.1443427991
 20
-394.0598072586999
 30
0.0
 11
546.1584015756999
 21
-394.0364926134999
 31
0.0
  0
LINE
  5
249
  8
2
  6
CONTINUOUS
 62
     7
 10
559.6543107803999
 20
-397.1465886825999
 30
0.0
 11
559.6156290458
 21
-397.1681705840999
 31
0.0
  0
LINE
  5
24A
  8
2
  6
CONTINUOUS
 62
     7
 10
559.3650232571999
 20
-397.2667812988
 30
0.0
 11
559.3200298032999
 21
-397.2779682975
 31
0.0
  0
LINE
  5
24B
  8
2
  6
CONTINUOUS
 62
     7
 10
554.7974801189998
 20
-393.9742349901999
 30
0.0
 11
554.8169556953999
 21
-393.9999656046999
 31
0.0
  0
LINE
  5
24C
  8
2
  6
CONTINUOUS
 62
     7
 10
539.8947634804999
 20
-393.6095161665
 30
0.0
 11
539.8650898701001
 21
-395.3095161665
 31
0.0
  0
LINE
  5
24D
  8
2
  6
CONTINUOUS
 62
     7
 10
554.9456443925
 20
-394.3383429348
 30
0.0
 11
554.9480273555
 21
-394.3677896815
 31
0.0
  0
LINE
  5
24E
  8
2
  6
CONTINUOUS
 62
     7
 10
553.4999999999999
 20
-395.3095161665
 30
0.0
 11
547.4999999999999
 21
-395.3095161665
 31
0.0
  0
LINE
  5
24F
  8
2
  6
CONTINUOUS
 62
     7
 10
559.6917022480999
 20
-397.1237830232001
 30
0.0
 11
559.6543107803999
 21
-397.1465886826001
 31
0.0
  0
LINE
  5
250
  8
1
  6
CONTINUOUS
 62
     7
 10
522.9317672554587
 20
-268.9181933245285
 30
0.0
 11
516.7626331322246
 21
-268.9181933245285
 31
0.0
  0
LINE
  5
251
  8
1
  6
CONTINUOUS
 62
     7
 10
615.0000000000002
 20
-292.8181933245282
 30
0.0
 11
614.9999999999998
 21
-260.9181933245285
 31
0.0
  0
LINE
  5
252
  8
1
  6
CONTINUOUS
 62
     7
 10
516.5
 20
-258.8181933245285
 30
0.0
 11
516.5
 21
-260.4181933245285
 31
0.0
  0
LINE
  5
253
  8
1
  6
CONTINUOUS
 62
     7
 10
603.9999999999999
 20
-268.9181933245284
 30
0.0
 11
607.0682327445413
 21
-268.9181933245284
 31
0.0
  0
LINE
  5
254
  8
2
  6
CONTINUOUS
 62
     7
 10
559.1342979698999
 20
-397.3059528538999
 30
0.0
 11
559.0867360536998
 21
-397.3086247936999
 31
0.0
  0
LINE
  5
255
  8
2
  6
CONTINUOUS
 62
     7
 10
554.4653247951999
 20
-393.7436945092
 30
0.0
 11
554.4954575165999
 21
-393.7542349142001
 31
0.0
  0
LINE
  5
256
  8
2
  6
CONTINUOUS
 62
     7
 10
554.2492736820999
 20
-393.7095161665
 30
0.0
 11
554.2802625788999
 21
-393.7102046745
 31
0.0
  0
LINE
  5
257
  8
2
  6
CONTINUOUS
 62
     7
 10
559.5761448338999
 20
-397.1882477865
 30
0.0
 11
559.5356856963999
 21
-397.2069120872999
 31
0.0
  0
LINE
  5
258
  8
2
  6
CONTINUOUS
 62
     7
 10
546.7174217608999
 20
-393.7103171254001
 30
0.0
 11
546.7507263179
 21
-393.7095161665
 31
0.0
  0
LINE
  5
259
  8
1
  6
CONTINUOUS
 62
     7
 10
526.0000000000001
 20
-264.0181933245285
 30
0.0
 11
557.9999999999998
 21
-264.0181933245285
 31
0.0
  0
LINE
  5
25A
  8
1
  6
CONTINUOUS
 62
     7
 10
526.0000000000001
 20
-268.9181933245284
 30
0.0
 11
526.0000000000001
 21
-262.4181933245285
 31
0.0
  0
LINE
  5
25B
  8
2
  6
CONTINUOUS
 62
     7
 10
546.0
 20
-397.3095161665
 30
0.0
 11
541.9609594670001
 21
-397.3095161665
 31
0.0
  0
LINE
  5
25C
  8
2
  6
CONTINUOUS
 62
     7
 10
554.7567520224001
 20
-393.9273762808999
 30
0.0
 11
554.7776100439
 21
-393.9503246552
 31
0.0
  0
LINE
  5
25D
  8
1
  6
CONTINUOUS
 62
     7
 10
603.9999999999999
 20
-264.0181933245285
 30
0.0
 11
604.0
 21
-262.4181933245285
 31
0.0
  0
LINE
  5
25E
  8
1
  6
CONTINUOUS
 62
     7
 10
572.0000000000001
 20
-262.4181933245285
 30
0.0
 11
572.0000000000001
 21
-264.0181933245285
 31
0.0
  0
LINE
  5
25F
  8
2
  6
CONTINUOUS
 62
     7
 10
554.2802625789
 20
-393.7102046744999
 30
0.0
 11
554.3111966787
 21
-393.7122644328999
 31
0.0
  0
LINE
  5
260
  8
2
  6
CONTINUOUS
 62
     7
 10
560.6817042549999
 20
-394.397299482
 30
0.0
 11
560.7030051195998
 21
-395.3095161664999
 31
0.0
  0
LINE
  5
261
  8
2
  6
CONTINUOUS
 62
     7
 10
559.7281206815999
 20
-397.0995745595999
 30
0.0
 11
559.6917022480999
 21
-397.1237830231999
 31
0.0
  0
LINE
  5
262
  8
2
  6
CONTINUOUS
 62
     7
 10
554.9229728562999
 20
-394.2194530363
 30
0.0
 11
554.9306141729
 21
-394.2489998476
 31
0.0
  0
LINE
  5
263
  8
1
  6
CONTINUOUS
 62
     7
 10
557.9999999999999
 20
-264.0181933245285
 30
0.0
 11
557.9999999999999
 21
-262.4181933245285
 31
0.0
  0
LINE
  5
264
  8
2
  6
CONTINUOUS
 62
     7
 10
559.5356856964
 20
-397.2069120872999
 30
0.0
 11
559.4945488033999
 21
-397.2240320071
 31
0.0
  0
LINE
  5
265
  8
2
  6
CONTINUOUS
 62
     7
 10
559.0867360537
 20
-397.3086247937
 30
0.0
 11
559.0390405330002
 21
-397.3095161665
 31
0.0
  0
LINE
  5
266
  8
2
  6
CONTINUOUS
 62
     7
 10
559.1812234961001
 20
-397.3015530311001
 30
0.0
 11
559.1342979698999
 21
-397.3059528539001
 31
0.0
  0
LINE
  5
267
  8
1
  6
CONTINUOUS
 62
     7
 10
599.3468057179102
 20
-262.4181933245285
 30
0.0
 11
603.9999999999999
 21
-262.4181933245285
 31
0.0
  0
LINE
  5
268
  8
1
  6
CONTINUOUS
 62
     7
 10
617.9999999999999
 20
-258.8181933245285
 30
0.0
 11
617.9999999999999
 21
-260.4181933245285
 31
0.0
  0
LINE
  5
269
  8
1
  6
CONTINUOUS
 62
     7
 10
572.0000000000001
 20
-265.0181933245285
 30
0.0
 11
557.9999999999999
 21
-265.0181933245285
 31
0.0
  0
LINE
  5
26A
  8
2
  6
CONTINUOUS
 62
     7
 10
554.9043102134999
 20
-394.162690288
 30
0.0
 11
554.9140816091
 21
-394.1903577301999
 31
0.0
  0
LINE
  5
26B
  8
1
  6
CONTINUOUS
 62
     7
 10
603.9999999999999
 20
-265.0181933245285
 30
0.0
 11
603.9999999999999
 21
-268.9181933245284
 31
0.0
  0
LINE
  5
26C
  8
1
  6
CONTINUOUS
 62
     7
 10
514.0
 20
-258.8181933245285
 30
0.0
 11
514.0
 21
-260.4181933245285
 31
0.0
  0
LINE
  5
26D
  8
1
  6
CONTINUOUS
 62
     7
 10
684.4181933245286
 20
-146.65
 30
0.0
 11
650.0181933245287
 21
-146.65
 31
0.0
  0
LINE
  5
26E
  8
2
  6
CONTINUOUS
 62
     7
 10
554.3725858157001
 20
-393.7204631078
 30
0.0
 11
554.4038055925
 21
-393.7267889562
 31
0.0
  0
LINE
  5
26F
  8
1
  6
CONTINUOUS
 62
     7
 10
557.9999999999999
 20
-265.0181933245285
 30
0.0
 11
557.9999999999999
 21
-264.0181933245285
 31
0.0
  0
LINE
  5
270
  8
2
  6
CONTINUOUS
 62
     7
 10
554.6874349456
 20
-393.8636126691
 30
0.0
 11
554.7123523691
 21
-393.8845798565001
 31
0.0
  0
LINE
  5
271
  8
2
  6
CONTINUOUS
 62
     7
 10
559.4945488034
 20
-397.2240320071
 30
0.0
 11
559.4523335787
 21
-397.2397628272001
 31
0.0
  0
LINE
  5
272
  8
2
  6
CONTINUOUS
 62
     7
 10
540.5523396473
 20
-393.7103713257
 30
0.0
 11
540.5651734914
 21
-393.7095161665
 31
0.0
  0
LINE
  5
273
  8
1
  6
CONTINUOUS
 62
     7
 10
515.0703123465978
 20
-260.7098396437002
 30
0.0
 11
515.0787364429499
 21
-260.7292105806908
 31
0.0
  0
LINE
  5
274
  8
1
  6
CONTINUOUS
 62
     7
 10
515.1159898824598
 20
-262.4181933245285
 30
0.0
 11
515.5455107779416
 21
-262.4181933245285
 31
0.0
  0
LINE
  5
275
  8
1
  6
CONTINUOUS
 62
     7
 10
515.1156565660941
 20
-260.8999909259481
 30
0.0
 11
515.1159898824598
 21
-260.9181933245285
 31
0.0
  0
LINE
  5
276
  8
1
  6
CONTINUOUS
 62
     7
 10
515.0787364429499
 20
-260.7292105806908
 30
0.0
 11
515.086335439412
 21
-260.7489197847613
 31
0.0
  0
LINE
  5
277
  8
1
  6
CONTINUOUS
 62
     7
 10
576.6531942820898
 20
-262.4181933245285
 30
0.0
 11
599.3468057179102
 21
-262.4181933245285
 31
0.0
  0
LINE
  5
278
  8
1
  6
CONTINUOUS
 62
     7
 10
515.7007836025749
 20
-262.5851324415137
 30
0.0
 11
515.6433600868071
 21
-262.4854403832134
 31
0.0
  0
LINE
  5
279
  8
1
  6
CONTINUOUS
 62
     7
 10
557.9999999999999
 20
-262.4181933245285
 30
0.0
 11
553.3468057179102
 21
-262.4181933245285
 31
0.0
  0
LINE
  5
27A
  8
1
  6
CONTINUOUS
 62
     7
 10
614.9459307979976
 20
-260.6776649318298
 30
0.0
 11
614.9566108848377
 21
-260.6592298999128
 31
0.0
  0
LINE
  5
27B
  8
1
  6
CONTINUOUS
 62
     7
 10
514.0
 20
-258.8181933245285
 30
0.0
 11
512.0
 21
-258.8181933245285
 31
0.0
  0
LINE
  5
27C
  8
1
  6
CONTINUOUS
 62
     7
 10
515.0030593303335
 20
-260.6022775229426
 30
0.0
 11
515.0162755331532
 21
-260.619145605745
 31
0.0
  0
LINE
  5
27D
  8
1
  6
CONTINUOUS
 62
     7
 10
614.3681469723996
 20
-262.470823974261
 30
0.0
 11
614.3097442261801
 21
-262.5634392167259
 31
0.0
  0
LINE
  5
27E
  8
1
  6
CONTINUOUS
 62
     7
 10
526.0000000000001
 20
-262.4181933245285
 30
0.0
 11
526.0000000000001
 21
-264.0181933245285
 31
0.0
  0
LINE
  5
27F
  8
1
  6
CONTINUOUS
 62
     7
 10
514.8936447849766
 20
-260.5030057024586
 30
0.0
 11
514.9113630046622
 21
-260.5154051193791
 31
0.0
  0
LINE
  5
280
  8
1
  6
CONTINUOUS
 62
     7
 10
514.9599245810905
 20
-260.5559089812807
 30
0.0
 11
514.9748437138925
 21
-260.5706441246937
 31
0.0
  0
LINE
  5
281
  8
1
  6
CONTINUOUS
 62
     7
 10
514.832555688973
 20
-260.4681090203819
 30
0.0
 11
514.8383606674763
 21
-260.4709522194912
 31
0.0
  0
LINE
  5
282
  8
1
  6
CONTINUOUS
 62
     7
 10
614.4544892220581
 20
-262.4181933245285
 30
0.0
 11
614.88401011754
 21
-262.4181933245285
 31
0.0
  0
LINE
  5
283
  8
1
  6
CONTINUOUS
 62
     7
 10
516.7233309156447
 20
-260.9181933245285
 30
0.0
 11
516.7233309156447
 21
-262.4181933245285
 31
0.0
  0
LINE
  5
284
  8
1
  6
CONTINUOUS
 62
     7
 10
613.5
 20
-258.8181933245285
 30
0.0
 11
615.9999999999999
 21
-258.8181933245285
 31
0.0
  0
LINE
  5
285
  8
1
  6
CONTINUOUS
 62
     7
 10
612.8193472919818
 20
-262.4181933245285
 30
0.0
 11
614.4544892220581
 21
-262.4181933245285
 31
0.0
  0
LINE
  5
286
  8
1
  6
CONTINUOUS
 62
     7
 10
517.2729694189171
 20
-262.4711217429623
 30
0.0
 11
517.3354238278527
 21
-262.5642450656763
 31
0.0
  0
LINE
  5
287
  8
1
  6
CONTINUOUS
 62
     7
 10
514.9113630046622
 20
-260.5154051193791
 30
0.0
 11
514.9285310557932
 21
-260.5285557303821
 31
0.0
  0
LINE
  5
288
  8
1
  6
CONTINUOUS
 62
     7
 10
614.0768096208106
 20
-264.0181933245285
 30
0.0
 11
612.416387939251
 21
-264.0181933245285
 31
0.0
  0
LINE
  5
289
  8
1
  6
CONTINUOUS
 62
     7
 10
514.9748437138925
 20
-260.5706441246937
 30
0.0
 11
514.989133448154
 21
-260.5859904009597
 31
0.0
  0
ARC
  5
28A
  8
1
  6
CONTINUOUS
 62
     7
 10
513.8882171333495
 20
-263.9008384384387
 30
0.0
 40
3.697257881016602
 50
358.181065680934
 51
21.19292066167623
  0
LINE
  5
28B
  8
1
  6
CONTINUOUS
 62
     7
 10
515.0406489447615
 20
-260.6547726520968
 30
0.0
 11
515.0512415203916
 21
-260.6726038438956
 31
0.0
  0
LINE
  5
28C
  8
1
  6
CONTINUOUS
 62
     7
 10
517.5836120607489
 20
-268.9181933245285
 30
0.0
 11
517.5836120607489
 21
-264.0181933245285
 31
0.0
  0
LINE
  5
28D
  8
1
  6
CONTINUOUS
 62
     7
 10
614.9055061456453
 20
-260.773473758462
 30
0.0
 11
614.9121307108474
 21
-260.7532208430991
 31
0.0
  0
ARC
  5
28E
  8
1
  6
CONTINUOUS
 62
     7
 10
617.9852699496666
 20
-263.8979885716899
 30
0.0
 40
3.910308341402935
 50
160.0445092164694
 51
181.7615772432248
  0
LINE
  5
28F
  8
1
  6
CONTINUOUS
 62
     7
 10
515.1159898824598
 20
-260.9181933245285
 30
0.0
 11
514.9999999999999
 21
-260.9181933245285
 31
0.0
  0
LINE
  5
290
  8
1
  6
CONTINUOUS
 62
     7
 10
614.9363167622037
 20
-260.6960039229905
 30
0.0
 11
614.9459307979976
 21
-260.6776649318298
 31
0.0
  0
ARC
  5
291
  8
1
  6
CONTINUOUS
 62
     7
 10
612.0000000000001
 20
-136.0
 30
0.0
 40
8.000000000000007
 50
359.9999999999998
 51
90.0
  0
LINE
  5
292
  8
1
  6
CONTINUOUS
 62
     7
 10
515.0990879085166
 20
-260.7895622085392
 30
0.0
 11
515.1041923929258
 21
-260.8104489859097
 31
0.0
  0
LINE
  5
293
  8
1
  6
CONTINUOUS
 62
     7
 10
572.0000000000001
 20
-264.0181933245285
 30
0.0
 11
572.0000000000001
 21
-265.0181933245285
 31
0.0
  0
LINE
  5
294
  8
1
  6
CONTINUOUS
 62
     7
 10
515.0610849617793
 20
-260.6908592675552
 30
0.0
 11
515.0703123465978
 21
-260.7098396437002
 31
0.0
  0
LINE
  5
295
  8
1
  6
CONTINUOUS
 62
     7
 10
613.2766690843554
 20
-260.9181933245285
 30
0.0
 11
613.2766690843554
 21
-262.4181933245285
 31
0.0
  0
LINE
  5
296
  8
1
  6
CONTINUOUS
 62
     7
 10
517.5836120607489
 20
-264.0181933245285
 30
0.0
 11
515.9231903791895
 21
-264.0181933245285
 31
0.0
  0
LINE
  5
297
  8
1
  6
CONTINUOUS
 62
     7
 10
613.2373668677754
 20
-268.9181933245285
 30
0.0
 11
614.0768096208106
 21
-268.9181933245285
 31
0.0
  0
LINE
  5
298
  8
1
  6
CONTINUOUS
 62
     7
 10
515.6433600868071
 20
-262.4854403832134
 30
0.0
 11
515.5618368230945
 21
-262.4201804299923
 31
0.0
  0
LINE
  5
299
  8
1
  6
CONTINUOUS
 62
     7
 10
615.9999999999999
 20
-258.8181933245285
 30
0.0
 11
617.9999999999999
 21
-258.8181933245285
 31
0.0
  0
LINE
  5
29A
  8
1
  6
CONTINUOUS
 62
     7
 10
516.6626244613794
 20
-260.4181109408709
 30
0.0
 11
516.5
 21
-259.9779394837571
 31
0.0
  0
LINE
  5
29B
  8
1
  6
CONTINUOUS
 62
     7
 10
613.5
 20
-258.8181933245285
 30
0.0
 11
613.5
 21
-260.4181933245285
 31
0.0
  0
LINE
  5
29C
  8
1
  6
CONTINUOUS
 62
     7
 10
514.9285310557932
 20
-260.5285557303821
 30
0.0
 11
514.9445116920158
 21
-260.5419065568203
 31
0.0
  0
LINE
  5
29D
  8
1
  6
CONTINUOUS
 62
     7
 10
612.7137232846808
 20
-262.4870946208265
 30
0.0
 11
612.8016896488738
 21
-262.4202390002197
 31
0.0
  0
LINE
  5
29E
  8
1
  6
CONTINUOUS
 62
     7
 10
512.0000000000001
 20
-258.8181933245285
 30
0.0
 11
512.0000000000001
 21
-260.4181933245285
 31
0.0
  0
LINE
  5
29F
  8
1
  6
CONTINUOUS
 62
     7
 10
572.0000000000001
 20
-262.4181933245285
 30
0.0
 11
576.6531942820898
 21
-262.4181933245285
 31
0.0
  0
LINE
  5
2A0
  8
1
  6
CONTINUOUS
 62
     7
 10
514.9891334481541
 20
-260.5859904009597
 30
0.0
 11
515.0030593303335
 21
-260.6022775229426
 31
0.0
  0
LINE
  5
2A1
  8
1
  6
CONTINUOUS
 62
     7
 10
551.4974096628575
 20
-146.2197154233799
 30
0.0
 11
543.4017236153145
 21
-147.2091881625241
 31
0.0
  0
LINE
  5
2A2
  8
1
  6
CONTINUOUS
 62
     7
 10
615.0
 20
-260.9181933245285
 30
0.0
 11
614.8840101175401
 21
-260.9181933245285
 31
0.0
  0
LINE
  5
2A3
  8
1
  6
CONTINUOUS
 62
     7
 10
514.9445116920157
 20
-260.5419065568203
 30
0.0
 11
514.9599245810905
 21
-260.5559089812807
 31
0.0
  0
LINE
  5
2A4
  8
1
  6
CONTINUOUS
 62
     7
 10
515.0863354394119
 20
-260.7489197847613
 30
0.0
 11
515.0930875245604
 21
-260.7689149621454
 31
0.0
  0
LINE
  5
2A5
  8
1
  6
CONTINUOUS
 62
     7
 10
515.0162755331532
 20
-260.6191456057449
 30
0.0
 11
515.0288467741597
 21
-260.636696062366
 31
0.0
  0
LINE
  5
2A6
  8
1
  6
CONTINUOUS
 62
     7
 10
515.5455107779417
 20
-262.4181933245285
 30
0.0
 11
517.1806527080182
 21
-262.4181933245285
 31
0.0
  0
LINE
  5
2A7
  8
1
  6
CONTINUOUS
 62
     7
 10
514.9999999999999
 20
-284.4181933245285
 30
0.0
 11
514.9999999999999
 21
-260.9181933245285
 31
0.0
  0
LINE
  5
2A8
  8
1
  6
CONTINUOUS
 62
     7
 10
612.416387939251
 20
-268.9181933245285
 30
0.0
 11
612.4163879392509
 21
-264.0181933245285
 31
0.0
  0
ARC
  5
2A9
  8
1
  6
CONTINUOUS
 62
     7
 10
518.0
 20
-234.0
 30
0.0
 40
8.000000000000007
 50
180.0
 51
269.9999999999999
  0
ARC
  5
2AA
  8
1
  6
CONTINUOUS
 62
     7
 10
616.1929591279994
 20
-263.9068185246449
 30
0.0
 40
3.778213108035944
 50
159.5650312180036
 51
181.6892193061435
  0
ARC
  5
2AB
  8
1
  6
CONTINUOUS
 62
     7
 10
511.9300133225482
 20
-263.9041336228964
 30
0.0
 40
3.994805705065163
 50
358.3638684205344
 51
19.2796438909898
  0
LINE
  5
2AC
  8
1
  6
CONTINUOUS
 62
     7
 10
542.406904289599
 20
-139.0697573157644
 30
0.0
 11
550.5025903371426
 21
-138.0802845766203
 31
0.0
  0
LINE
  5
2AD
  8
1
  6
CONTINUOUS
 62
     7
 10
515.0512415203916
 20
-260.6726038438956
 30
0.0
 11
515.0610849617793
 21
-260.6908592675552
 31
0.0
  0
LINE
  5
2AE
  8
1
  6
CONTINUOUS
 62
     7
 10
614.88401011754
 20
-262.4181933245285
 30
0.0
 11
614.88401011754
 21
-260.9181933245285
 31
0.0
  0
LINE
  5
2AF
  8
1
  6
CONTINUOUS
 62
     7
 10
614.9680776635531
 20
-260.6412506119715
 30
0.0
 11
614.9802985072242
 21
-260.6237750770122
 31
0.0
  0
LINE
  5
2B0
  8
1
  6
CONTINUOUS
 62
     7
 10
516.7233309156447
 20
-260.9181933245285
 30
0.0
 11
516.6742987961153
 21
-260.4681311133111
 31
0.0
  0
LINE
  5
2B1
  8
1
  6
CONTINUOUS
 62
     7
 10
614.8844424172561
 20
-260.8974912956059
 30
0.0
 11
614.8857362888969
 21
-260.8768072369524
 31
0.0
  0
LINE
  5
2B2
  8
1
  6
CONTINUOUS
 62
     7
 10
519.0
 20
-216.6000000000001
 30
0.0
 11
564.9999999999999
 21
-216.6000000000001
 31
0.0
  0
LINE
  5
2B3
  8
2
  6
CONTINUOUS
 62
     7
 10
537.8500000000001
 20
-391.6095161665
 30
0.0
 11
563.15
 21
-391.6095161665
 31
0.0
  0
LINE
  5
2B4
  8
2
  6
CONTINUOUS
 62
     7
 10
546.0518331225
 20
-394.3702123358
 30
0.0
 11
546.0538827199999
 21
-394.3431629022
 31
0.0
  0
LINE
  5
2B5
  8
2
  6
CONTINUOUS
 62
     7
 10
560.0806998044
 20
-396.6820429733999
 30
0.0
 11
560.0683351081001
 21
-396.7083548136
 31
0.0
  0
LINE
  5
2B6
  8
2
  6
CONTINUOUS
 62
     7
 10
553.5569791369999
 20
-394.1730130161999
 30
0.0
 11
553.5669883744
 21
-394.1468009045
 31
0.0
  0
LINE
  5
2B7
  8
2
  6
CONTINUOUS
 62
     7
 10
554.1813604235
 20
-393.7103713257
 30
0.0
 11
554.2158161881001
 21
-393.7095161665
 31
0.0
  0
ARC
  5
2B8
  8
2
  6
CONTINUOUS
 62
     7
 10
549.4999999999999
 20
-351.5857864375999
 30
0.0
 40
0.500000000000056
 50
225.0
 51
0.0
  0
LINE
  5
2B9
  8
2
  6
CONTINUOUS
 62
     7
 10
546.1890203411
 20
-393.991800479
 30
0.0
 11
546.2117313151999
 21
-393.962901686
 31
0.0
  0
LINE
  5
2BA
  8
2
  6
CONTINUOUS
 62
     7
 10
560.1599216323
 20
-396.3789885545
 30
0.0
 11
560.1569995770999
 21
-396.4079249259
 31
0.0
  0
LINE
  5
2BB
  8
2
  6
CONTINUOUS
 62
     7
 10
553.6662978162
 20
-393.9758924136999
 30
0.0
 11
553.6842021758
 21
-393.9541222893998
 31
0.0
  0
LINE
  5
2BC
  8
2
  6
CONTINUOUS
 62
     7
 10
553.8329443453999
 20
-393.8235049446999
 30
0.0
 11
553.8574130835
 21
-393.8082305995
 31
0.0
  0
LINE
  5
2BD
  8
2
  6
CONTINUOUS
 62
     7
 10
560.1515882151
 20
-396.4468515092
 30
0.0
 11
560.1444961542
 21
-396.4855812831
 31
0.0
  0
LINE
  5
2BE
  8
2
  6
CONTINUOUS
 62
     7
 10
549.1464466094001
 20
-351.9393398281999
 30
0.0
 11
544.8854286851
 21
-347.6783219038999
 31
0.0
  0
LINE
  5
2BF
  8
2
  6
CONTINUOUS
 62
     7
 10
560.0503956605999
 20
-396.7432471922
 30
0.0
 11
560.0310236690999
 21
-396.7774398225001
 31
0.0
  0
LINE
  5
2C0
  8
2
  6
CONTINUOUS
 62
     7
 10
562.2738056718998
 20
-395.3095161665
 30
0.0
 11
560.4039453257998
 21
-397.0336540976
 31
0.0
  0
LINE
  5
2C1
  8
2
  6
CONTINUOUS
 62
     7
 10
553.5191958121
 20
-394.3408577602
 30
0.0
 11
553.5225336015
 21
-394.3127905863
 31
0.0
  0
LINE
  5
2C2
  8
2
  6
CONTINUOUS
 62
     7
 10
547.4703263896
 20
-364.1632730676999
 30
0.0
 11
547.4354162598
 21
-364.1163296941999
 31
0.0
  0
LINE
  5
2C3
  8
2
  6
CONTINUOUS
 62
     7
 10
540.974173355
 20
-397.2545643158999
 30
0.0
 11
541.0158356109999
 21
-397.2674205850999
 31
0.0
  0
LINE
  5
2C4
  8
2
  6
CONTINUOUS
 62
     7
 10
560.2843900413999
 20
-397.1278577362999
 30
0.0
 11
560.3222493702997
 21
-397.1010729784999
 31
0.0
  0
ARC
  5
2C5
  8
2
  6
CONTINUOUS
 62
     7
 10
550.4999999999999
 20
-354.0
 30
0.0
 40
7.750000000000035
 50
3.6990710632
 51
41.3009289368
  0
ARC
  5
2C6
  8
2
  6
CONTINUOUS
 62
     7
 10
537.8500000000001
 20
-392.6095161665
 30
0.0
 40
0.9999999999998899
 50
90.0
 51
180.0
  0
LINE
  5
2C7
  8
2
  6
CONTINUOUS
 62
     7
 10
541.0158356109999
 20
-397.2674205851
 30
0.0
 11
541.0579486437999
 21
-397.2785743088
 31
0.0
  0
LINE
  5
2C8
  8
2
  6
CONTINUOUS
 62
     7
 10
553.9610603389
 20
-393.7575218605999
 30
0.0
 11
553.9885614926
 21
-393.7474359873999
 31
0.0
  0
LINE
  5
2C9
  8
2
  6
CONTINUOUS
 62
     7
 10
560.1444961542
 20
-396.4855812831
 30
0.0
 11
560.1356264687
 21
-396.5244740726001
 31
0.0
  0
LINE
  5
2CA
  8
2
  6
CONTINUOUS
 62
     7
 10
553.5645837402
 20
-365.8238903262
 30
0.0
 11
553.5645837402
 21
-364.1163296942
 31
0.0
  0
LINE
  5
2CB
  8
2
  6
CONTINUOUS
 62
     7
 10
560.4348265085998
 20
-393.7095161665
 30
0.0
 11
560.5327714055999
 21
-393.7638068243
 31
0.0
  0
LINE
  5
2CC
  8
2
  6
CONTINUOUS
 62
     7
 10
554.1468883125
 20
-393.7129330321
 30
0.0
 11
554.1813604235
 21
-393.7103713257
 31
0.0
  0
ARC
  5
2CD
  8
2
  6
CONTINUOUS
 62
     7
 10
563.15
 20
-392.6095161665
 30
0.0
 40
1.000000000000001
 50
0.0
 51
90.0
  0
LINE
  5
2CE
  8
2
  6
CONTINUOUS
 62
     7
 10
541.1901158567999
 20
-397.3022027231999
 30
0.0
 11
541.2346685605
 21
-397.3064515728999
 31
0.0
  0
ARC
  5
2CF
  8
2
  6
CONTINUOUS
 62
     7
 10
550.4999999999999
 20
-354.0
 30
0.0
 40
8.45499999999999
 50
41.60974409309999
 51
48.39025590689999
  0
ARC
  5
2D0
  8
2
  6
CONTINUOUS
 62
     7
 10
550.4999999999999
 20
-354.0
 30
0.0
 40
7.750000000000035
 50
93.6990710632
 51
131.3009289368
  0
LINE
  5
2D1
  8
2
  6
CONTINUOUS
 62
     7
 10
598.4999999999999
 20
-414.9154326912999
 30
0.0
 11
598.4999999999999
 21
-416.9154326913001
 31
0.0
  0
LINE
  5
2D2
  8
2
  6
CONTINUOUS
 62
     7
 10
553.8574130834999
 20
-393.8082305995
 30
0.0
 11
553.8824502254998
 21
-393.793998501
 31
0.0
  0
LINE
  5
2D3
  8
2
  6
CONTINUOUS
 62
     7
 10
540.3367269322999
 20
-357.0296736104
 30
0.0
 11
540.3836703058001
 21
-357.0645837402
 31
0.0
  0
LINE
  5
2D4
  8
2
  6
CONTINUOUS
 62
     7
 10
547.4225602646
 20
-394.1223422405
 30
0.0
 11
547.4339938898999
 21
-394.1492410549
 31
0.0
  0
LINE
  5
2D5
  8
2
  6
CONTINUOUS
 62
     7
 10
561.1349101299
 20
-395.3095161665
 30
0.0
 11
561.1052365195001
 21
-393.6095161665
 31
0.0
  0
ARC
  5
2D6
  8
2
  6
CONTINUOUS
 62
     7
 10
550.4999999999999
 20
-354.0
 30
0.0
 40
8.45499999999999
 50
131.6097440931
 51
138.3902559069
  0
LINE
  5
2D7
  8
2
  6
CONTINUOUS
 62
     7
 10
541.3704675467003
 20
-397.3095161665
 30
0.0
 11
540.8500000000001
 21
-397.3095161665
 31
0.0
  0
LINE
  5
2D8
  8
2
  6
CONTINUOUS
 62
     7
 10
547.5349101298
 20
-397.3095161665
 30
0.0
 11
547.4840771987
 21
-394.397299482
 31
0.0
  0
LINE
  5
2D9
  8
2
  6
CONTINUOUS
 62
     7
 10
546.9355254235999
 20
-393.7260748863999
 30
0.0
 11
546.9659883587
 21
-393.7335424363
 31
0.0
  0
LINE
  5
2DA
  8
2
  6
CONTINUOUS
 62
     7
 10
553.7029420299
 20
-393.9331184075
 30
0.0
 11
553.7224647956999
 21
-393.9129263634001
 31
0.0
  0
LINE
  5
2DB
  8
2
  6
CONTINUOUS
 62
     7
 10
553.7865083170999
 20
-393.8566243122
 30
0.0
 11
553.8094261836999
 21
-393.8395651605
 31
0.0
  0
LINE
  5
2DC
  8
2
  6
CONTINUOUS
 62
     7
 10
560.1419813458998
 20
-394.397299482
 30
0.0
 11
560.1631214464
 21
-396.2920637600998
 31
0.0
  0
ARC
  5
2DD
  8
2
  6
CONTINUOUS
 62
     7
 10
550.4999999999999
 20
-354.0
 30
0.0
 40
10.57032638959998
 50
343.1466367937
 51
16.8533632063
  0
CIRCLE
  5
2DE
  8
2
  6
CONTINUOUS
 62
     7
 10
550.4999999999999
 20
-354.0
 30
0.0
 40
8.650000000000047
  0
LINE
  5
2DF
  8
2
  6
CONTINUOUS
 62
     7
 10
540.2969948803998
 20
-395.3095161665
 30
0.0
 11
538.3499999999999
 21
-395.3095161665
 31
0.0
  0
LINE
  5
2E0
  8
2
  6
CONTINUOUS
 62
     7
 10
547.0544720198
 20
-393.7638068243
 30
0.0
 11
547.0825979882999
 21
-393.7763160691001
 31
0.0
  0
LINE
  5
2E1
  8
2
  6
CONTINUOUS
 62
     7
 10
559.6156290457999
 20
-397.1681705841
 30
0.0
 11
559.5761448338998
 21
-397.1882477865
 31
0.0
  0
ARC
  5
2E2
  8
2
  6
CONTINUOUS
 62
     7
 10
559.1647163152
 20
-394.3821333623999
 30
0.0
 40
1.517063749799985
 50
359.4272032914
 51
20.16582513000003
  0
LINE
  5
2E3
  8
2
  6
CONTINUOUS
 62
     7
 10
554.8524714254999
 20
-394.0543443088
 30
0.0
 11
554.8683658080998
 21
-394.0828283345999
 31
0.0
  0
LINE
  5
2E4
  8
2
  6
CONTINUOUS
 62
     7
 10
554.2492736820999
 20
-393.7095161665
 30
0.0
 11
554.2158161881
 21
-393.7095161665
 31
0.0
  0
LINE
  5
2E5
  8
2
  6
CONTINUOUS
 62
     7
 10
547.3451668801999
 20
-393.9908359607999
 30
0.0
 11
547.3634186310999
 21
-394.0164788185999
 31
0.0
  0
LINE
  5
2E6
  8
2
  6
CONTINUOUS
 62
     7
 10
553.6842021758
 20
-393.9541222894
 30
0.0
 11
553.7029420299
 21
-393.9331184075
 31
0.0
  0
LINE
  5
2E7
  8
1
  6
CONTINUOUS
 62
     7
 10
530.8097317515884
 20
-228.3650000000001
 30
0.0
 11
532.4849999999999
 21
-228.3650000000001
 31
0.0
  0
LINE
  5
2E8
  8
1
  6
CONTINUOUS
 62
     7
 10
590.1902682484115
 20
-226.2350000000001
 30
0.0
 11
588.5149999999999
 21
-226.2350000000001
 31
0.0
  0
LINE
  5
2E9
  8
1
  6
CONTINUOUS
 62
     7
 10
533.515
 20
-227.3350000000001
 30
0.0
 11
533.515
 21
-225.6597317515884
 31
0.0
  0
LINE
  5
2EA
  8
1
  6
CONTINUOUS
 62
     7
 10
588.5150000000001
 20
-145.4402682484117
 30
0.0
 11
588.5150000000001
 21
-143.765
 31
0.0
  0
LINE
  5
2EB
  8
1
  6
CONTINUOUS
 62
     7
 10
532.4850000000001
 20
-228.3650000000001
 30
0.0
 11
532.4850000000001
 21
-230.0402682484116
 31
0.0
  0
LINE
  5
2EC
  8
1
  6
CONTINUOUS
 62
     7
 10
587.485
 20
-142.7350000000001
 30
0.0
 11
585.8097317515884
 21
-142.7350000000001
 31
0.0
  0
ARC
  5
2ED
  8
1
  6
CONTINUOUS
 62
     7
 10
541.9999999999998
 20
-143.2500000000001
 30
0.0
 40
1.030668528585355
 50
240.0214543835139
 51
299.9785456164861
  0
LINE
  5
2EE
  8
1
  6
CONTINUOUS
 62
     7
 10
533.515
 20
-228.3650000000001
 30
0.0
 11
535.1902682484115
 21
-228.3650000000001
 31
0.0
  0
ARC
  5
2EF
  8
1
  6
CONTINUOUS
 62
     7
 10
533.0
 20
-227.8500000000001
 30
0.0
 40
4.199999999999982
 50
289.4961621812306
 51
0.0
  0
ARC
  5
2F0
  8
1
  6
CONTINUOUS
 62
     7
 10
588.0000000000001
 20
-143.2500000000001
 30
0.0
 40
1.030668528585466
 50
150.0214543835138
 51
209.9785456164862
  0
LINE
  5
2F1
  8
1
  6
CONTINUOUS
 62
     7
 10
588.5150000000001
 20
-143.765
 30
0.0
 11
590.1902682484117
 21
-143.765
 31
0.0
  0
ARC
  5
2F2
  8
2
  6
CONTINUOUS
 62
     7
 10
560.15
 20
-396.3095161664999
 30
0.0
 40
1.000000000000001
 50
270.0
 51
313.6028189727
  0
ARC
  5
2F3
  8
1
  6
CONTINUOUS
 62
     7
 10
541.9999999999998
 20
-143.2500000000001
 30
0.0
 40
2.249999999999974
 50
76.76833517570074
 51
103.2316648242993
  0
LINE
  5
2F4
  8
2
  6
CONTINUOUS
 62
     7
 10
540.9471306637998
 20
-396.7386375594
 30
0.0
 11
540.8948266381
 21
-396.6225297501
 31
0.0
  0
LINE
  5
2F5
  8
1
  6
CONTINUOUS
 62
     7
 10
541.485
 20
-141.0597317515884
 30
0.0
 11
541.485
 21
-142.7350000000001
 31
0.0
  0
LINE
  5
2F6
  8
1
  6
CONTINUOUS
 62
     7
 10
539.8097317515886
 20
-143.765
 30
0.0
 11
541.4850000000001
 21
-143.765
 31
0.0
  0
ARC
  5
2F7
  8
1
  6
CONTINUOUS
 62
     7
 10
533.0
 20
-227.8500000000001
 30
0.0
 40
2.249999999999974
 50
346.7683351757007
 51
13.23166482429929
  0
ARC
  5
2F8
  8
1
  6
CONTINUOUS
 62
     7
 10
533.0
 20
-227.8500000000001
 30
0.0
 40
1.030668528585355
 50
150.0214543835138
 51
209.9785456164862
  0
LINE
  5
2F9
  8
1
  6
CONTINUOUS
 62
     7
 10
532.4850000000001
 20
-225.6597317515884
 30
0.0
 11
532.4850000000001
 21
-227.3350000000001
 31
0.0
  0
ARC
  5
2FA
  8
1
  6
CONTINUOUS
 62
     7
 10
588.0000000000001
 20
-226.7500000000001
 30
0.0
 40
2.250000000000085
 50
76.76833517570074
 51
103.2316648242992
  0
LINE
  5
2FB
  8
1
  6
CONTINUOUS
 62
     7
 10
588.515
 20
-227.265
 30
0.0
 11
590.1902682484115
 21
-227.265
 31
0.0
  0
CIRCLE
  5
2FC
  8
1
  6
CONTINUOUS
 62
     7
 10
588.0000000000001
 20
-143.2500000000001
 30
0.0
 40
4.199999999999982
  0
LINE
  5
2FD
  8
1
  6
CONTINUOUS
 62
     7
 10
532.4850000000001
 20
-227.3350000000001
 30
0.0
 11
530.8097317515885
 21
-227.3350000000001
 31
0.0
  0
ARC
  5
2FE
  8
1
  6
CONTINUOUS
 62
     7
 10
588.0000000000001
 20
-143.2500000000001
 30
0.0
 40
2.250000000000085
 50
346.7683351757007
 51
13.23166482429929
  0
LINE
  5
2FF
  8
2
  6
CONTINUOUS
 62
     7
 10
540.5777515373001
 20
-393.7095161665
 30
0.0
 11
540.6734570423998
 21
-393.7542349142
 31
0.0
  0
ARC
  5
300
  8
1
  6
CONTINUOUS
 62
     7
 10
541.9999999999998
 20
-143.2500000000001
 30
0.0
 40
2.249999999999974
 50
166.7683351757007
 51
193.2316648242993
  0
ARC
  5
301
  8
1
  6
CONTINUOUS
 62
     7
 10
588.0000000000001
 20
-143.2500000000001
 30
0.0
 40
1.030668528585466
 50
240.0214543835139
 51
299.9785456164861
  0
LINE
  5
302
  8
1
  6
CONTINUOUS
 62
     7
 10
541.485
 20
-143.765
 30
0.0
 11
541.485
 21
-145.4402682484116
 31
0.0
  0
ARC
  5
303
  8
1
  6
CONTINUOUS
 62
     7
 10
588.0000000000001
 20
-226.7500000000001
 30
0.0
 40
2.250000000000085
 50
166.7683351757007
 51
193.2316648242993
  0
LINE
  5
304
  8
1
  6
CONTINUOUS
 62
     7
 10
544.1902682484115
 20
-142.7350000000001
 30
0.0
 11
542.515
 21
-142.7350000000001
 31
0.0
  0
LINE
  5
305
  8
2
  6
CONTINUOUS
 62
     7
 10
560.1569995770999
 20
-396.4079249259
 30
0.0
 11
560.1515882150998
 21
-396.4468515092
 31
0.0
  0
LINE
  5
306
  8
1
  6
CONTINUOUS
 62
     7
 10
590.1902682484117
 20
-142.7350000000001
 30
0.0
 11
588.5150000000001
 21
-142.7350000000001
 31
0.0
  0
LINE
  5
307
  8
2
  6
CONTINUOUS
 62
     7
 10
560.0683351081001
 20
-396.7083548136
 30
0.0
 11
560.0503956606001
 21
-396.7432471922
 31
0.0
  0
ARC
  5
308
  8
1
  6
CONTINUOUS
 62
     7
 10
541.9999999999998
 20
-143.2500000000001
 30
0.0
 40
1.030668528585355
 50
330.0214543835138
 51
29.97854561648614
  0
LINE
  5
309
  8
1
  6
CONTINUOUS
 62
     7
 10
587.485
 20
-226.2350000000001
 30
0.0
 11
585.8097317515884
 21
-226.2350000000001
 31
0.0
  0
ARC
  5
30A
  8
1
  6
CONTINUOUS
 62
     7
 10
533.0
 20
-227.8500000000001
 30
0.0
 40
4.199999999999982
 50
0.0
 51
84.44035130152099
  0
LINE
  5
30B
  8
1
  6
CONTINUOUS
 62
     7
 10
585.8097317515884
 20
-143.765
 30
0.0
 11
587.485
 21
-143.765
 31
0.0
  0
LINE
  5
30C
  8
1
  6
CONTINUOUS
 62
     7
 10
588.515
 20
-226.2350000000001
 30
0.0
 11
588.515
 21
-224.5597317515884
 31
0.0
  0
ARC
  5
30D
  8
1
  6
CONTINUOUS
 62
     7
 10
588.0000000000001
 20
-143.2500000000001
 30
0.0
 40
2.250000000000085
 50
256.7683351757007
 51
283.2316648242992
  0
LINE
  5
30E
  8
1
  6
CONTINUOUS
 62
     7
 10
585.8097317515884
 20
-227.265
 30
0.0
 11
587.485
 21
-227.265
 31
0.0
  0
ARC
  5
30F
  8
1
  6
CONTINUOUS
 62
     7
 10
541.9999999999998
 20
-143.2500000000001
 30
0.0
 40
1.030668528585355
 50
150.0214543835138
 51
209.9785456164862
  0
ARC
  5
310
  8
1
  6
CONTINUOUS
 62
     7
 10
588.0000000000001
 20
-143.2500000000001
 30
0.0
 40
1.030668528585466
 50
60.02145438351382
 51
119.9785456164862
  0
ARC
  5
311
  8
1
  6
CONTINUOUS
 62
     7
 10
533.0
 20
-227.8500000000001
 30
0.0
 40
2.249999999999974
 50
256.7683351757007
 51
283.2316648242992
  0
LINE
  5
312
  8
1
  6
CONTINUOUS
 62
     7
 10
588.5150000000001
 20
-142.7350000000001
 30
0.0
 11
588.5150000000001
 21
-141.0597317515885
 31
0.0
  0
LINE
  5
313
  8
1
  6
CONTINUOUS
 62
     7
 10
542.515
 20
-145.4402682484117
 30
0.0
 11
542.515
 21
-143.765
 31
0.0
  0
ARC
  5
314
  8
1
  6
CONTINUOUS
 62
     7
 10
588.0000000000001
 20
-143.2500000000001
 30
0.0
 40
1.030668528585466
 50
330.0214543835138
 51
29.97854561648614
  0
LINE
  5
315
  8
1
  6
CONTINUOUS
 62
     7
 10
541.485
 20
-142.7350000000001
 30
0.0
 11
539.8097317515885
 21
-142.7350000000001
 31
0.0
  0
LINE
  5
316
  8
2
  6
CONTINUOUS
 62
     7
 10
554.8683658081
 20
-394.0828283346
 30
0.0
 11
554.8814098664001
 21
-394.1088507370999
 31
0.0
  0
LINE
  5
317
  8
2
  6
CONTINUOUS
 62
     7
 10
560.8396551724
 20
-397.0336540976
 30
0.0
 11
562.65
 21
-395.3095161665
 31
0.0
  0
LINE
  5
318
  8
1
  6
CONTINUOUS
 62
     7
 10
587.485
 20
-141.0597317515884
 30
0.0
 11
587.485
 21
-142.7350000000001
 31
0.0
  0
ARC
  5
319
  8
1
  6
CONTINUOUS
 62
     7
 10
588.0000000000001
 20
-143.2500000000001
 30
0.0
 40
2.250000000000085
 50
166.7683351757007
 51
193.2316648242993
  0
LINE
  5
31A
  8
1
  6
CONTINUOUS
 62
     7
 10
542.515
 20
-142.7350000000001
 30
0.0
 11
542.515
 21
-141.0597317515885
 31
0.0
  0
ARC
  5
31B
  8
1
  6
CONTINUOUS
 62
     7
 10
588.0000000000001
 20
-143.2500000000001
 30
0.0
 40
2.250000000000085
 50
76.76833517570074
 51
103.2316648242993
  0
CIRCLE
  5
31C
  8
1
  6
CONTINUOUS
 62
     7
 10
588.0000000000001
 20
-226.7500000000001
 30
0.0
 40
4.199999999999982
  0
ARC
  5
31D
  8
1
  6
CONTINUOUS
 62
     7
 10
541.9999999999998
 20
-143.2500000000001
 30
0.0
 40
2.249999999999974
 50
346.7683351757007
 51
13.23166482429929
  0
ARC
  5
31E
  8
1
  6
CONTINUOUS
 62
     7
 10
541.9999999999998
 20
-143.2500000000001
 30
0.0
 40
2.249999999999974
 50
256.7683351757007
 51
283.2316648242992
  0
ARC
  5
31F
  8
1
  6
CONTINUOUS
 62
     7
 10
588.0000000000001
 20
-226.7500000000001
 30
0.0
 40
1.030668528585466
 50
150.0214543835138
 51
209.9785456164862
  0
LINE
  5
320
  8
1
  6
CONTINUOUS
 62
     7
 10
587.485
 20
-227.265
 30
0.0
 11
587.485
 21
-228.9402682484117
 31
0.0
  0
ARC
  5
321
  8
1
  6
CONTINUOUS
 62
     7
 10
541.9999999999998
 20
-226.7500000000001
 30
0.0
 40
2.249999999999974
 50
76.76833517570074
 51
103.2316648242992
  0
ARC
  5
322
  8
1
  6
CONTINUOUS
 62
     7
 10
533.0
 20
-227.8500000000001
 30
0.0
 40
2.249999999999974
 50
76.76833517570074
 51
103.2316648242993
  0
LINE
  5
323
  8
1
  6
CONTINUOUS
 62
     7
 10
587.485
 20
-224.5597317515884
 30
0.0
 11
587.485
 21
-226.2350000000001
 31
0.0
  0
LINE
  5
324
  8
1
  6
CONTINUOUS
 62
     7
 10
533.515
 20
-230.0402682484116
 30
0.0
 11
533.515
 21
-228.365
 31
0.0
  0
LINE
  5
325
  8
1
  6
CONTINUOUS
 62
     7
 10
553.1902682484116
 20
-141.635
 30
0.0
 11
551.515
 21
-141.635
 31
0.0
  0
ARC
  5
326
  8
1
  6
CONTINUOUS
 62
     7
 10
588.0000000000001
 20
-226.7500000000001
 30
0.0
 40
1.030668528585466
 50
240.0214543835139
 51
299.9785456164861
  0
LINE
  5
327
  8
1
  6
CONTINUOUS
 62
     7
 10
550.4850000000001
 20
-142.665
 30
0.0
 11
550.4850000000001
 21
-144.3402682484116
 31
0.0
  0
ARC
  5
328
  8
1
  6
CONTINUOUS
 62
     7
 10
597.0000000000002
 20
-142.15
 30
0.0
 40
2.249999999999863
 50
346.7683351757009
 51
13.23166482429929
  0
ARC
  5
329
  8
1
  6
CONTINUOUS
 62
     7
 10
541.9999999999998
 20
-160.5
 30
0.0
 40
27.49999999999997
 50
158.0135970028061
 51
180.0
  0
LINE
  5
32A
  8
0
  6
CONTINUOUS
 62
     7
 10
639.5
 20
-379.6002687817
 30
0.0
 11
639.5
 21
-394.5645027381
 31
0.0
  0
ARC
  5
32B
  8
0
  6
CONTINUOUS
 62
     7
 10
632.5
 20
-361.2928932188
 30
0.0
 40
34.00000000000003
 50
270.4212962927999
 51
269.5787037072
  0
LINE
  5
32C
  8
0
  6
CONTINUOUS
 62
     7
 10
632.7500000000001
 20
-395.2919740888
 30
0.0
 11
632.7500000000001
 21
-366.8964466094
 31
0.0
  0
ARC
  5
32D
  8
0
  6
CONTINUOUS
 62
     7
 10
632.5
 20
-361.2928932188
 30
0.0
 40
32.00000000000003
 50
270.447627831
 51
278.9892993452
  0
LINE
  5
32E
  8
0
  6
CONTINUOUS
 62
     7
 10
637.5
 20
-392.8998544774
 30
0.0
 11
637.5
 21
-378.1677265513001
 31
0.0
  0
ARC
  5
32F
  8
0
  6
CONTINUOUS
 62
     7
 10
632.5
 20
-361.2928932188
 30
0.0
 40
17.60000000000006
 50
286.5045155214
 51
253.4954844785999
  0
LINE
  5
330
  8
0
  6
CONTINUOUS
 62
     7
 10
627.5
 20
-378.1677265513001
 30
0.0
 11
627.5
 21
-392.8998544774
 31
0.0
  0
ARC
  5
331
  8
0
  6
CONTINUOUS
 62
     7
 10
632.5
 20
-361.2928932188
 30
0.0
 40
32.00000000000003
 50
261.0107006548
 51
269.552372169
  0
LINE
  5
332
  8
0
  6
CONTINUOUS
 62
     7
 10
632.2500000000001
 20
-366.8964466094
 30
0.0
 11
632.2500000000001
 21
-395.2919740888
 31
0.0
  0
LINE
  5
333
  8
0
  6
CONTINUOUS
 62
     7
 10
625.5
 20
-394.5645027381
 30
0.0
 11
625.5
 21
-379.6002687817
 31
0.0
  0
ARC
  5
334
  8
0
  6
CONTINUOUS
 62
     7
 10
632.5
 20
-361.2928932188
 30
0.0
 40
19.60000000000006
 50
290.9248324276001
 51
249.0751675724
  0
LINE
  5
335
  8
0
  6
CONTINUOUS
 62
     7
 10
633.0
 20
-362.5
 30
0.0
 11
632.75
 21
-366.8964466094
 31
0.0
  0
LINE
  5
336
  8
0
  6
CONTINUOUS
 62
     7
 10
639.5710678119001
 20
-368.3639610307
 30
0.0
 11
633.0000000000001
 21
-362.5
 31
0.0
  0
LINE
  5
337
  8
0
  6
CONTINUOUS
 62
     7
 10
633.7071067812001
 20
-361.7928932188
 30
0.0
 11
639.5710678119001
 21
-368.3639610307
 31
0.0
  0
LINE
  5
338
  8
0
  6
CONTINUOUS
 62
     7
 10
642.5000000000001
 20
-361.2928932188
 30
0.0
 11
633.7071067812001
 21
-361.7928932188
 31
0.0
  0
LINE
  5
339
  8
0
  6
CONTINUOUS
 62
     7
 10
633.7071067812001
 20
-360.7928932188
 30
0.0
 11
642.5000000000001
 21
-361.2928932188
 31
0.0
  0
LINE
  5
33A
  8
0
  6
CONTINUOUS
 62
     7
 10
639.5710678119001
 20
-354.221825407
 30
0.0
 11
633.7071067812001
 21
-360.7928932188
 31
0.0
  0
LINE
  5
33B
  8
0
  6
CONTINUOUS
 62
     7
 10
633.0
 20
-360.0857864376
 30
0.0
 11
639.5710678119
 21
-354.221825407
 31
0.0
  0
LINE
  5
33C
  8
0
  6
CONTINUOUS
 62
     7
 10
632.7500000000001
 20
-355.6893398281999
 30
0.0
 11
633.0000000000001
 21
-360.0857864375999
 31
0.0
  0
LINE
  5
33D
  8
0
  6
CONTINUOUS
 62
     7
 10
632.7500000000001
 20
-355.6893398281999
 30
0.0
 11
632.7500000000001
 21
-346.1949628970999
 31
0.0
  0
ARC
  5
33E
  8
0
  6
CONTINUOUS
 62
     7
 10
632.5
 20
-361.2928932188
 30
0.0
 40
15.1
 50
89.0513510364
 51
90.9486489636
  0
LINE
  5
33F
  8
0
  6
CONTINUOUS
 62
     7
 10
632.2500000000001
 20
-346.1949628971
 30
0.0
 11
632.2500000000001
 21
-355.6893398281999
 31
0.0
  0
LINE
  5
340
  8
0
  6
CONTINUOUS
 62
     7
 10
632.0000000000001
 20
-360.0857864376
 30
0.0
 11
632.2500000000001
 21
-355.6893398282
 31
0.0
  0
LINE
  5
341
  8
0
  6
CONTINUOUS
 62
     7
 10
625.4289321881001
 20
-354.221825407
 30
0.0
 11
632.0000000000001
 21
-360.0857864375999
 31
0.0
  0
LINE
  5
342
  8
0
  6
CONTINUOUS
 62
     7
 10
631.2928932188001
 20
-360.7928932188
 30
0.0
 11
625.4289321881001
 21
-354.221825407
 31
0.0
  0
LINE
  5
343
  8
0
  6
CONTINUOUS
 62
     7
 10
622.5
 20
-361.2928932188
 30
0.0
 11
631.2928932188
 21
-360.7928932188
 31
0.0
  0
LINE
  5
344
  8
0
  6
CONTINUOUS
 62
     7
 10
631.2928932188001
 20
-361.7928932188
 30
0.0
 11
622.5
 21
-361.2928932188
 31
0.0
  0
LINE
  5
345
  8
0
  6
CONTINUOUS
 62
     7
 10
625.4289321881001
 20
-368.3639610307
 30
0.0
 11
631.2928932188001
 21
-361.7928932188
 31
0.0
  0
LINE
  5
346
  8
0
  6
CONTINUOUS
 62
     7
 10
632.0000000000001
 20
-362.5
 30
0.0
 11
625.4289321881001
 21
-368.3639610307
 31
0.0
  0
LINE
  5
347
  8
0
  6
CONTINUOUS
 62
     7
 10
632.2500000000001
 20
-366.8964466094
 30
0.0
 11
632.0000000000001
 21
-362.5
 31
0.0
  0
TEXT
  5
348
  8
0
  6
CONTINUOUS
 62
     7
 10
644.5172345879705
 20
-285.3692415905965
 30
0.0
 40
7.0
  1
MTKB-2SBP
  0
LINE
  5
349
  8
2
  6
CONTINUOUS
 62
     7
 10
652.1
 20
-411.9154326912999
 30
0.0
 11
612.9
 21
-411.9154326912999
 31
0.0
  0
LINE
  5
34A
  8
2
  6
CONTINUOUS
 62
     7
 10
639.5
 20
-414.9154326912999
 30
0.0
 11
666.5000000000001
 21
-414.9154326912999
 31
0.0
  0
LINE
  5
34B
  8
2
  6
CONTINUOUS
 62
     7
 10
611.9019234775
 20
-442.9154326912999
 30
0.0
 11
653.0980765225
 21
-442.9154326912999
 31
0.0
  0
LINE
  5
34C
  8
2
  6
CONTINUOUS
 62
     7
 10
598.4999999999999
 20
-414.9154326912999
 30
0.0
 11
625.4999999999999
 21
-414.9154326912999
 31
0.0
  0
LINE
  5
34D
  8
2
  6
CONTINUOUS
 62
     7
 10
598.4999999999999
 20
-416.9154326913
 30
0.0
 11
632.25
 21
-416.9154326913
 31
0.0
  0
LINE
  5
34E
  8
2
  6
CONTINUOUS
 62
     7
 10
632.75
 20
-416.9154326913
 30
0.0
 11
666.5000000000001
 21
-416.9154326913
 31
0.0
  0
ARC
  5
34F
  8
1
  6
CONTINUOUS
 62
     7
 10
541.9999999999998
 20
-209.5000000000001
 30
0.0
 40
25.39999999999998
 50
180.0
 51
185.6484935169196
  0
LINE
  5
350
  8
1
  6
CONTINUOUS
 62
     7
 10
613.4
 20
-180.0000000000001
 30
0.0
 11
613.4
 21
-160.5000000000001
 31
0.0
  0
ARC
  5
351
  8
1
  6
CONTINUOUS
 62
     7
 10
615.9999999999999
 20
-219.0000000000001
 30
0.0
 40
2.000000000000002
 50
270.0
 51
0.0
  0
LINE
  5
352
  8
1
  6
CONTINUOUS
 62
     7
 10
613.4
 20
-209.5000000000001
 30
0.0
 11
615.4999999999999
 21
-209.5000000000001
 31
0.0
  0
LINE
  5
353
  8
1
  6
CONTINUOUS
 62
     7
 10
617.9999999999999
 20
-208.4999999999999
 30
0.0
 11
617.0
 21
-208.4999999999999
 31
0.0
  0
LINE
  5
354
  8
1
  6
CONTINUOUS
 62
     7
 10
613.4303520315527
 20
-158.0
 30
0.0
 11
613.5000000000001
 21
-158.0
 31
0.0
  0
LINE
  5
355
  8
1
  6
CONTINUOUS
 62
     7
 10
617.9999999999999
 20
-219.0000000000001
 30
0.0
 11
617.9999999999999
 21
-208.4999999999999
 31
0.0
  0
ARC
  5
356
  8
1
  6
CONTINUOUS
 62
     7
 10
551.0
 20
-142.15
 30
0.0
 40
4.199999999999982
 50
180.0
 51
264.4403513015219
  0
LINE
  5
357
  8
1
  6
CONTINUOUS
 62
     7
 10
613.4126871547966
 20
-212.0000000000001
 30
0.0
 11
613.2766690843551
 21
-212.0000000000001
 31
0.0
  0
LINE
  5
358
  8
1
  6
CONTINUOUS
 62
     7
 10
551.515
 20
-141.635
 30
0.0
 11
551.515
 21
-139.9597317515885
 31
0.0
  0
ARC
  5
359
  8
1
  6
CONTINUOUS
 62
     7
 10
579.0
 20
-227.8500000000001
 30
0.0
 40
4.100000000000104
 50
96.96825674137754
 51
276.9682567413783
  0
CIRCLE
  5
35A
  8
1
  6
CONTINUOUS
 62
     7
 10
588.0000000000001
 20
-170.0
 30
0.0
 40
10.65000000000005
  0
LINE
  5
35B
  8
1
  6
CONTINUOUS
 62
     7
 10
516.5
 20
-149.0
 30
0.0
 11
514.0
 21
-149.0
 31
0.0
  0
LINE
  5
35C
  8
1
  6
CONTINUOUS
 62
     7
 10
615.4999999999999
 20
-180.0000000000001
 30
0.0
 11
613.4
 21
-180.0000000000001
 31
0.0
  0
ARC
  5
35D
  8
1
  6
CONTINUOUS
 62
     7
 10
587.9999999999999
 20
-160.5
 30
0.0
 40
25.40000000000009
 50
0.0
 51
5.648493516919716
  0
LINE
  5
35E
  8
1
  6
CONTINUOUS
 62
     7
 10
512.0000000000001
 20
-205.4999999999999
 30
0.0
 11
512.0000000000001
 21
-190.9999999999999
 31
0.0
  0
LINE
  5
35F
  8
1
  6
CONTINUOUS
 62
     7
 10
512.0000000000002
 20
-208.4999999999999
 30
0.0
 11
513.0000000000002
 21
-208.4999999999999
 31
0.0
  0
CIRCLE
  5
360
  8
1
  6
CONTINUOUS
 62
     7
 10
541.9999999999998
 20
-170.0
 30
0.0
 40
10.65000000000005
  0
LINE
  5
361
  8
1
  6
CONTINUOUS
 62
     7
 10
617.0
 20
-189.9999999999999
 30
0.0
 11
615.4999999999999
 21
-189.9999999999999
 31
0.0
  0
LINE
  5
362
  8
1
  6
CONTINUOUS
 62
     7
 10
613.2766690843551
 20
-158.0
 30
0.0
 11
613.4303520315527
 21
-158.0
 31
0.0
  0
LINE
  5
363
  8
1
  6
CONTINUOUS
 62
     7
 10
513.0000000000002
 20
-189.9999999999999
 30
0.0
 11
514.5
 21
-189.9999999999999
 31
0.0
  0
LINE
  5
364
  8
1
  6
CONTINUOUS
 62
     7
 10
516.5999999999999
 20
-167.45
 30
0.0
 11
516.6812585080742
 21
-166.8406508275141
 31
0.0
  0
LINE
  5
365
  8
1
  6
CONTINUOUS
 62
     7
 10
515.1000000000001
 20
-180.0000000000001
 30
0.0
 11
515.1000000000001
 21
-180.2
 31
0.0
  0
LINE
  5
366
  8
1
  6
CONTINUOUS
 62
     7
 10
611.5
 20
-189.8
 30
0.0
 11
611.5
 21
-180.2
 31
0.0
  0
LINE
  5
367
  8
1
  6
CONTINUOUS
 62
     7
 10
613.4
 20
-189.8
 30
0.0
 11
613.4
 21
-189.9999999999999
 31
0.0
  0
LINE
  5
368
  8
1
  6
CONTINUOUS
 62
     7
 10
512.0000000000001
 20
-164.5000000000001
 30
0.0
 11
512.0000000000001
 21
-179.0000000000001
 31
0.0
  0
LINE
  5
369
  8
1
  6
CONTINUOUS
 62
     7
 10
516.5873128452035
 20
-158.0
 30
0.0
 11
516.7233309156447
 21
-158.0
 31
0.0
  0
ARC
  5
36A
  8
1
  6
CONTINUOUS
 62
     7
 10
617.0
 20
-207.4999999999999
 30
0.0
 40
0.9999999999998899
 50
180.0
 51
270.0000000000005
  0
LINE
  5
36B
  8
1
  6
CONTINUOUS
 62
     7
 10
516.5
 20
-221.0000000000001
 30
0.0
 11
514.0
 21
-221.0000000000001
 31
0.0
  0
LINE
  5
36C
  8
1
  6
CONTINUOUS
 62
     7
 10
516.5
 20
-149.0
 30
0.0
 11
516.4999999999999
 21
-150.2043698590132
 31
0.0
  0
LINE
  5
36D
  8
1
  6
CONTINUOUS
 62
     7
 10
516.5696479684472
 20
-212.0000000000001
 30
0.0
 11
516.4999999999999
 21
-212.0000000000001
 31
0.0
  0
ARC
  5
36E
  8
1
  6
CONTINUOUS
 62
     7
 10
541.9999999999998
 20
-160.5000000000001
 30
0.0
 40
25.39999999999998
 50
163.7679900113681
 51
164.0027897599482
  0
ARC
  5
36F
  8
1
  6
CONTINUOUS
 62
     7
 10
597.0000000000002
 20
-142.15
 30
0.0
 40
1.030668528585243
 50
150.0214543835138
 51
209.9785456164862
  0
LINE
  5
370
  8
1
  6
CONTINUOUS
 62
     7
 10
516.5
 20
-153.5000000000001
 30
0.0
 11
517.583612060749
 21
-153.5000000000001
 31
0.0
  0
LINE
  5
371
  8
1
  6
CONTINUOUS
 62
     7
 10
514.5
 20
-209.5000000000001
 30
0.0
 11
516.6
 21
-209.5000000000001
 31
0.0
  0
LINE
  5
372
  8
1
  6
CONTINUOUS
 62
     7
 10
614.9000000000001
 20
-180.2
 30
0.0
 11
614.9000000000001
 21
-180.0000000000001
 31
0.0
  0
LINE
  5
373
  8
1
  6
CONTINUOUS
 62
     7
 10
617.9999999999999
 20
-151.0
 30
0.0
 11
617.9999999999999
 21
-161.5000000000001
 31
0.0
  0
LINE
  5
374
  8
1
  6
CONTINUOUS
 62
     7
 10
613.5
 20
-155.1000000000001
 30
0.0
 11
612.8193472919817
 21
-155.1000000000001
 31
0.0
  0
ARC
  5
375
  8
1
  6
CONTINUOUS
 62
     7
 10
513.0000000000002
 20
-162.5000000000001
 30
0.0
 40
1.000000000000001
 50
0.0
 51
90.0000000000004
  0
LINE
  5
376
  8
1
  6
CONTINUOUS
 62
     7
 10
615.9999999999999
 20
-207.4999999999999
 30
0.0
 11
615.9999999999999
 21
-206.4999999999999
 31
0.0
  0
CIRCLE
  5
377
  8
1
  6
CONTINUOUS
 62
     7
 10
588.0000000000001
 20
-200.0
 30
0.0
 40
10.65000000000005
  0
LINE
  5
378
  8
1
  6
CONTINUOUS
 62
     7
 10
514.0000000000002
 20
-162.5000000000001
 30
0.0
 11
514.0000000000002
 21
-163.5000000000001
 31
0.0
  0
LINE
  5
379
  8
1
  6
CONTINUOUS
 62
     7
 10
512.0000000000001
 20
-219.0000000000001
 30
0.0
 11
512.0000000000002
 21
-208.4999999999999
 31
0.0
  0
LINE
  5
37A
  8
1
  6
CONTINUOUS
 62
     7
 10
612.4627563545952
 20
-160.4999999999999
 30
0.0
 11
613.3095609209984
 21
-166.7715161076449
 31
0.0
  0
LINE
  5
37B
  8
1
  6
CONTINUOUS
 62
     7
 10
613.5
 20
-221.0000000000001
 30
0.0
 11
615.9999999999999
 21
-221.0000000000001
 31
0.0
  0
LINE
  5
37C
  8
1
  6
CONTINUOUS
 62
     7
 10
617.0
 20
-164.5000000000001
 30
0.0
 11
617.9999999999999
 21
-164.5000000000001
 31
0.0
  0
ARC
  5
37D
  8
1
  6
CONTINUOUS
 62
     7
 10
587.9999999999999
 20
-209.5000000000001
 30
0.0
 40
25.40000000000009
 50
354.3515064830804
 51
0.0
  0
LINE
  5
37E
  8
1
  6
CONTINUOUS
 62
     7
 10
516.5999999999999
 20
-180.0000000000001
 30
0.0
 11
514.5
 21
-180.0000000000001
 31
0.0
  0
ARC
  5
37F
  8
1
  6
CONTINUOUS
 62
     7
 10
587.9999999999999
 20
-160.5
 30
0.0
 40
27.50000000000008
 50
0.0
 51
21.98640299719284
  0
LINE
  5
380
  8
1
  6
CONTINUOUS
 62
     7
 10
615.4999999999999
 20
-160.5
 30
0.0
 11
613.4
 21
-160.5
 31
0.0
  0
LINE
  5
381
  8
1
  6
CONTINUOUS
 62
     7
 10
516.7233309156447
 20
-212.0000000000001
 30
0.0
 11
516.5696479684472
 21
-212.0000000000001
 31
0.0
  0
LINE
  5
382
  8
1
  6
CONTINUOUS
 62
     7
 10
516.5
 20
-219.795630140987
 30
0.0
 11
516.5000000000001
 21
-221.0000000000001
 31
0.0
  0
LINE
  5
383
  8
1
  6
CONTINUOUS
 62
     7
 10
615.4999999999999
 20
-189.9999999999999
 30
0.0
 11
615.4999999999999
 21
-209.5000000000001
 31
0.0
  0
LINE
  5
384
  8
1
  6
CONTINUOUS
 62
     7
 10
617.9999999999999
 20
-161.5000000000001
 30
0.0
 11
617.0
 21
-161.5000000000001
 31
0.0
  0
LINE
  5
385
  8
1
  6
CONTINUOUS
 62
     7
 10
513.0000000000002
 20
-180.0000000000001
 30
0.0
 11
514.5
 21
-180.0000000000001
 31
0.0
  0
LINE
  5
386
  8
1
  6
CONTINUOUS
 62
     7
 10
613.3095609209984
 20
-166.7715161076449
 30
0.0
 11
613.4
 21
-167.4500000000002
 31
0.0
  0
ARC
  5
387
  8
1
  6
CONTINUOUS
 62
     7
 10
513.0000000000002
 20
-206.4999999999999
 30
0.0
 40
1.000000000000001
 50
359.9999999999987
 51
90.0
  0
LINE
  5
388
  8
1
  6
CONTINUOUS
 62
     7
 10
617.9999999999999
 20
-164.5000000000001
 30
0.0
 11
617.9999999999999
 21
-179.0000000000001
 31
0.0
  0
LINE
  5
389
  8
1
  6
CONTINUOUS
 62
     7
 10
517.5836120607489
 20
-153.5000000000001
 30
0.0
 11
517.1806527080181
 21
-155.1000000000001
 31
0.0
  0
LINE
  5
38A
  8
1
  6
CONTINUOUS
 62
     7
 10
516.5
 20
-214.8999999999999
 30
0.0
 11
517.1806527080183
 21
-214.8999999999999
 31
0.0
  0
LINE
  5
38B
  8
1
  6
CONTINUOUS
 62
     7
 10
517.5372436454048
 20
-160.4999999999999
 30
0.0
 11
517.5378074972164
 21
-160.5000203583845
 31
0.0
  0
LINE
  5
38C
  8
1
  6
CONTINUOUS
 62
     7
 10
541.593095710401
 20
-230.9302426842357
 30
0.0
 11
533.4974096628575
 21
-231.9197154233799
 31
0.0
  0
LINE
  5
38D
  8
1
  6
CONTINUOUS
 62
     7
 10
611.5
 20
-180.2
 30
0.0
 11
614.9
 21
-180.2
 31
0.0
  0
ARC
  5
38E
  8
1
  6
CONTINUOUS
 62
     7
 10
513.0000000000002
 20
-163.5000000000001
 30
0.0
 40
1.000000000000001
 50
270.0
 51
0.0000000000011937
  0
LINE
  5
38F
  8
1
  6
CONTINUOUS
 62
     7
 10
512.0000000000002
 20
-161.5000000000001
 30
0.0
 11
513.0000000000002
 21
-161.5000000000001
 31
0.0
  0
LINE
  5
390
  8
1
  6
CONTINUOUS
 62
     7
 10
587.5930957104011
 20
-230.9302426842357
 30
0.0
 11
579.4974096628575
 21
-231.9197154233799
 31
0.0
  0
LINE
  5
391
  8
1
  6
CONTINUOUS
 62
     7
 10
517.5836120607489
 20
-216.4999999999999
 30
0.0
 11
516.4999999999999
 21
-216.4999999999999
 31
0.0
  0
ARC
  5
392
  8
1
  6
CONTINUOUS
 62
     7
 10
615.9999999999999
 20
-151.0
 30
0.0
 40
2.000000000000002
 50
0.0
 51
90.0
  0
ARC
  5
393
  8
1
  6
CONTINUOUS
 62
     7
 10
541.9999999999998
 20
-160.5
 30
0.0
 40
24.46219250279213
 50
163.1274467521955
 51
180.0000476837679
  0
LINE
  5
394
  8
1
  6
CONTINUOUS
 62
     7
 10
612.4627563545952
 20
-160.4999999999999
 30
0.0
 11
613.4
 21
-160.5
 31
0.0
  0
LINE
  5
395
  8
1
  6
CONTINUOUS
 62
     7
 10
516.5999999999999
 20
-180.2
 30
0.0
 11
516.5999999999999
 21
-180.0000000000001
 31
0.0
  0
ARC
  5
396
  8
1
  6
CONTINUOUS
 62
     7
 10
541.9999999999998
 20
-209.5000000000001
 30
0.0
 40
27.49999999999997
 50
180.0
 51
201.9864029971939
  0
ARC
  5
397
  8
1
  6
CONTINUOUS
 62
     7
 10
541.9999999999998
 20
-209.5000000000001
 30
0.0
 40
25.39999999999998
 50
185.6484935169196
 51
192.274670214586
  0
LINE
  5
398
  8
1
  6
CONTINUOUS
 62
     7
 10
612.8193472919818
 20
-214.8999999999999
 30
0.0
 11
613.5000000000001
 21
-214.8999999999999
 31
0.0
  0
ARC
  5
399
  8
1
  6
CONTINUOUS
 62
     7
 10
587.9999999999999
 20
-209.5000000000001
 30
0.0
 40
27.50000000000008
 50
338.0135970028071
 51
0.0
  0
LINE
  5
39A
  8
1
  6
CONTINUOUS
 62
     7
 10
517.1806527080182
 20
-214.8999999999999
 30
0.0
 11
517.583612060749
 21
-216.4999999999999
 31
0.0
  0
ARC
  5
39B
  8
1
  6
CONTINUOUS
 62
     7
 10
617.0
 20
-179.0000000000001
 30
0.0
 40
0.9999999999998899
 50
270.0
 51
0.0000000000005684
  0
LINE
  5
39C
  8
1
  6
CONTINUOUS
 62
     7
 10
509.9999999999999
 20
-260.4681933245285
 30
0.0
 11
517.9999999999999
 21
-260.4681933245285
 31
0.0
  0
LINE
  5
39D
  8
1
  6
CONTINUOUS
 62
     7
 10
611.9999999999999
 20
-260.4681933245285
 30
0.0
 11
611.9999999999999
 21
-260.4181933245285
 31
0.0
  0
ARC
  5
39E
  8
1
  6
CONTINUOUS
 62
     7
 10
533.0
 20
-227.8500000000001
 30
0.0
 40
4.099999999999993
 50
96.96825674137814
 51
276.9682567413782
  0
LINE
  5
39F
  8
1
  6
CONTINUOUS
 62
     7
 10
615.9999999999999
 20
-162.5000000000001
 30
0.0
 11
615.9999999999999
 21
-163.5000000000001
 31
0.0
  0
LINE
  5
3A0
  8
1
  6
CONTINUOUS
 62
     7
 10
515.0
 20
-292.8181933245285
 30
0.0
 11
515.0
 21
-284.4181933245285
 31
0.0
  0
LINE
  5
3A1
  8
1
  6
CONTINUOUS
 62
     7
 10
612.4627563545952
 20
-209.5000000000001
 30
0.0
 11
612.4621925027835
 21
-209.4999796416156
 31
0.0
  0
CIRCLE
  5
3A2
  8
1
  6
CONTINUOUS
 62
     7
 10
541.9999999999998
 20
-200.0
 30
0.0
 40
10.65000000000005
  0
LINE
  5
3A3
  8
1
  6
CONTINUOUS
 62
     7
 10
509.9999999999999
 20
-260.4181933245285
 30
0.0
 11
517.9999999999999
 21
-260.4181933245285
 31
0.0
  0
ARC
  5
3A4
  8
1
  6
CONTINUOUS
 62
     7
 10
617.0
 20
-163.5000000000001
 30
0.0
 40
0.9999999999998899
 50
179.9999999999988
 51
270.0
  0
LINE
  5
3A5
  8
1
  6
CONTINUOUS
 62
     7
 10
613.5
 20
-216.4999999999999
 30
0.0
 11
612.416387939251
 21
-216.4999999999999
 31
0.0
  0
ARC
  5
3A6
  8
1
  6
CONTINUOUS
 62
     7
 10
541.9999999999998
 20
-209.4999999999999
 30
0.0
 40
25.39999999999998
 50
195.9972102400518
 51
196.2320099886318
  0
LINE
  5
3A7
  8
1
  6
CONTINUOUS
 62
     7
 10
517.1806527080182
 20
-155.1000000000001
 30
0.0
 11
516.5
 21
-155.1000000000001
 31
0.0
  0
LINE
  5
3A8
  8
1
  6
CONTINUOUS
 62
     7
 10
613.5
 20
-149.0
 30
0.0
 11
615.9999999999999
 21
-149.0
 31
0.0
  0
ARC
  5
3A9
  8
1
  6
CONTINUOUS
 62
     7
 10
588.0000000000001
 20
-209.5000000000001
 30
0.0
 40
25.40000000000009
 50
347.725329785414
 51
354.3515064830804
  0
LINE
  5
3AA
  8
1
  6
CONTINUOUS
 62
     7
 10
612.416387939251
 20
-216.4999999999999
 30
0.0
 11
612.8193472919818
 21
-214.8999999999999
 31
0.0
  0
ARC
  5
3AB
  8
1
  6
CONTINUOUS
 62
     7
 10
588.0000000000001
 20
-160.4999999999999
 30
0.0
 40
25.40000000000009
 50
5.648493516919522
 51
12.27467021458603
  0
LINE
  5
3AC
  8
1
  6
CONTINUOUS
 62
     7
 10
578.5025903371426
 20
-223.7802845766201
 30
0.0
 11
586.5982763846857
 21
-222.7908118374761
 31
0.0
  0
LINE
  5
3AD
  8
1
  6
CONTINUOUS
 62
     7
 10
613.4
 20
-180.0000000000001
 30
0.0
 11
613.4
 21
-180.2
 31
0.0
  0
ARC
  5
3AE
  8
1
  6
CONTINUOUS
 62
     7
 10
588.0000000000001
 20
-160.5000000000001
 30
0.0
 40
25.40000000000009
 50
15.99721024005178
 51
16.23200998863182
  0
ARC
  5
3AF
  8
1
  6
CONTINUOUS
 62
     7
 10
588.0000000000001
 20
-160.5
 30
0.0
 40
24.46219250279213
 50
359.999952316232
 51
16.87255324780455
  0
LINE
  5
3B0
  8
1
  6
CONTINUOUS
 62
     7
 10
612.8193472919818
 20
-155.1000000000001
 30
0.0
 11
612.4163879392511
 21
-153.5000000000001
 31
0.0
  0
LINE
  5
3B1
  8
1
  6
CONTINUOUS
 62
     7
 10
617.0
 20
-180.0000000000001
 30
0.0
 11
615.4999999999999
 21
-180.0000000000001
 31
0.0
  0
LINE
  5
3B2
  8
1
  6
CONTINUOUS
 62
     7
 10
613.4
 20
-189.9999999999999
 30
0.0
 11
615.4999999999999
 21
-189.9999999999999
 31
0.0
  0
LINE
  5
3B3
  8
1
  6
CONTINUOUS
 62
     7
 10
614.9000000000001
 20
-189.8
 30
0.0
 11
611.5000000000002
 21
-189.8
 31
0.0
  0
LINE
  5
3B4
  8
1
  6
CONTINUOUS
 62
     7
 10
516.5999999999999
 20
-160.5
 30
0.0
 11
516.6
 21
-180.0000000000001
 31
0.0
  0
LINE
  5
3B5
  8
1
  6
CONTINUOUS
 62
     7
 10
612.4621925027835
 20
-160.5000203583845
 30
0.0
 11
612.4627563545951
 21
-160.4999999999999
 31
0.0
  0
ARC
  5
3B6
  8
1
  6
CONTINUOUS
 62
     7
 10
617.0
 20
-206.4999999999999
 30
0.0
 40
0.9999999999998899
 50
90.0
 51
180.0000000000011
  0
LINE
  5
3B7
  8
1
  6
CONTINUOUS
 62
     7
 10
532.5025903371426
 20
-223.7802845766201
 30
0.0
 11
540.5982763846856
 21
-222.7908118374761
 31
0.0
  0
ARC
  5
3B8
  8
1
  6
CONTINUOUS
 62
     7
 10
588.0000000000001
 20
-209.4999999999999
 30
0.0
 40
25.40000000000009
 50
343.7679900113682
 51
344.0027897599482
  0
LINE
  5
3B9
  8
1
  6
CONTINUOUS
 62
     7
 10
516.6812585080743
 20
-166.8406508275141
 30
0.0
 11
517.5372436454049
 21
-160.4999999999999
 31
0.0
  0
LINE
  5
3BA
  8
1
  6
CONTINUOUS
 62
     7
 10
613.5
 20
-150.2043698590135
 30
0.0
 11
613.5
 21
-149.0
 31
0.0
  0
ARC
  5
3BB
  8
1
  6
CONTINUOUS
 62
     7
 10
608.3999999999999
 20
-292.8181933245282
 30
0.0
 40
6.600000000000272
 50
270.000000000001
 51
359.9999999999982
  0
LINE
  5
3BC
  8
1
  6
CONTINUOUS
 62
     7
 10
614.9000000000001
 20
-189.9999999999999
 30
0.0
 11
614.9000000000001
 21
-189.8
 31
0.0
  0
LINE
  5
3BD
  8
1
  6
CONTINUOUS
 62
     7
 10
615.0831902761087
 20
-260.5194548243489
 30
0.0
 11
615.1005232994837
 21
-260.506964235555
 31
0.0
  0
LINE
  5
3BE
  8
1
  6
CONTINUOUS
 62
     7
 10
516.5999999999999
 20
-189.9999999999999
 30
0.0
 11
516.5999999999999
 21
-189.8
 31
0.0
  0
ARC
  5
3BF
  8
1
  6
CONTINUOUS
 62
     7
 10
615.4999999999999
 20
-260.9181933245285
 30
0.0
 40
0.500000000000056
 50
115.8419327631657
 51
180.0000000000043
  0
LINE
  5
3C0
  8
1
  6
CONTINUOUS
 62
     7
 10
612.416387939251
 20
-153.5000000000001
 30
0.0
 11
613.5000000000001
 21
-153.5000000000001
 31
0.0
  0
ARC
  5
3C1
  8
1
  6
CONTINUOUS
 62
     7
 10
617.0
 20
-162.5000000000001
 30
0.0
 40
0.9999999999998899
 50
89.99999999999962
 51
180.0
  0
LINE
  5
3C2
  8
1
  6
CONTINUOUS
 62
     7
 10
517.5372436454048
 20
-160.4999999999999
 30
0.0
 11
516.6
 21
-160.5
 31
0.0
  0
ARC
  5
3C3
  8
1
  6
CONTINUOUS
 62
     7
 10
541.9999999999998
 20
-160.4999999999999
 30
0.0
 40
25.39999999999998
 50
167.725329785414
 51
174.3515064830805
  0
LINE
  5
3C4
  8
1
  6
CONTINUOUS
 62
     7
 10
613.5
 20
-219.7956301409866
 30
0.0
 11
613.5
 21
-212.0000000000002
 31
0.0
  0
LINE
  5
3C5
  8
1
  6
CONTINUOUS
 62
     7
 10
514.5
 20
-209.5000000000001
 30
0.0
 11
514.5
 21
-189.9999999999999
 31
0.0
  0
ARC
  5
3C6
  8
1
  6
CONTINUOUS
 62
     7
 10
521.5999999999999
 20
-292.8181933245286
 30
0.0
 40
6.599999999999939
 50
179.9999999999993
 51
270.0000000000005
  0
LINE
  5
3C7
  8
1
  6
CONTINUOUS
 62
     7
 10
615.1545391499711
 20
-260.4745597863352
 30
0.0
 11
615.167445400809
 21
-260.4681084953177
 31
0.0
  0
ARC
  5
3C8
  8
2
  6
CONTINUOUS
 62
     7
 10
550.4999999999999
 20
-354.0
 30
0.0
 40
7.750000000000035
 50
138.6990710632
 51
176.3009289368
  0
LINE
  5
3C9
  8
2
  6
CONTINUOUS
 62
     7
 10
632.75
 20
-442.9154326912999
 30
0.0
 11
632.75
 21
-411.9154326912999
 31
0.0
  0
ARC
  5
3CA
  8
2
  6
CONTINUOUS
 62
     7
 10
550.4999999999999
 20
-354.0
 30
0.0
 40
8.45499999999999
 50
221.6097440931
 51
228.3902559069001
  0
LINE
  5
3CB
  8
2
  6
CONTINUOUS
 62
     7
 10
552.9142135623999
 20
-354.4999999999999
 30
0.0
 11
558.9402029004
 21
-354.4999999999999
 31
0.0
  0
ARC
  5
3CC
  8
2
  6
CONTINUOUS
 62
     7
 10
550.4999999999999
 20
-354.0
 30
0.0
 40
8.45499999999999
 50
266.6097440931
 51
273.3902559069
  0
LINE
  5
3CD
  8
2
  6
CONTINUOUS
 62
     7
 10
553.4999999999999
 20
-364.2030051196
 30
0.0
 11
553.5159228014999
 21
-364.181704255
 31
0.0
  0
ARC
  5
3CE
  8
2
  6
CONTINUOUS
 62
     7
 10
550.4999999999999
 20
-354.0
 30
0.0
 40
8.45499999999999
 50
176.6097440931
 51
183.3902559069
  0
LINE
  5
3CF
  8
2
  6
CONTINUOUS
 62
     7
 10
547.4703263896
 20
-343.8367269322999
 30
0.0
 11
547.4354162598
 21
-343.8836703058
 31
0.0
  0
LINE
  5
3D0
  8
2
  6
CONTINUOUS
 62
     7
 10
553.5159228014999
 20
-343.8182957449999
 30
0.0
 11
553.4999999999999
 21
-343.7969948803999
 31
0.0
  0
ARC
  5
3D1
  8
2
  6
CONTINUOUS
 62
     7
 10
548.0857864375998
 20
-353.0
 30
0.0
 40
0.500000000000167
 50
270.0
 51
45.0
  0
ARC
  5
3D2
  8
2
  6
CONTINUOUS
 62
     7
 10
550.4999999999999
 20
-354.0
 30
0.0
 40
12.21458374020001
 50
165.4694921388
 51
194.5305078612
  0
LINE
  5
3D3
  8
2
  6
CONTINUOUS
 62
     7
 10
550.0
 20
-356.4142135623999
 30
0.0
 11
550.0
 21
-362.4402029003999
 31
0.0
  0
LINE
  5
3D4
  8
2
  6
CONTINUOUS
 62
     7
 10
538.6761096737999
 20
-357.0645837402
 30
0.0
 11
540.3836703058001
 21
-357.0645837402
 31
0.0
  0
ARC
  5
3D5
  8
2
  6
CONTINUOUS
 62
     7
 10
552.9142135623999
 20
-353.0
 30
0.0
 40
0.4999999999999449
 50
135.0
 51
270.0
  0
LINE
  5
3D6
  8
2
  6
CONTINUOUS
 62
     7
 10
553.6328154591998
 20
-394.0220832700999
 30
0.0
 11
553.6491106121998
 21
-393.9986129338
 31
0.0
  0
LINE
  5
3D7
  8
2
  6
CONTINUOUS
 62
     7
 10
541.0579486437998
 20
-397.2785743088
 30
0.0
 11
541.1016433855998
 21
-397.2882531792001
 31
0.0
  0
LINE
  5
3D8
  8
2
  6
CONTINUOUS
 62
     7
 10
560.0833496718999
 20
-397.2336914886
 30
0.0
 11
560.1248198221998
 21
-397.2162575288
 31
0.0
  0
LINE
  5
3D9
  8
2
  6
CONTINUOUS
 62
     7
 10
540.8926207938999
 20
-397.2238474299999
 30
0.0
 11
540.9330667809
 21
-397.2400313234
 31
0.0
  0
LINE
  5
3DA
  8
2
  6
CONTINUOUS
 62
     7
 10
556.1145713148999
 20
-347.6783219039
 30
0.0
 11
551.853553391
 21
-351.9393398286
 31
0.0
  0
LINE
  5
3DB
  8
2
  6
CONTINUOUS
 62
     7
 10
551.8535533906
 20
-356.0606601718001
 30
0.0
 11
556.1145713149
 21
-360.3216780961001
 31
0.0
  0
LINE
  5
3DC
  8
2
  6
CONTINUOUS
 62
     7
 10
540.2969948803998
 20
-357.0
 30
0.0
 11
540.318295745
 21
-357.0159228015
 31
0.0
  0
LINE
  5
3DD
  8
2
  6
CONTINUOUS
 62
     7
 10
560.7030051196
 20
-395.3095161665
 30
0.0
 11
562.6499999999999
 21
-395.3095161665
 31
0.0
  0
LINE
  5
3DE
  8
2
  6
CONTINUOUS
 62
     7
 10
625.4999999999999
 20
-414.9154326912999
 30
0.0
 11
625.4999999999999
 21
-411.9154326913
 31
0.0
  0
ARC
  5
3DF
  8
2
  6
CONTINUOUS
 62
     7
 10
549.4999999999999
 20
-356.4142135623999
 30
0.0
 40
0.500000000000056
 50
0.0
 51
135.0
  0
LINE
  5
3E0
  8
2
  6
CONTINUOUS
 62
     7
 10
551.0
 20
-351.5857864375999
 30
0.0
 11
551.0
 21
-345.5597970996
 31
0.0
  0
ARC
  5
3E1
  8
2
  6
CONTINUOUS
 62
     7
 10
550.4999999999999
 20
-354.0
 30
0.0
 40
10.63491012990003
 50
343.6150279779
 51
16.38497202209999
  0
LINE
  5
3E2
  8
2
  6
CONTINUOUS
 62
     7
 10
553.7642518508999
 20
-393.8746454821
 30
0.0
 11
553.7865083170999
 21
-393.8566243122
 31
0.0
  0
LINE
  5
3E3
  8
2
  6
CONTINUOUS
 62
     7
 10
547.4840771985
 20
-364.181704255
 30
0.0
 11
547.4999999999999
 21
-364.2030051196
 31
0.0
  0
LINE
  5
3E4
  8
2
  6
CONTINUOUS
 62
     7
 10
540.3367269322999
 20
-350.9703263895999
 30
0.0
 11
540.3836703058001
 21
-350.9354162597999
 31
0.0
  0
LINE
  5
3E5
  8
2
  6
CONTINUOUS
 62
     7
 10
612.9
 20
-411.9154326912999
 30
0.0
 11
612.9
 21
-414.9154326912999
 31
0.0
  0
LINE
  5
3E6
  8
2
  6
CONTINUOUS
 62
     7
 10
544.1783219039
 20
-348.3854286850999
 30
0.0
 11
548.4393398286
 21
-352.6464466089999
 31
0.0
  0
ARC
  5
3E7
  8
2
  6
CONTINUOUS
 62
     7
 10
550.4999999999999
 20
-354.0
 30
0.0
 40
7.750000000000035
 50
183.6990710632
 51
221.3009289368
  0
ARC
  5
3E8
  8
2
  6
CONTINUOUS
 62
     7
 10
550.4999999999999
 20
-354.0
 30
0.0
 40
8.45499999999999
 50
356.6097440931
 51
3.390255906899994
  0
ARC
  5
3E9
  8
2
  6
CONTINUOUS
 62
     7
 10
550.4999999999999
 20
-354.0
 30
0.0
 40
10.63491012990003
 50
73.61502797789998
 51
106.3849720221
  0
LINE
  5
3EA
  8
2
  6
CONTINUOUS
 62
     7
 10
540.5960546742
 20
-397.0336540976
 30
0.0
 11
540.6288044728001
 21
-397.0624023441999
 31
0.0
  0
LINE
  5
3EB
  8
2
  6
CONTINUOUS
 62
     7
 10
540.3836703058001
 20
-350.9354162598
 30
0.0
 11
538.6761096738
 21
-350.9354162598
 31
0.0
  0
ARC
  5
3EC
  8
2
  6
CONTINUOUS
 62
     7
 10
550.4999999999999
 20
-354.0
 30
0.0
 40
7.750000000000035
 50
273.6990710632
 51
311.3009289368001
  0
LINE
  5
3ED
  8
2
  6
CONTINUOUS
 62
     7
 10
540.318295745
 20
-350.9840771985
 30
0.0
 11
540.2969948804
 21
-350.9999999999999
 31
0.0
  0
LINE
  5
3EE
  8
2
  6
CONTINUOUS
 62
     7
 10
632.75
 20
-414.9154326912999
 30
0.0
 11
632.2500000000002
 21
-414.9154326912999
 31
0.0
  0
ARC
  5
3EF
  8
2
  6
CONTINUOUS
 62
     7
 10
550.4999999999999
 20
-354.0
 30
0.0
 40
8.45499999999999
 50
86.6097440931
 51
93.39025590689998
  0
LINE
  5
3F0
  8
2
  6
CONTINUOUS
 62
     7
 10
560.3222493702998
 20
-397.1010729784999
 30
0.0
 11
560.3588282623
 21
-397.0726409049
 31
0.0
  0
LINE
  5
3F1
  8
2
  6
CONTINUOUS
 62
     7
 10
559.9076204175
 20
-397.2863572602
 30
0.0
 11
559.9526812542999
 21
-397.2759237006
 31
0.0
  0
LINE
  5
3F2
  8
2
  6
CONTINUOUS
 62
     7
 10
540.8516844869998
 20
-397.2054481278001
 30
0.0
 11
540.8926207939
 21
-397.22384743
 31
0.0
  0
LINE
  5
3F3
  8
2
  6
CONTINUOUS
 62
     7
 10
550.0
 20
-345.5597970996
 30
0.0
 11
550.0
 21
-351.5857864375999
 31
0.0
  0
LINE
  5
3F4
  8
2
  6
CONTINUOUS
 62
     7
 10
542.0597970995997
 20
-354.4999999999999
 30
0.0
 11
548.0857864375998
 21
-354.4999999999999
 31
0.0
  0
LINE
  5
3F5
  8
2
  6
CONTINUOUS
 62
     7
 10
553.9885614926
 20
-393.7474359874
 30
0.0
 11
554.0164015966001
 21
-393.7385236752
 31
0.0
  0
ARC
  5
3F6
  8
2
  6
CONTINUOUS
 62
     7
 10
550.4999999999999
 20
-354.0
 30
0.0
 40
8.45499999999999
 50
311.6097440931
 51
318.3902559069
  0
ARC
  5
3F7
  8
2
  6
CONTINUOUS
 62
     7
 10
550.4999999999999
 20
-354.0
 30
0.0
 40
7.750000000000035
 50
228.6990710632
 51
266.3009289368
  0
LINE
  5
3F8
  8
2
  6
CONTINUOUS
 62
     7
 10
553.5296736104
 20
-364.1632730676999
 30
0.0
 11
553.5645837401999
 21
-364.1163296941999
 31
0.0
  0
LINE
  5
3F9
  8
2
  6
CONTINUOUS
 62
     7
 10
560.1248198221999
 20
-397.2162575288
 30
0.0
 11
560.1655145146
 21
-397.1970855034999
 31
0.0
  0
LINE
  5
3FA
  8
2
  6
CONTINUOUS
 62
     7
 10
560.6163296942001
 20
-357.0645837402
 30
0.0
 11
562.3238903262
 21
-357.0645837402
 31
0.0
  0
ARC
  5
3FB
  8
2
  6
CONTINUOUS
 62
     7
 10
550.4999999999999
 20
-354.0
 30
0.0
 40
10.63491012990003
 50
253.6150279779
 51
286.3849720221
  0
LINE
  5
3FC
  8
2
  6
CONTINUOUS
 62
     7
 10
556.8216780961
 20
-359.6145713148999
 30
0.0
 11
552.5606601714
 21
-355.353553391
 31
0.0
  0
LINE
  5
3FD
  8
2
  6
CONTINUOUS
 62
     7
 10
553.8824502255
 20
-393.793998501
 30
0.0
 11
553.9079903473
 21
-393.7808347249
 31
0.0
  0
LINE
  5
3FE
  8
2
  6
CONTINUOUS
 62
     7
 10
540.7722710851999
 20
-397.1634776536999
 30
0.0
 11
540.8115300411998
 21
-397.1853089161999
 31
0.0
  0
LINE
  5
3FF
  8
2
  6
CONTINUOUS
 62
     7
 10
553.5477715141999
 20
-394.2004406206
 30
0.0
 11
553.5569791369999
 21
-394.1730130162
 31
0.0
  0
ARC
  5
400
  8
1
  6
CONTINUOUS
 62
     7
 10
513.0000000000002
 20
-179.0000000000001
 30
0.0
 40
1.000000000000001
 50
179.9999999999994
 51
270.0
  0
ARC
  5
401
  8
1
  6
CONTINUOUS
 62
     7
 10
514.0
 20
-151.0
 30
0.0
 40
2.000000000000002
 50
90.0
 51
180.0
  0
LINE
  5
402
  8
2
  6
CONTINUOUS
 62
     7
 10
553.8094261836999
 20
-393.8395651604999
 30
0.0
 11
553.8329443453998
 21
-393.8235049446998
 31
0.0
  0
LINE
  5
403
  8
1
  6
CONTINUOUS
 62
     7
 10
514.5
 20
-180.0000000000001
 30
0.0
 11
514.5
 21
-160.5000000000001
 31
0.0
  0
LINE
  5
404
  8
2
  6
CONTINUOUS
 62
     7
 10
559.9526812542998
 20
-397.2759237006
 30
0.0
 11
559.9972557246998
 21
-397.2635796389
 31
0.0
  0
LINE
  5
405
  8
2
  6
CONTINUOUS
 62
     7
 10
540.9330667808999
 20
-397.2400313234
 30
0.0
 11
540.974173355
 21
-397.2545643159
 31
0.0
  0
LINE
  5
406
  8
1
  6
CONTINUOUS
 62
     7
 10
617.9999999999999
 20
-205.4999999999999
 30
0.0
 11
617.9999999999999
 21
-190.9999999999999
 31
0.0
  0
ARC
  5
407
  8
1
  6
CONTINUOUS
 62
     7
 10
579.0
 20
-227.8500000000001
 30
0.0
 40
4.200000000000093
 50
289.4961621812312
 51
0.0
  0
ARC
  5
408
  8
1
  6
CONTINUOUS
 62
     7
 10
617.0
 20
-190.9999999999999
 30
0.0
 40
0.9999999999998899
 50
359.9999999999993
 51
90.0
  0
LINE
  5
409
  8
1
  6
CONTINUOUS
 62
     7
 10
516.5999999999999
 20
-189.9999999999999
 30
0.0
 11
516.5999999999998
 21
-209.5000000000001
 31
0.0
  0
ARC
  5
40A
  8
1
  6
CONTINUOUS
 62
     7
 10
579.0
 20
-227.8500000000001
 30
0.0
 40
2.250000000000085
 50
346.7683351757007
 51
13.23166482429929
  0
ARC
  5
40B
  8
1
  6
CONTINUOUS
 62
     7
 10
597.0000000000002
 20
-142.15
 30
0.0
 40
1.030668528585243
 50
330.0214543835138
 51
29.97854561648614
  0
LINE
  5
40C
  8
1
  6
CONTINUOUS
 62
     7
 10
615.4999999999999
 20
-160.5
 30
0.0
 11
615.4999999999999
 21
-180.0000000000001
 31
0.0
  0
LINE
  5
40D
  8
1
  6
CONTINUOUS
 62
     7
 10
512.0000000000001
 20
-151.0
 30
0.0
 11
512.0000000000002
 21
-161.5000000000001
 31
0.0
  0
LINE
  5
40E
  8
1
  6
CONTINUOUS
 62
     7
 10
514.5
 20
-189.9999999999999
 30
0.0
 11
516.6
 21
-189.9999999999999
 31
0.0
  0
ARC
  5
40F
  8
1
  6
CONTINUOUS
 62
     7
 10
597.0000000000002
 20
-142.15
 30
0.0
 40
1.030668528585243
 50
60.02145438351382
 51
119.9785456164862
  0
LINE
  5
410
  8
1
  6
CONTINUOUS
 62
     7
 10
617.0
 20
-205.4999999999999
 30
0.0
 11
617.9999999999999
 21
-205.4999999999999
 31
0.0
  0
LINE
  5
411
  8
1
  6
CONTINUOUS
 62
     7
 10
613.5
 20
-158.0
 30
0.0
 11
613.5
 21
-150.2043698590135
 31
0.0
  0
LINE
  5
412
  8
2
  6
CONTINUOUS
 62
     7
 10
540.6978873012999
 20
-397.1156400127999
 30
0.0
 11
540.7340212478999
 21
-397.1400021988999
 31
0.0
  0
LINE
  5
413
  8
1
  6
CONTINUOUS
 62
     7
 10
613.4
 20
-209.5000000000001
 30
0.0
 11
613.4
 21
-189.9999999999999
 31
0.0
  0
LINE
  5
414
  8
2
  6
CONTINUOUS
 62
     7
 10
546.0728280841998
 20
-394.2350243400999
 30
0.0
 11
546.0802894645001
 21
-394.2082434211001
 31
0.0
  0
ARC
  5
415
  8
1
  6
CONTINUOUS
 62
     7
 10
533.0
 20
-227.8500000000001
 30
0.0
 40
1.030668528585355
 50
60.02145438351382
 51
119.9785456164862
  0
LINE
  5
416
  8
2
  6
CONTINUOUS
 62
     7
 10
553.9079903472999
 20
-393.7808347249
 30
0.0
 11
553.9339680249
 21
-393.7687653468001
 31
0.0
  0
LINE
  5
417
  8
2
  6
CONTINUOUS
 62
     7
 10
559.8177245123001
 20
-397.3012652372
 30
0.0
 11
559.8621980551001
 21
-397.2948579148
 31
0.0
  0
LINE
  5
418
  8
1
  6
CONTINUOUS
 62
     7
 10
514.0000000000002
 20
-207.4999999999999
 30
0.0
 11
514.0000000000002
 21
-206.4999999999999
 31
0.0
  0
LINE
  5
419
  8
1
  6
CONTINUOUS
 62
     7
 10
613.5
 20
-221.0000000000001
 30
0.0
 11
613.5
 21
-219.7956301409866
 31
0.0
  0
LINE
  5
41A
  8
1
  6
CONTINUOUS
 62
     7
 10
516.5
 20
-212.0000000000001
 30
0.0
 11
516.5
 21
-219.795630140987
 31
0.0
  0
ARC
  5
41B
  8
1
  6
CONTINUOUS
 62
     7
 10
514.0
 20
-219.0000000000001
 30
0.0
 40
2.000000000000002
 50
180.0
 51
270.0
  0
ARC
  5
41C
  8
1
  6
CONTINUOUS
 62
     7
 10
513.0000000000002
 20
-190.9999999999999
 30
0.0
 40
1.000000000000001
 50
90.0
 51
180.0000000000006
  0
LINE
  5
41D
  8
2
  6
CONTINUOUS
 62
     7
 10
553.7427178904
 20
-393.8935917526999
 30
0.0
 11
553.7642518508999
 21
-393.8746454820999
 31
0.0
  0
LINE
  5
41E
  8
2
  6
CONTINUOUS
 62
     7
 10
540.7340212478999
 20
-397.1400021988999
 30
0.0
 11
540.7722710851999
 21
-397.1634776536998
 31
0.0
  0
LINE
  5
41F
  8
1
  6
CONTINUOUS
 62
     7
 10
578.485
 20
-227.3350000000001
 30
0.0
 11
576.8097317515884
 21
-227.3350000000001
 31
0.0
  0
LINE
  5
420
  8
1
  6
CONTINUOUS
 62
     7
 10
513.0000000000002
 20
-205.4999999999999
 30
0.0
 11
512.0000000000002
 21
-205.4999999999999
 31
0.0
  0
LINE
  5
421
  8
1
  6
CONTINUOUS
 62
     7
 10
513.0000000000002
 20
-164.5000000000001
 30
0.0
 11
512.0000000000002
 21
-164.5000000000001
 31
0.0
  0
ARC
  5
422
  8
1
  6
CONTINUOUS
 62
     7
 10
513.0000000000002
 20
-207.4999999999999
 30
0.0
 40
1.000000000000001
 50
269.9999999999996
 51
0.0
  0
ENDSEC
  0
EOF
