  0
SECTION
  2
HEADER
  9
$ACADVER
  1
AC1021
  9
$ACADMAINTVER
 70
    25
  9
$DWGCODEPAGE
  3
ANSI_932
  9
$INSBASE
 10
0.0
 20
0.0
 30
0.0
  9
$EXTMIN
 10
4995.3164165212
 20
-3876.84171
 30
0.0
  9
$EXTMAX
 10
6619.5027526132
 20
-3329.4088684128
 30
0.0
  9
$LIMMIN
 10
0.0
 20
0.0
  9
$LIMMAX
 10
12.0
 20
9.0
  9
$ORTHOMODE
 70
     0
  9
$REGENMODE
 70
     1
  9
$FILLMODE
 70
     1
  9
$QTEXTMODE
 70
     0
  9
$MIRRTEXT
 70
     1
  9
$LTSCALE
 40
1.0
  9
$ATTMODE
 70
     1
  9
$TEXTSIZE
 40
0.2
  9
$TRACEWID
 40
0.05
  9
$TEXTSTYLE
  7
Standard
  9
$CLAYER
  8
0
  9
$CELTYPE
  6
ByLayer
  9
$CECOLOR
 62
   256
  9
$CELTSCALE
 40
1.0
  9
$DISPSILH
 70
     0
  9
$DIMSCALE
 40
1.0
  9
$DIMASZ
 40
3.0
  9
$DIMEXO
 40
0.0625
  9
$DIMDLI
 40
0.38
  9
$DIMRND
 40
0.0
  9
$DIMDLE
 40
0.0
  9
$DIMEXE
 40
0.18
  9
$DIMTP
 40
0.0
  9
$DIMTM
 40
0.0
  9
$DIMTXT
 40
3.0
  9
$DIMCEN
 40
0.09
  9
$DIMTSZ
 40
0.0
  9
$DIMTOL
 70
     0
  9
$DIMLIM
 70
     0
  9
$DIMTIH
 70
     1
  9
$DIMTOH
 70
     1
  9
$DIMSE1
 70
     0
  9
$DIMSE2
 70
     0
  9
$DIMTAD
 70
     1
  9
$DIMZIN
 70
     0
  9
$DIMBLK
  1

  9
$DIMASO
 70
     1
  9
$DIMSHO
 70
     1
  9
$DIMPOST
  1

  9
$DIMAPOST
  1

  9
$DIMALT
 70
     0
  9
$DIMALTD
 70
     2
  9
$DIMALTF
 40
25.4
  9
$DIMLFAC
 40
1.0
  9
$DIMTOFL
 70
     0
  9
$DIMTVP
 40
0.0
  9
$DIMTIX
 70
     0
  9
$DIMSOXD
 70
     0
  9
$DIMSAH
 70
     0
  9
$DIMBLK1
  1

  9
$DIMBLK2
  1

  9
$DIMSTYLE
  2
Standard
  9
$DIMCLRD
 70
     0
  9
$DIMCLRE
 70
     0
  9
$DIMCLRT
 70
     0
  9
$DIMTFAC
 40
1.0
  9
$DIMGAP
 40
0.09
  9
$DIMJUST
 70
     0
  9
$DIMSD1
 70
     0
  9
$DIMSD2
 70
     0
  9
$DIMTOLJ
 70
     1
  9
$DIMTZIN
 70
     0
  9
$DIMALTZ
 70
     0
  9
$DIMALTTZ
 70
     0
  9
$DIMUPT
 70
     0
  9
$DIMDEC
 70
     2
  9
$DIMTDEC
 70
     4
  9
$DIMALTU
 70
     2
  9
$DIMALTTD
 70
     2
  9
$DIMTXSTY
  7
Standard
  9
$DIMAUNIT
 70
     0
  9
$DIMADEC
 70
     2
  9
$DIMALTRND
 40
0.0
  9
$DIMAZIN
 70
     0
  9
$DIMDSEP
 70
    46
  9
$DIMATFIT
 70
     3
  9
$DIMFRAC
 70
     0
  9
$DIMLDRBLK
  1

  9
$DIMLUNIT
 70
     2
  9
$DIMLWD
 70
    -2
  9
$DIMLWE
 70
    -2
  9
$DIMTMOVE
 70
     0
  9
$DIMFXL
 40
1.0
  9
$DIMFXLON
 70
     0
  9
$DIMJOGANG
 40
0.7853981633974483
  9
$DIMTFILL
 70
     0
  9
$DIMTFILLCLR
 70
     0
  9
$DIMARCSYM
 70
     0
  9
$DIMLTYPE
  6

  9
$DIMLTEX1
  6

  9
$DIMLTEX2
  6

  9
$LUNITS
 70
     2
  9
$LUPREC
 70
     4
  9
$SKETCHINC
 40
0.1
  9
$FILLETRAD
 40
0.5
  9
$AUNITS
 70
     0
  9
$AUPREC
 70
     0
  9
$MENU
  1
.
  9
$ELEVATION
 40
0.0
  9
$PELEVATION
 40
0.0
  9
$THICKNESS
 40
0.0
  9
$LIMCHECK
 70
     0
  9
$CHAMFERA
 40
0.5
  9
$CHAMFERB
 40
0.5
  9
$CHAMFERC
 40
1.0
  9
$CHAMFERD
 40
0.0
  9
$SKPOLY
 70
     0
  9
$TDCREATE
 40
2459615.350346748
  9
$TDUCREATE
 40
2459614.975346748
  9
$TDUPDATE
 40
2459615.350346759
  9
$TDUUPDATE
 40
2459614.975346759
  9
$TDINDWG
 40
0.0000000116
  9
$TDUSRTIMER
 40
0.0000000116
  9
$USRTIMER
 70
     1
  9
$ANGBASE
 50
0.0
  9
$ANGDIR
 70
     0
  9
$PDMODE
 70
     0
  9
$PDSIZE
 40
0.0
  9
$PLINEWID
 40
0.0
  9
$SPLFRAME
 70
     0
  9
$SPLINETYPE
 70
     6
  9
$SPLINESEGS
 70
     8
  9
$HANDSEED
  5
1FB
  9
$SURFTAB1
 70
     6
  9
$SURFTAB2
 70
     6
  9
$SURFTYPE
 70
     6
  9
$SURFU
 70
     6
  9
$SURFV
 70
     6
  9
$UCSBASE
  2

  9
$UCSNAME
  2

  9
$UCSORG
 10
0.0
 20
0.0
 30
0.0
  9
$UCSXDIR
 10
1.0
 20
0.0
 30
0.0
  9
$UCSYDIR
 10
0.0
 20
1.0
 30
0.0
  9
$UCSORTHOREF
  2

  9
$UCSORTHOVIEW
 70
     0
  9
$UCSORGTOP
 10
0.0
 20
0.0
 30
0.0
  9
$UCSORGBOTTOM
 10
0.0
 20
0.0
 30
0.0
  9
$UCSORGLEFT
 10
0.0
 20
0.0
 30
0.0
  9
$UCSORGRIGHT
 10
0.0
 20
0.0
 30
0.0
  9
$UCSORGFRONT
 10
0.0
 20
0.0
 30
0.0
  9
$UCSORGBACK
 10
0.0
 20
0.0
 30
0.0
  9
$PUCSBASE
  2

  9
$PUCSNAME
  2

  9
$PUCSORG
 10
0.0
 20
0.0
 30
0.0
  9
$PUCSXDIR
 10
1.0
 20
0.0
 30
0.0
  9
$PUCSYDIR
 10
0.0
 20
1.0
 30
0.0
  9
$PUCSORTHOREF
  2

  9
$PUCSORTHOVIEW
 70
     0
  9
$PUCSORGTOP
 10
0.0
 20
0.0
 30
0.0
  9
$PUCSORGBOTTOM
 10
0.0
 20
0.0
 30
0.0
  9
$PUCSORGLEFT
 10
0.0
 20
0.0
 30
0.0
  9
$PUCSORGRIGHT
 10
0.0
 20
0.0
 30
0.0
  9
$PUCSORGFRONT
 10
0.0
 20
0.0
 30
0.0
  9
$PUCSORGBACK
 10
0.0
 20
0.0
 30
0.0
  9
$USERI1
 70
     0
  9
$USERI2
 70
     0
  9
$USERI3
 70
     0
  9
$USERI4
 70
     0
  9
$USERI5
 70
     0
  9
$USERR1
 40
0.0
  9
$USERR2
 40
0.0
  9
$USERR3
 40
0.0
  9
$USERR4
 40
0.0
  9
$USERR5
 40
0.0
  9
$WORLDVIEW
 70
     1
  9
$SHADEDGE
 70
     3
  9
$SHADEDIF
 70
    70
  9
$TILEMODE
 70
     1
  9
$MAXACTVP
 70
    64
  9
$PINSBASE
 10
0.0
 20
0.0
 30
0.0
  9
$PLIMCHECK
 70
     0
  9
$PEXTMIN
 10
1.000000000000000E+20
 20
1.000000000000000E+20
 30
1.000000000000000E+20
  9
$PEXTMAX
 10
-1.000000000000000E+20
 20
-1.000000000000000E+20
 30
-1.000000000000000E+20
  9
$PLIMMIN
 10
0.0
 20
0.0
  9
$PLIMMAX
 10
12.0
 20
9.0
  9
$UNITMODE
 70
     0
  9
$VISRETAIN
 70
     1
  9
$PLINEGEN
 70
     0
  9
$PSLTSCALE
 70
     1
  9
$TREEDEPTH
 70
  3020
  9
$CMLSTYLE
  2
Standard
  9
$CMLJUST
 70
     0
  9
$CMLSCALE
 40
1.0
  9
$PROXYGRAPHICS
 70
     1
  9
$MEASUREMENT
 70
     1
  9
$CELWEIGHT
370
    -1
  9
$ENDCAPS
280
     0
  9
$JOINSTYLE
280
     0
  9
$LWDISPLAY
290
     1
  9
$INSUNITS
 70
     4
  9
$HYPERLINKBASE
  1

  9
$STYLESHEET
  1

  9
$XEDIT
290
     1
  9
$CEPSNTYPE
380
     0
  9
$PSTYLEMODE
290
     1
  9
$FINGERPRINTGUID
  2
{5405F7BB-B76D-44B1-941E-956E5E3CED01}
  9
$VERSIONGUID
  2
{FAEB1C32-E019-11D5-929B-00C0DF256EC4}
  9
$EXTNAMES
290
     1
  9
$PSVPSCALE
 40
0.0
  9
$OLESTARTUP
290
     0
  9
$SORTENTS
280
   127
  9
$INDEXCTL
280
     0
  9
$HIDETEXT
280
     1
  9
$XCLIPFRAME
290
     0
  9
$HALOGAP
280
     0
  9
$OBSCOLOR
 70
   257
  9
$OBSLTYPE
280
     0
  9
$INTERSECTIONDISPLAY
280
     0
  9
$INTERSECTIONCOLOR
 70
   257
  9
$DIMASSOC
280
     2
  9
$PROJECTNAME
  1

  9
$CAMERADISPLAY
290
     0
  9
$LENSLENGTH
 40
50.0
  9
$CAMERAHEIGHT
 40
0.0
  9
$STEPSPERSEC
 40
2.0
  9
$STEPSIZE
 40
6.0
  9
$3DDWFPREC
 40
2.0
  9
$PSOLWIDTH
 40
0.25
  9
$PSOLHEIGHT
 40
4.0
  9
$LOFTANG1
 40
1.570796326794897
  9
$LOFTANG2
 40
1.570796326794897
  9
$LOFTMAG1
 40
0.0
  9
$LOFTMAG2
 40
0.0
  9
$LOFTPARAM
 70
     7
  9
$LOFTNORMALS
280
     1
  9
$LATITUDE
 40
37.795
  9
$LONGITUDE
 40
-122.394
  9
$NORTHDIRECTION
 40
0.0
  9
$TIMEZONE
 70
 -8000
  9
$LIGHTGLYPHDISPLAY
280
     1
  9
$TILEMODELIGHTSYNCH
280
     1
  9
$SOLIDHIST
280
     1
  9
$SHOWHIST
280
     1
  9
$DWFFRAME
280
     2
  9
$DGNFRAME
280
     2
  9
$REALWORLDSCALE
290
     1
  9
$INTERFERECOLOR
 62
   256
  9
$CSHADOW
280
     0
  9
$SHADOWPLANELOCATION
 40
0.0
  0
ENDSEC
  0
SECTION
  2
CLASSES
  0
CLASS
  1
ACDBDICTIONARYWDFLT
  2
AcDbDictionaryWithDefault
  3
ObjectDBX Classes
 90
        0
 91
        4
280
     0
281
     0
  0
CLASS
  1
VISUALSTYLE
  2
AcDbVisualStyle
  3
ObjectDBX Classes
 90
     4095
 91
        4
280
     0
281
     0
  0
ENDSEC
  0
SECTION
  2
TABLES
  0
TABLE
  2
VPORT
  5
8
330
0
100
AcDbSymbolTable
 70
     1
  0
VPORT
  5
29
330
8
100
AcDbSymbolTableRecord
100
AcDbViewportTableRecord
  2
*Active
 70
     0
 10
0.0
 20
0.0
 11
1.0
 21
1.0
 12
5807.4095845672
 22
-3603.1252892064
 13
0.0
 23
0.0
 14
0.5
 24
0.5
 15
0.5
 25
0.5
 16
0.0
 26
0.0
 36
1.0
 17
0.0
 27
0.0
 37
0.0
 40
547.4328415872001
 41
1.6
 42
50.0
 43
0.0
 44
0.0
 50
0.0
 51
0.0
 71
     0
 72
   100
 73
     1
 74
     3
 75
     0
 76
     0
 77
     0
 78
     0
281
     0
 65
     1
110
0.0
120
0.0
130
0.0
111
1.0
121
0.0
131
0.0
112
0.0
122
1.0
132
0.0
 79
     0
146
0.0
 60
     3
 61
     5
292
     1
282
     1
141
0.0
142
0.0
 63
   250
  0
ENDTAB
  0
TABLE
  2
LTYPE
  5
5
330
0
100
AcDbSymbolTable
 70
     3
  0
LTYPE
  5
14
330
5
100
AcDbSymbolTableRecord
100
AcDbLinetypeTableRecord
  2
ByBlock
 70
     0
  3

 72
    65
 73
     0
 40
0.0
  0
LTYPE
  5
15
330
5
100
AcDbSymbolTableRecord
100
AcDbLinetypeTableRecord
  2
ByLayer
 70
     0
  3

 72
    65
 73
     0
 40
0.0
  0
LTYPE
  5
16
330
5
100
AcDbSymbolTableRecord
100
AcDbLinetypeTableRecord
  2
Continuous
 70
     0
  3
Solid line
 72
    65
 73
     0
 40
0.0
  0
LTYPE
  5
3D
330
5
100
AcDbSymbolTableRecord
100
AcDbLinetypeTableRecord
  2
________________
 70
     0
  3

 72
    65
 73
     0
 40
0.0
  0
LTYPE
  5
5E
330
5
100
AcDbSymbolTableRecord
100
AcDbLinetypeTableRecord
  2
________...._...
 70
     0
  3

 72
    65
 73
     4
 40
6.0000000300003
 49
3.0
 74
     0
 49
-1.5
 74
     0
 49
0.0000000300003
 74
     0
 49
-1.5
 74
     0
  0
ENDTAB
  0
TABLE
  2
LAYER
  5
2
330
0
100
AcDbSymbolTable
 70
     2
  0
LAYER
  5
10
330
2
100
AcDbSymbolTableRecord
100
AcDbLayerTableRecord
  2
0
 70
     0
 62
     7
  6
Continuous
370
    -3
390
F
347
0
  0
LAYER
  5
3B
330
2
100
AcDbSymbolTableRecord
100
AcDbLayerTableRecord
  2
1
 70
     0
 62
     7
  6
Continuous
370
    -3
390
F
347
0
  0
ENDTAB
  0
TABLE
  2
STYLE
  5
3
330
0
100
AcDbSymbolTable
 70
     1
  0
STYLE
  5
11
330
3
100
AcDbSymbolTableRecord
100
AcDbTextStyleTableRecord
  2
Standard
 70
     0
 40
0.0
 41
1.0
 50
0.0
 71
     0
 42
0.2
  3
txt
  4

  0
ENDTAB
  0
TABLE
  2
VIEW
  5
6
330
0
100
AcDbSymbolTable
 70
     0
  0
ENDTAB
  0
TABLE
  2
UCS
  5
7
330
0
100
AcDbSymbolTable
 70
     0
  0
ENDTAB
  0
TABLE
  2
APPID
  5
9
330
0
100
AcDbSymbolTable
 70
     1
  0
APPID
  5
12
330
9
100
AcDbSymbolTableRecord
100
AcDbRegAppTableRecord
  2
ACAD
 70
     0
  0
ENDTAB
  0
TABLE
  2
DIMSTYLE
  5
A
330
0
100
AcDbSymbolTable
 70
     1
100
AcDbDimStyleTable
  0
DIMSTYLE
105
27
330
A
100
AcDbSymbolTableRecord
100
AcDbDimStyleTableRecord
  2
Standard
 70
     0
340
11
  0
ENDTAB
  0
TABLE
  2
BLOCK_RECORD
  5
1
330
0
100
AcDbSymbolTable
 70
     5
  0
BLOCK_RECORD
  5
1F
330
1
100
AcDbSymbolTableRecord
100
AcDbBlockTableRecord
  2
*Model_Space
340
22
 70
     0
280
     1
281
     0
  0
BLOCK_RECORD
  5
1B
330
1
100
AcDbSymbolTableRecord
100
AcDbBlockTableRecord
  2
*Paper_Space
340
1E
 70
     0
280
     1
281
     0
  0
BLOCK_RECORD
  5
23
330
1
100
AcDbSymbolTableRecord
100
AcDbBlockTableRecord
  2
*Paper_Space0
340
26
 70
     0
280
     1
281
     0
  0
BLOCK_RECORD
  5
1E4
330
1
100
AcDbSymbolTableRecord
100
AcDbBlockTableRecord
  2
@364
340
0
102
{BLKREFS
331
1E8
102
}
 70
     0
280
     1
281
     0
  0
BLOCK_RECORD
  5
1E9
330
1
100
AcDbSymbolTableRecord
100
AcDbBlockTableRecord
  2
@363
340
0
102
{BLKREFS
331
1ED
102
}
 70
     0
280
     1
281
     0
  0
BLOCK_RECORD
  5
1EE
330
1
100
AcDbSymbolTableRecord
100
AcDbBlockTableRecord
  2
@362
340
0
102
{BLKREFS
331
1F2
102
}
 70
     0
280
     1
281
     0
  0
BLOCK_RECORD
  5
1F3
330
1
100
AcDbSymbolTableRecord
100
AcDbBlockTableRecord
  2
@361
340
0
102
{BLKREFS
331
1F7
102
}
 70
     0
280
     1
281
     0
  0
ENDTAB
  0
ENDSEC
  0
SECTION
  2
BLOCKS
  0
BLOCK
  5
20
330
1F
100
AcDbEntity
  8
0
100
AcDbBlockBegin
  2
*Model_Space
 70
     0
 10
0.0
 20
0.0
 30
0.0
  3
*Model_Space
  1

  0
ENDBLK
  5
21
330
1F
100
AcDbEntity
  8
0
100
AcDbBlockEnd
  0
BLOCK
  5
1C
330
1B
100
AcDbEntity
 67
     1
  8
0
100
AcDbBlockBegin
  2
*Paper_Space
 70
     0
 10
0.0
 20
0.0
 30
0.0
  3
*Paper_Space
  1

  0
ENDBLK
  5
1D
330
1B
100
AcDbEntity
 67
     1
  8
0
100
AcDbBlockEnd
  0
BLOCK
  5
24
330
23
100
AcDbEntity
  8
0
100
AcDbBlockBegin
  2
*Paper_Space0
 70
     0
 10
0.0
 20
0.0
 30
0.0
  3
*Paper_Space0
  1

  0
ENDBLK
  5
25
330
23
100
AcDbEntity
  8
0
100
AcDbBlockEnd
  0
BLOCK
  5
1E6
330
1E4
100
AcDbEntity
  8
0
100
AcDbBlockBegin
  2
@364
 70
     0
 10
0.0
 20
0.0
 30
0.0
  3
@364
  1

  0
CIRCLE
  5
1E5
330
1E4
100
AcDbEntity
  8
1
  6
________________
 62
     7
370
     9
100
AcDbCircle
 10
5497.9027526132
 20
-3342.4088684128
 30
0.0
 40
1.3
  0
ENDBLK
  5
1E7
330
1E4
100
AcDbEntity
  8
0
100
AcDbBlockEnd
  0
BLOCK
  5
1EB
330
1E9
100
AcDbEntity
  8
0
100
AcDbBlockBegin
  2
@363
 70
     0
 10
0.0
 20
0.0
 30
0.0
  3
@363
  1

  0
CIRCLE
  5
1EA
330
1E9
100
AcDbEntity
  8
1
  6
________________
 62
     7
370
     9
100
AcDbCircle
 10
5497.9027526132
 20
-3565.4088684128
 30
0.0
 40
1.3
  0
ENDBLK
  5
1EC
330
1E9
100
AcDbEntity
  8
0
100
AcDbBlockEnd
  0
BLOCK
  5
1F0
330
1EE
100
AcDbEntity
  8
0
100
AcDbBlockBegin
  2
@362
 70
     0
 10
0.0
 20
0.0
 30
0.0
  3
@362
  1

  0
CIRCLE
  5
1EF
330
1EE
100
AcDbEntity
  8
1
  6
________________
 62
     7
370
     9
100
AcDbCircle
 10
6397.9027526132
 20
-3342.4088684128
 30
0.0
 40
1.3
  0
ENDBLK
  5
1F1
330
1EE
100
AcDbEntity
  8
0
100
AcDbBlockEnd
  0
BLOCK
  5
1F5
330
1F3
100
AcDbEntity
  8
0
100
AcDbBlockBegin
  2
@361
 70
     0
 10
0.0
 20
0.0
 30
0.0
  3
@361
  1

  0
CIRCLE
  5
1F4
330
1F3
100
AcDbEntity
  8
1
  6
________________
 62
     7
370
     9
100
AcDbCircle
 10
6397.9027526132
 20
-3565.4088684128
 30
0.0
 40
1.3
  0
ENDBLK
  5
1F6
330
1F3
100
AcDbEntity
  8
0
100
AcDbBlockEnd
  0
ENDSEC
  0
SECTION
  2
ENTITIES
  0
LINE
  5
3C
330
1F
100
AcDbEntity
  8
1
  6
________________
 62
     7
370
     9
100
AcDbLine
 10
5194.8164165212
 20
-3831.7380479908
 30
0.0
 11
5039.0164165212
 21
-3831.7380479908
 31
0.0
  0
LINE
  5
3E
330
1F
100
AcDbEntity
  8
1
  6
________________
 62
     7
370
     9
100
AcDbLine
 10
5039.0164165212
 20
-3831.7380479908
 30
0.0
 11
5039.0164165212
 21
-3830.1380479908
 31
0.0
  0
LINE
  5
3F
330
1F
100
AcDbEntity
  8
1
  6
________________
 62
     7
370
     9
100
AcDbLine
 10
5039.0164165212
 20
-3830.1380479908
 30
0.0
 11
5194.8164165212
 21
-3830.1380479908
 31
0.0
  0
LINE
  5
40
330
1F
100
AcDbEntity
  8
1
  6
________________
 62
     7
370
     9
100
AcDbLine
 10
5194.8164165212
 20
-3830.1380479908
 30
0.0
 11
5194.8164165212
 21
-3831.7380479908
 31
0.0
  0
LINE
  5
41
330
1F
100
AcDbEntity
  8
1
  6
________________
 62
     7
370
     9
100
AcDbLine
 10
5018.6164165212
 20
-3786.8380479908
 30
0.0
 11
5017.016416521201
 21
-3786.8380479908
 31
0.0
  0
LINE
  5
42
330
1F
100
AcDbEntity
  8
1
  6
________________
 62
     7
370
     9
100
AcDbLine
 10
5018.6164165212
 20
-3825.1380479908
 30
0.0
 11
5018.6164165212
 21
-3786.8380479908
 31
0.0
  0
LINE
  5
43
330
1F
100
AcDbEntity
  8
1
  6
________________
 62
     7
370
     9
100
AcDbLine
 10
5017.016416521201
 20
-3825.1380479908
 30
0.0
 11
5018.6164165212
 21
-3825.1380479908
 31
0.0
  0
LINE
  5
44
330
1F
100
AcDbEntity
  8
1
  6
________________
 62
     7
370
     9
100
AcDbLine
 10
5017.016416521201
 20
-3786.8380479908
 30
0.0
 11
5017.016416521201
 21
-3825.1380479908
 31
0.0
  0
LINE
  5
45
330
1F
100
AcDbEntity
  8
1
  6
________________
 62
     7
370
     9
100
AcDbLine
 10
5017.016416521201
 20
-3781.8380479908
 30
0.0
 11
5018.6164165212
 21
-3781.8380479908
 31
0.0
  0
LINE
  5
46
330
1F
100
AcDbEntity
  8
1
  6
________________
 62
     7
370
     9
100
AcDbLine
 10
5018.6164165212
 20
-3781.8380479908
 30
0.0
 11
5018.6164165212
 21
-3786.8380479908
 31
0.0
  0
LINE
  5
47
330
1F
100
AcDbEntity
  8
1
  6
________________
 62
     7
370
     9
100
AcDbLine
 10
5017.016416521201
 20
-3786.8380479908
 30
0.0
 11
5017.016416521201
 21
-3781.8380479908
 31
0.0
  0
LINE
  5
48
330
1F
100
AcDbEntity
  8
1
  6
________________
 62
     7
370
     9
100
AcDbLine
 10
5018.6164165212
 20
-3830.1380479908
 30
0.0
 11
5017.016416521201
 21
-3830.1380479908
 31
0.0
  0
LINE
  5
49
330
1F
100
AcDbEntity
  8
1
  6
________________
 62
     7
370
     9
100
AcDbLine
 10
5018.6164165212
 20
-3825.1380479908
 30
0.0
 11
5018.6164165212
 21
-3830.1380479908
 31
0.0
  0
LINE
  5
4A
330
1F
100
AcDbEntity
  8
1
  6
________________
 62
     7
370
     9
100
AcDbLine
 10
5017.016416521201
 20
-3830.1380479908
 30
0.0
 11
5017.016416521201
 21
-3825.1380479908
 31
0.0
  0
LINE
  5
4B
330
1F
100
AcDbEntity
  8
1
  6
________________
 62
     7
370
     9
100
AcDbLine
 10
5215.216416521201
 20
-3781.8380479908
 30
0.0
 11
5216.8164165212
 21
-3781.8380479908
 31
0.0
  0
LINE
  5
4C
330
1F
100
AcDbEntity
  8
1
  6
________________
 62
     7
370
     9
100
AcDbLine
 10
5216.8164165212
 20
-3781.8380479908
 30
0.0
 11
5216.8164165212
 21
-3786.8380479908
 31
0.0
  0
LINE
  5
4D
330
1F
100
AcDbEntity
  8
1
  6
________________
 62
     7
370
     9
100
AcDbLine
 10
5216.8164165212
 20
-3786.8380479908
 30
0.0
 11
5215.216416521201
 21
-3786.8380479908
 31
0.0
  0
LINE
  5
4E
330
1F
100
AcDbEntity
  8
1
  6
________________
 62
     7
370
     9
100
AcDbLine
 10
5215.216416521201
 20
-3786.8380479908
 30
0.0
 11
5215.216416521201
 21
-3781.8380479908
 31
0.0
  0
LINE
  5
4F
330
1F
100
AcDbEntity
  8
1
  6
________________
 62
     7
370
     9
100
AcDbLine
 10
5215.216416521201
 20
-3825.1380479908
 30
0.0
 11
5216.8164165212
 21
-3825.1380479908
 31
0.0
  0
LINE
  5
50
330
1F
100
AcDbEntity
  8
1
  6
________________
 62
     7
370
     9
100
AcDbLine
 10
5215.216416521201
 20
-3786.8380479908
 30
0.0
 11
5215.216416521201
 21
-3825.1380479908
 31
0.0
  0
LINE
  5
51
330
1F
100
AcDbEntity
  8
1
  6
________________
 62
     7
370
     9
100
AcDbLine
 10
5216.8164165212
 20
-3825.1380479908
 30
0.0
 11
5216.8164165212
 21
-3786.8380479908
 31
0.0
  0
LINE
  5
52
330
1F
100
AcDbEntity
  8
1
  6
________________
 62
     7
370
     9
100
AcDbLine
 10
5216.8164165212
 20
-3830.1380479908
 30
0.0
 11
5215.216416521201
 21
-3830.1380479908
 31
0.0
  0
LINE
  5
53
330
1F
100
AcDbEntity
  8
1
  6
________________
 62
     7
370
     9
100
AcDbLine
 10
5216.8164165212
 20
-3825.1380479908
 30
0.0
 11
5216.8164165212
 21
-3830.1380479908
 31
0.0
  0
LINE
  5
54
330
1F
100
AcDbEntity
  8
1
  6
________________
 62
     7
370
     9
100
AcDbLine
 10
5215.216416521201
 20
-3830.1380479908
 30
0.0
 11
5215.216416521201
 21
-3825.1380479908
 31
0.0
  0
LINE
  5
55
330
1F
100
AcDbEntity
  8
1
  6
________________
 62
     7
370
     9
100
AcDbLine
 10
5215.216416521201
 20
-3783.3380479908
 30
0.0
 11
5018.6164165212
 21
-3783.3380479908
 31
0.0
  0
LINE
  5
56
330
1F
100
AcDbEntity
  8
1
  6
________________
 62
     7
370
     9
100
AcDbLine
 10
5018.6164165212
 20
-3781.8380479908
 30
0.0
 11
5018.6164165212
 21
-3781.7380479908
 31
0.0
  0
LINE
  5
57
330
1F
100
AcDbEntity
  8
1
  6
________________
 62
     7
370
     9
100
AcDbLine
 10
5018.6164165212
 20
-3781.7380479908
 30
0.0
 11
5215.216416521201
 21
-3781.7380479908
 31
0.0
  0
LINE
  5
58
330
1F
100
AcDbEntity
  8
1
  6
________________
 62
     7
370
     9
100
AcDbLine
 10
5215.216416521201
 20
-3781.7380479908
 30
0.0
 11
5215.216416521201
 21
-3781.8380479908
 31
0.0
  0
ARC
  5
59
330
1F
100
AcDbEntity
  8
1
  6
________________
 62
     7
370
     9
100
AcDbCircle
 10
5195.3164165212
 20
-3830.6380479908
 30
0.0
 40
0.4999999999997229
100
AcDbArc
 50
90.0
 51
180.0
  0
ARC
  5
5A
330
1F
100
AcDbEntity
  8
1
  6
________________
 62
     7
370
     9
100
AcDbCircle
 10
5038.5164165212
 20
-3830.6380479908
 30
0.0
 40
0.4999999999997229
100
AcDbArc
 50
0.0
 51
90.0
  0
LINE
  5
5B
330
1F
100
AcDbEntity
  8
1
  6
________________
 62
     7
370
     9
100
AcDbLine
 10
5215.216416521201
 20
-3830.1380479908
 30
0.0
 11
5195.3164165212
 21
-3830.1380479908
 31
0.0
  0
LINE
  5
5C
330
1F
100
AcDbEntity
  8
1
  6
________________
 62
     7
370
     9
100
AcDbLine
 10
5018.6164165212
 20
-3830.1380479908
 30
0.0
 11
5038.5164165212
 21
-3830.1380479908
 31
0.0
  0
LINE
  5
5D
330
1F
100
AcDbEntity
  8
1
  6
________...._...
 62
     1
420
 16711680
370
     9
100
AcDbLine
 10
5116.9164165212
 20
-3837.7380479908
 30
0.0
 11
5116.9164165212
 21
-3625.7380479908
 31
0.0
  0
LINE
  5
5F
330
1F
100
AcDbEntity
  8
1
  6
________________
 62
     7
370
     9
100
AcDbLine
 10
5018.6164165212
 20
-3638.8380479908
 30
0.0
 11
5017.016416521201
 21
-3638.8380479908
 31
0.0
  0
LINE
  5
60
330
1F
100
AcDbEntity
  8
1
  6
________________
 62
     7
370
     9
100
AcDbLine
 10
5017.016416521201
 20
-3633.8380479908
 30
0.0
 11
5018.6164165212
 21
-3633.8380479908
 31
0.0
  0
LINE
  5
61
330
1F
100
AcDbEntity
  8
1
  6
________________
 62
     7
370
     9
100
AcDbLine
 10
5018.6164165212
 20
-3633.8380479908
 30
0.0
 11
5018.6164165212
 21
-3638.8380479908
 31
0.0
  0
LINE
  5
62
330
1F
100
AcDbEntity
  8
1
  6
________________
 62
     7
370
     9
100
AcDbLine
 10
5017.016416521201
 20
-3638.8380479908
 30
0.0
 11
5017.016416521201
 21
-3633.8380479908
 31
0.0
  0
LINE
  5
63
330
1F
100
AcDbEntity
  8
1
  6
________________
 62
     7
370
     9
100
AcDbLine
 10
5017.016416521201
 20
-3776.6380479908
 30
0.0
 11
5018.6164165212
 21
-3776.6380479908
 31
0.0
  0
LINE
  5
64
330
1F
100
AcDbEntity
  8
1
  6
________________
 62
     7
370
     9
100
AcDbLine
 10
5018.6164165212
 20
-3776.6380479908
 30
0.0
 11
5018.6164165212
 21
-3638.8380479908
 31
0.0
  0
LINE
  5
65
330
1F
100
AcDbEntity
  8
1
  6
________________
 62
     7
370
     9
100
AcDbLine
 10
5017.016416521201
 20
-3638.8380479908
 30
0.0
 11
5017.016416521201
 21
-3776.6380479908
 31
0.0
  0
LINE
  5
66
330
1F
100
AcDbEntity
  8
1
  6
________________
 62
     7
370
     9
100
AcDbLine
 10
5018.6164165212
 20
-3781.6380479908
 30
0.0
 11
5017.016416521201
 21
-3781.6380479908
 31
0.0
  0
LINE
  5
67
330
1F
100
AcDbEntity
  8
1
  6
________________
 62
     7
370
     9
100
AcDbLine
 10
5018.6164165212
 20
-3776.6380479908
 30
0.0
 11
5018.6164165212
 21
-3781.6380479908
 31
0.0
  0
LINE
  5
68
330
1F
100
AcDbEntity
  8
1
  6
________________
 62
     7
370
     9
100
AcDbLine
 10
5017.016416521201
 20
-3781.6380479908
 30
0.0
 11
5017.016416521201
 21
-3776.6380479908
 31
0.0
  0
LINE
  5
69
330
1F
100
AcDbEntity
  8
1
  6
________________
 62
     7
370
     9
100
AcDbLine
 10
5216.8164165212
 20
-3638.8380479908
 30
0.0
 11
5215.216416521201
 21
-3638.8380479908
 31
0.0
  0
LINE
  5
6A
330
1F
100
AcDbEntity
  8
1
  6
________________
 62
     7
370
     9
100
AcDbLine
 10
5216.8164165212
 20
-3776.6380479908
 30
0.0
 11
5216.8164165212
 21
-3638.8380479908
 31
0.0
  0
LINE
  5
6B
330
1F
100
AcDbEntity
  8
1
  6
________________
 62
     7
370
     9
100
AcDbLine
 10
5215.216416521201
 20
-3776.6380479908
 30
0.0
 11
5216.8164165212
 21
-3776.6380479908
 31
0.0
  0
LINE
  5
6C
330
1F
100
AcDbEntity
  8
1
  6
________________
 62
     7
370
     9
100
AcDbLine
 10
5215.216416521201
 20
-3638.8380479908
 30
0.0
 11
5215.216416521201
 21
-3776.6380479908
 31
0.0
  0
LINE
  5
6D
330
1F
100
AcDbEntity
  8
1
  6
________________
 62
     7
370
     9
100
AcDbLine
 10
5215.216416521201
 20
-3633.8380479908
 30
0.0
 11
5216.8164165212
 21
-3633.8380479908
 31
0.0
  0
LINE
  5
6E
330
1F
100
AcDbEntity
  8
1
  6
________________
 62
     7
370
     9
100
AcDbLine
 10
5216.8164165212
 20
-3633.8380479908
 30
0.0
 11
5216.8164165212
 21
-3638.8380479908
 31
0.0
  0
LINE
  5
6F
330
1F
100
AcDbEntity
  8
1
  6
________________
 62
     7
370
     9
100
AcDbLine
 10
5215.216416521201
 20
-3638.8380479908
 30
0.0
 11
5215.216416521201
 21
-3633.8380479908
 31
0.0
  0
LINE
  5
70
330
1F
100
AcDbEntity
  8
1
  6
________________
 62
     7
370
     9
100
AcDbLine
 10
5216.8164165212
 20
-3781.6380479908
 30
0.0
 11
5215.216416521201
 21
-3781.6380479908
 31
0.0
  0
LINE
  5
71
330
1F
100
AcDbEntity
  8
1
  6
________________
 62
     7
370
     9
100
AcDbLine
 10
5216.8164165212
 20
-3776.6380479908
 30
0.0
 11
5216.8164165212
 21
-3781.6380479908
 31
0.0
  0
LINE
  5
72
330
1F
100
AcDbEntity
  8
1
  6
________________
 62
     7
370
     9
100
AcDbLine
 10
5215.216416521201
 20
-3781.6380479908
 30
0.0
 11
5215.216416521201
 21
-3776.6380479908
 31
0.0
  0
LINE
  5
73
330
1F
100
AcDbEntity
  8
1
  6
________________
 62
     7
370
     9
100
AcDbLine
 10
5018.6164165212
 20
-3631.7380479908
 30
0.0
 11
5215.216416521201
 21
-3631.7380479908
 31
0.0
  0
LINE
  5
74
330
1F
100
AcDbEntity
  8
1
  6
________________
 62
     7
370
     9
100
AcDbLine
 10
5215.216416521201
 20
-3631.7380479908
 30
0.0
 11
5215.216416521201
 21
-3633.3380479908
 31
0.0
  0
LINE
  5
75
330
1F
100
AcDbEntity
  8
1
  6
________________
 62
     7
370
     9
100
AcDbLine
 10
5215.216416521201
 20
-3633.3380479908
 30
0.0
 11
5018.6164165212
 21
-3633.3380479908
 31
0.0
  0
LINE
  5
76
330
1F
100
AcDbEntity
  8
1
  6
________________
 62
     7
370
     9
100
AcDbLine
 10
5018.6164165212
 20
-3633.3380479908
 30
0.0
 11
5018.6164165212
 21
-3631.7380479908
 31
0.0
  0
LINE
  5
77
330
1F
100
AcDbEntity
  8
1
  6
________________
 62
     7
370
     9
100
AcDbLine
 10
5018.6164165212
 20
-3780.1380479908
 30
0.0
 11
5215.216416521201
 21
-3780.1380479908
 31
0.0
  0
ARC
  5
78
330
1F
100
AcDbEntity
  8
1
  6
________________
 62
     7
370
     9
100
AcDbCircle
 10
5018.1164165212
 20
-3633.3380479908
 30
0.0
 40
0.4999999999997229
100
AcDbArc
 50
270.0
 51
0.0
  0
ARC
  5
79
330
1F
100
AcDbEntity
  8
1
  6
________________
 62
     7
370
     9
100
AcDbCircle
 10
5215.7164165212
 20
-3633.3380479908
 30
0.0
 40
0.4999999999997229
100
AcDbArc
 50
180.0
 51
270.0
  0
LINE
  5
7A
330
1F
100
AcDbEntity
  8
1
  6
________________
 62
     7
370
     9
100
AcDbLine
 10
5215.216416521201
 20
-3781.6380479908
 30
0.0
 11
5215.216416521201
 21
-3781.7380479908
 31
0.0
  0
LINE
  5
7B
330
1F
100
AcDbEntity
  8
1
  6
________________
 62
     7
370
     9
100
AcDbLine
 10
5215.216416521201
 20
-3781.7380479908
 30
0.0
 11
5018.6164165212
 21
-3781.7380479908
 31
0.0
  0
LINE
  5
7C
330
1F
100
AcDbEntity
  8
1
  6
________________
 62
     7
370
     9
100
AcDbLine
 10
5018.6164165212
 20
-3781.7380479908
 30
0.0
 11
5018.6164165212
 21
-3781.6380479908
 31
0.0
  0
LINE
  5
7D
330
1F
100
AcDbEntity
  8
1
  6
________________
 62
     7
370
     9
100
AcDbLine
 10
4995.3164165212
 20
-3633.3380479908
 30
0.0
 11
4995.3164165212
 21
-3631.7380479908
 31
0.0
  0
LINE
  5
7E
330
1F
100
AcDbEntity
  8
1
  6
________________
 62
     7
370
     9
100
AcDbLine
 10
4995.3164165212
 20
-3631.7380479908
 30
0.0
 11
5000.3164165212
 21
-3631.7380479908
 31
0.0
  0
LINE
  5
7F
330
1F
100
AcDbEntity
  8
1
  6
________________
 62
     7
370
     9
100
AcDbLine
 10
5000.3164165212
 20
-3631.7380479908
 30
0.0
 11
5000.3164165212
 21
-3633.3380479908
 31
0.0
  0
LINE
  5
80
330
1F
100
AcDbEntity
  8
1
  6
________________
 62
     7
370
     9
100
AcDbLine
 10
5000.3164165212
 20
-3633.3380479908
 30
0.0
 11
4995.3164165212
 21
-3633.3380479908
 31
0.0
  0
LINE
  5
81
330
1F
100
AcDbEntity
  8
1
  6
________________
 62
     7
370
     9
100
AcDbLine
 10
5018.6164165212
 20
-3633.3380479908
 30
0.0
 11
5000.3164165212
 21
-3633.3380479908
 31
0.0
  0
LINE
  5
82
330
1F
100
AcDbEntity
  8
1
  6
________________
 62
     7
370
     9
100
AcDbLine
 10
5018.6164165212
 20
-3631.7380479908
 30
0.0
 11
5000.3164165212
 21
-3631.7380479908
 31
0.0
  0
LINE
  5
83
330
1F
100
AcDbEntity
  8
1
  6
________________
 62
     7
370
     9
100
AcDbLine
 10
5233.5164165212
 20
-3633.3380479908
 30
0.0
 11
5233.5164165212
 21
-3631.7380479908
 31
0.0
  0
LINE
  5
84
330
1F
100
AcDbEntity
  8
1
  6
________________
 62
     7
370
     9
100
AcDbLine
 10
5238.5164165212
 20
-3631.7380479908
 30
0.0
 11
5238.5164165212
 21
-3633.3380479908
 31
0.0
  0
LINE
  5
85
330
1F
100
AcDbEntity
  8
1
  6
________________
 62
     7
370
     9
100
AcDbLine
 10
5238.5164165212
 20
-3633.3380479908
 30
0.0
 11
5233.5164165212
 21
-3633.3380479908
 31
0.0
  0
LINE
  5
86
330
1F
100
AcDbEntity
  8
1
  6
________________
 62
     7
370
     9
100
AcDbLine
 10
5233.5164165212
 20
-3631.7380479908
 30
0.0
 11
5238.5164165212
 21
-3631.7380479908
 31
0.0
  0
LINE
  5
87
330
1F
100
AcDbEntity
  8
1
  6
________________
 62
     7
370
     9
100
AcDbLine
 10
5215.216416521201
 20
-3633.3380479908
 30
0.0
 11
5233.5164165212
 21
-3633.3380479908
 31
0.0
  0
LINE
  5
88
330
1F
100
AcDbEntity
  8
1
  6
________________
 62
     7
370
     9
100
AcDbLine
 10
5215.216416521201
 20
-3631.7380479908
 30
0.0
 11
5233.5164165212
 21
-3631.7380479908
 31
0.0
  0
LINE
  5
89
330
1F
100
AcDbEntity
  8
1
  6
________________
 62
     7
370
     9
100
AcDbLine
 10
5297.9027526132
 20
-3830.1380479908
 30
0.0
 11
5312.9027526132
 21
-3830.1380479908
 31
0.0
  0
LINE
  5
8A
330
1F
100
AcDbEntity
  8
1
  6
________________
 62
     7
370
     9
100
AcDbLine
 10
5296.3027526132
 20
-3780.1380479908
 30
0.0
 11
5296.3027526132
 21
-3830.1380479908
 31
0.0
  0
LINE
  5
8B
330
1F
100
AcDbEntity
  8
1
  6
________________
 62
     7
370
     9
100
AcDbLine
 10
5296.3027526132
 20
-3830.1380479908
 30
0.0
 11
5297.9027526132
 21
-3830.1380479908
 31
0.0
  0
LINE
  5
8C
330
1F
100
AcDbEntity
  8
1
  6
________________
 62
     7
370
     9
100
AcDbLine
 10
5281.3027526132
 20
-3783.3380479908
 30
0.0
 11
5281.3027526132
 21
-3781.7380479908
 31
0.0
  0
LINE
  5
8D
330
1F
100
AcDbEntity
  8
1
  6
________________
 62
     7
370
     9
100
AcDbLine
 10
5296.3027526132
 20
-3781.7380479908
 30
0.0
 11
5281.3027526132
 21
-3781.7380479908
 31
0.0
  0
LINE
  5
8E
330
1F
100
AcDbEntity
  8
1
  6
________________
 62
     7
370
     9
100
AcDbLine
 10
5281.3027526132
 20
-3783.3380479908
 30
0.0
 11
5296.3027526132
 21
-3783.3380479908
 31
0.0
  0
LINE
  5
8F
330
1F
100
AcDbEntity
  8
1
  6
________________
 62
     7
370
     9
100
AcDbLine
 10
5276.3027526132
 20
-3781.7380479908
 30
0.0
 11
5276.3027526132
 21
-3783.3380479908
 31
0.0
  0
LINE
  5
90
330
1F
100
AcDbEntity
  8
1
  6
________________
 62
     7
370
     9
100
AcDbLine
 10
5281.3027526132
 20
-3781.7380479908
 30
0.0
 11
5276.3027526132
 21
-3781.7380479908
 31
0.0
  0
LINE
  5
91
330
1F
100
AcDbEntity
  8
1
  6
________________
 62
     7
370
     9
100
AcDbLine
 10
5276.3027526132
 20
-3783.3380479908
 30
0.0
 11
5281.3027526132
 21
-3783.3380479908
 31
0.0
  0
LINE
  5
92
330
1F
100
AcDbEntity
  8
1
  6
________________
 62
     7
370
     9
100
AcDbLine
 10
5296.3027526132
 20
-3830.1380479908
 30
0.0
 11
5296.3828841978
 21
-3830.6380479908
 31
0.0
  0
LINE
  5
93
330
1F
100
AcDbEntity
  8
1
  6
________________
 62
     7
370
     9
100
AcDbLine
 10
5297.9027526132
 20
-3831.7380479908
 30
0.0
 11
5318.3027526132
 21
-3831.7380479908
 31
0.0
  0
ARC
  5
94
330
1F
100
AcDbEntity
  8
1
  6
________________
 62
     7
370
     9
100
AcDbCircle
 10
5297.9027526132
 20
-3830.1380479908
 30
0.0
 40
1.599999999999824
100
AcDbArc
 50
198.2099568643
 51
270.0
  0
LINE
  5
95
330
1F
100
AcDbEntity
  8
1
  6
________________
 62
     7
370
     9
100
AcDbLine
 10
5276.3027526132
 20
-3631.7380479908
 30
0.0
 11
5276.3027526132
 21
-3633.3380479908
 31
0.0
  0
LINE
  5
96
330
1F
100
AcDbEntity
  8
1
  6
________________
 62
     7
370
     9
100
AcDbLine
 10
5281.3027526132
 20
-3633.3380479908
 30
0.0
 11
5281.3027526132
 21
-3631.7380479908
 31
0.0
  0
LINE
  5
97
330
1F
100
AcDbEntity
  8
1
  6
________________
 62
     7
370
     9
100
AcDbLine
 10
5281.3027526132
 20
-3631.7380479908
 30
0.0
 11
5276.3027526132
 21
-3631.7380479908
 31
0.0
  0
LINE
  5
98
330
1F
100
AcDbEntity
  8
1
  6
________________
 62
     7
370
     9
100
AcDbLine
 10
5276.3027526132
 20
-3633.3380479908
 30
0.0
 11
5281.3027526132
 21
-3633.3380479908
 31
0.0
  0
LINE
  5
99
330
1F
100
AcDbEntity
  8
1
  6
________________
 62
     7
370
     9
100
AcDbLine
 10
5291.3027526132
 20
-3631.7380479908
 30
0.0
 11
5291.3027526132
 21
-3633.3380479908
 31
0.0
  0
LINE
  5
9A
330
1F
100
AcDbEntity
  8
1
  6
________________
 62
     7
370
     9
100
AcDbLine
 10
5291.3027526132
 20
-3631.7380479908
 30
0.0
 11
5281.3027526132
 21
-3631.7380479908
 31
0.0
  0
LINE
  5
9B
330
1F
100
AcDbEntity
  8
1
  6
________________
 62
     7
370
     9
100
AcDbLine
 10
5281.3027526132
 20
-3633.3380479908
 30
0.0
 11
5291.3027526132
 21
-3633.3380479908
 31
0.0
  0
LINE
  5
9C
330
1F
100
AcDbEntity
  8
1
  6
________________
 62
     7
370
     9
100
AcDbLine
 10
5296.3027526132
 20
-3633.3380479908
 30
0.0
 11
5296.3027526132
 21
-3631.7380479908
 31
0.0
  0
LINE
  5
9D
330
1F
100
AcDbEntity
  8
1
  6
________________
 62
     7
370
     9
100
AcDbLine
 10
5296.3027526132
 20
-3631.7380479908
 30
0.0
 11
5291.3027526132
 21
-3631.7380479908
 31
0.0
  0
LINE
  5
9E
330
1F
100
AcDbEntity
  8
1
  6
________________
 62
     7
370
     9
100
AcDbLine
 10
5291.3027526132
 20
-3633.3380479908
 30
0.0
 11
5296.3027526132
 21
-3633.3380479908
 31
0.0
  0
LINE
  5
9F
330
1F
100
AcDbEntity
  8
1
  6
________________
 62
     7
370
     9
100
AcDbLine
 10
5296.3027526132
 20
-3633.3380479908
 30
0.0
 11
5296.3027526132
 21
-3780.1380479908
 31
0.0
  0
LINE
  5
A0
330
1F
100
AcDbEntity
  8
1
  6
________________
 62
     7
370
     9
100
AcDbLine
 10
5281.3027526132
 20
-3781.7380479908
 30
0.0
 11
5281.3027526132
 21
-3780.1380479908
 31
0.0
  0
LINE
  5
A1
330
1F
100
AcDbEntity
  8
1
  6
________________
 62
     7
370
     9
100
AcDbLine
 10
5281.3027526132
 20
-3780.1380479908
 30
0.0
 11
5276.3027526132
 21
-3780.1380479908
 31
0.0
  0
LINE
  5
A2
330
1F
100
AcDbEntity
  8
1
  6
________________
 62
     7
370
     9
100
AcDbLine
 10
5276.3027526132
 20
-3780.1380479908
 30
0.0
 11
5276.3027526132
 21
-3781.7380479908
 31
0.0
  0
LINE
  5
A3
330
1F
100
AcDbEntity
  8
1
  6
________________
 62
     7
370
     9
100
AcDbLine
 10
5276.3027526132
 20
-3781.7380479908
 30
0.0
 11
5281.3027526132
 21
-3781.7380479908
 31
0.0
  0
LINE
  5
A4
330
1F
100
AcDbEntity
  8
1
  6
________________
 62
     7
370
     9
100
AcDbLine
 10
5281.3027526132
 20
-3780.1380479908
 30
0.0
 11
5296.3027526132
 21
-3780.1380479908
 31
0.0
  0
LINE
  5
A5
330
1F
100
AcDbEntity
  8
1
  6
________________
 62
     7
370
     9
100
AcDbLine
 10
5296.3027526132
 20
-3781.7380479908
 30
0.0
 11
5281.3027526132
 21
-3781.7380479908
 31
0.0
  0
ARC
  5
A6
330
1F
100
AcDbEntity
  8
1
  6
________________
 62
     7
370
     9
100
AcDbCircle
 10
5281.3027526132
 20
-3337.3088684128
 30
0.0
 40
4.999999999999893
100
AcDbArc
 50
90.0
 51
180.0
  0
LINE
  5
A7
330
1F
100
AcDbEntity
  8
1
  6
________________
 62
     7
370
     9
100
AcDbLine
 10
5291.3027526132
 20
-3332.3088684128
 30
0.0
 11
5281.3027526132
 21
-3332.3088684128
 31
0.0
  0
ARC
  5
A8
330
1F
100
AcDbEntity
  8
1
  6
________________
 62
     7
370
     9
100
AcDbCircle
 10
5291.3027526132
 20
-3337.3088684128
 30
0.0
 40
4.999999999999893
100
AcDbArc
 50
0.0
 51
90.0
  0
LINE
  5
A9
330
1F
100
AcDbEntity
  8
1
  6
________________
 62
     7
370
     9
100
AcDbLine
 10
5296.3027526132
 20
-3355.6088684128
 30
0.0
 11
5296.3027526132
 21
-3337.3088684128
 31
0.0
  0
LINE
  5
AA
330
1F
100
AcDbEntity
  8
1
  6
________________
 62
     7
370
     9
100
AcDbLine
 10
5296.3027526132
 20
-3552.2088684128
 30
0.0
 11
5296.3027526132
 21
-3355.6088684128
 31
0.0
  0
LINE
  5
AB
330
1F
100
AcDbEntity
  8
1
  6
________________
 62
     7
370
     9
100
AcDbLine
 10
5296.3027526132
 20
-3552.2088684128
 30
0.0
 11
5296.3027526132
 21
-3570.5088684128
 31
0.0
  0
ARC
  5
AC
330
1F
100
AcDbEntity
  8
1
  6
________________
 62
     7
370
     9
100
AcDbCircle
 10
5291.3027526132
 20
-3570.5088684128
 30
0.0
 40
4.999999999999893
100
AcDbArc
 50
270.0
 51
0.0
  0
LINE
  5
AD
330
1F
100
AcDbEntity
  8
1
  6
________________
 62
     7
370
     9
100
AcDbLine
 10
5291.3027526132
 20
-3575.5088684128
 30
0.0
 11
5281.3027526132
 21
-3575.5088684128
 31
0.0
  0
ARC
  5
AE
330
1F
100
AcDbEntity
  8
1
  6
________________
 62
     7
370
     9
100
AcDbCircle
 10
5281.3027526132
 20
-3570.5088684128
 30
0.0
 40
4.999999999999893
100
AcDbArc
 50
180.0
 51
270.0
  0
LINE
  5
AF
330
1F
100
AcDbEntity
  8
1
  6
________________
 62
     7
370
     9
100
AcDbLine
 10
5276.3027526132
 20
-3570.5088684128
 30
0.0
 11
5276.3027526132
 21
-3337.3088684128
 31
0.0
  0
CIRCLE
  5
B0
330
1F
100
AcDbEntity
  8
1
  6
________________
 62
     7
370
     9
100
AcDbCircle
 10
5286.3027526132
 20
-3453.9088684128
 30
0.0
 40
1.299999999999635
  0
LINE
  5
B1
330
1F
100
AcDbEntity
  8
1
  6
________________
 62
     7
370
     9
100
AcDbLine
 10
5297.9027526132
 20
-3355.6088684128
 30
0.0
 11
5297.9027526132
 21
-3552.2088684128
 31
0.0
  0
LINE
  5
B2
330
1F
100
AcDbEntity
  8
1
  6
________________
 62
     7
370
     9
100
AcDbLine
 10
5297.9027526132
 20
-3552.2088684128
 30
0.0
 11
5296.3027526132
 21
-3552.2088684128
 31
0.0
  0
LINE
  5
B3
330
1F
100
AcDbEntity
  8
1
  6
________________
 62
     7
370
     9
100
AcDbLine
 10
5296.3027526132
 20
-3355.6088684128
 30
0.0
 11
5297.9027526132
 21
-3355.6088684128
 31
0.0
  0
LINE
  5
B4
330
1F
100
AcDbEntity
  8
1
  6
________________
 62
     7
370
     9
100
AcDbLine
 10
5297.9027526132
 20
-3552.7088684128
 30
0.0
 11
5297.9027526132
 21
-3552.2088684128
 31
0.0
  0
LINE
  5
B5
330
1F
100
AcDbEntity
  8
1
  6
________________
 62
     7
370
     9
100
AcDbLine
 10
5297.9027526132
 20
-3552.7088684128
 30
0.0
 11
5296.3828841978
 21
-3552.7088684128
 31
0.0
  0
LINE
  5
B6
330
1F
100
AcDbEntity
  8
1
  6
________________
 62
     7
370
     9
100
AcDbLine
 10
5296.3828841978
 20
-3552.7088684128
 30
0.0
 11
5296.302752747
 21
-3552.209522684
 31
0.0
  0
LINE
  5
B7
330
1F
100
AcDbEntity
  8
1
  6
________________
 62
     7
370
     9
100
AcDbLine
 10
5296.3828841978
 20
-3355.1088684128
 30
0.0
 11
5297.9027526132
 21
-3355.1088684128
 31
0.0
  0
LINE
  5
B8
330
1F
100
AcDbEntity
  8
1
  6
________________
 62
     7
370
     9
100
AcDbLine
 10
5297.9027526132
 20
-3355.6088684128
 30
0.0
 11
5297.9027526132
 21
-3355.1088684128
 31
0.0
  0
LINE
  5
B9
330
1F
100
AcDbEntity
  8
1
  6
________________
 62
     7
370
     9
100
AcDbLine
 10
5296.3027526132
 20
-3355.6088684128
 30
0.0
 11
5296.3828841978
 21
-3355.1088684128
 31
0.0
  0
LINE
  5
BA
330
1F
100
AcDbEntity
  8
1
  6
________________
 62
     7
370
     9
100
AcDbLine
 10
5312.9027526132
 20
-3553.8088684128
 30
0.0
 11
5312.9027526132
 21
-3552.2088684128
 31
0.0
  0
LINE
  5
BB
330
1F
100
AcDbEntity
  8
1
  6
________________
 62
     7
370
     9
100
AcDbLine
 10
5297.9027526132
 20
-3553.8088684128
 30
0.0
 11
5312.9027526132
 21
-3553.8088684128
 31
0.0
  0
LINE
  5
BC
330
1F
100
AcDbEntity
  8
1
  6
________________
 62
     7
370
     9
100
AcDbLine
 10
5297.9027526132
 20
-3552.2088684128
 30
0.0
 11
5312.9027526132
 21
-3552.2088684128
 31
0.0
  0
ARC
  5
BD
330
1F
100
AcDbEntity
  8
1
  6
________________
 62
     7
370
     9
100
AcDbCircle
 10
5297.9027526132
 20
-3552.2088684128
 30
0.0
 40
1.599999999999824
100
AcDbArc
 50
198.2099568643
 51
270.0
  0
LINE
  5
BE
330
1F
100
AcDbEntity
  8
1
  6
________________
 62
     7
370
     9
100
AcDbLine
 10
5297.9027526132
 20
-3354.0088684128
 30
0.0
 11
5312.9027526132
 21
-3354.0088684128
 31
0.0
  0
LINE
  5
BF
330
1F
100
AcDbEntity
  8
1
  6
________________
 62
     7
370
     9
100
AcDbLine
 10
5312.9027526132
 20
-3355.6088684128
 30
0.0
 11
5312.9027526132
 21
-3354.0088684128
 31
0.0
  0
LINE
  5
C0
330
1F
100
AcDbEntity
  8
1
  6
________________
 62
     7
370
     9
100
AcDbLine
 10
5297.9027526132
 20
-3355.6088684128
 30
0.0
 11
5312.9027526132
 21
-3355.6088684128
 31
0.0
  0
ARC
  5
C1
330
1F
100
AcDbEntity
  8
1
  6
________________
 62
     7
370
     9
100
AcDbCircle
 10
5297.9027526132
 20
-3355.6088684128
 30
0.0
 40
1.599999999999824
100
AcDbArc
 50
90.0
 51
161.7900431357
  0
LINE
  5
C2
330
1F
100
AcDbEntity
  8
1
  6
________________
 62
     7
370
     9
100
AcDbLine
 10
5317.9027526132
 20
-3552.2088684128
 30
0.0
 11
5317.9027526132
 21
-3553.8088684128
 31
0.0
  0
LINE
  5
C3
330
1F
100
AcDbEntity
  8
1
  6
________________
 62
     7
370
     9
100
AcDbLine
 10
5317.9027526132
 20
-3553.8088684128
 30
0.0
 11
5312.9027526132
 21
-3553.8088684128
 31
0.0
  0
LINE
  5
C4
330
1F
100
AcDbEntity
  8
1
  6
________________
 62
     7
370
     9
100
AcDbLine
 10
5312.9027526132
 20
-3552.2088684128
 30
0.0
 11
5317.9027526132
 21
-3552.2088684128
 31
0.0
  0
LINE
  5
C5
330
1F
100
AcDbEntity
  8
1
  6
________________
 62
     7
370
     9
100
AcDbLine
 10
5317.9027526132
 20
-3354.0088684128
 30
0.0
 11
5317.9027526132
 21
-3355.6088684128
 31
0.0
  0
LINE
  5
C6
330
1F
100
AcDbEntity
  8
1
  6
________________
 62
     7
370
     9
100
AcDbLine
 10
5312.9027526132
 20
-3354.0088684128
 30
0.0
 11
5317.9027526132
 21
-3354.0088684128
 31
0.0
  0
LINE
  5
C7
330
1F
100
AcDbEntity
  8
1
  6
________________
 62
     7
370
     9
100
AcDbLine
 10
5317.9027526132
 20
-3355.6088684128
 30
0.0
 11
5312.9027526132
 21
-3355.6088684128
 31
0.0
  0
LINE
  5
C8
330
1F
100
AcDbEntity
  8
1
  6
________...._...
 62
     1
420
 16711680
370
     9
100
AcDbLine
 10
6575.5027526132
 20
-3453.9088684128
 30
0.0
 11
5320.3027526132
 21
-3453.9088684128
 31
0.0
  0
LINE
  5
C9
330
1F
100
AcDbEntity
  8
1
  6
________________
 62
     1
420
 16711680
370
     9
100
AcDbLine
 10
5291.6027526132
 20
-3453.9088684128
 30
0.0
 11
5281.0027526132
 21
-3453.9088684128
 31
0.0
  0
LINE
  5
CA
330
1F
100
AcDbEntity
  8
1
  6
________________
 62
     7
370
     9
100
AcDbLine
 10
5319.902752613201
 20
-3376.0088684128
 30
0.0
 11
5319.902752613201
 21
-3531.8088684128
 31
0.0
  0
LINE
  5
CB
330
1F
100
AcDbEntity
  8
1
  6
________________
 62
     7
370
     9
100
AcDbLine
 10
5319.902752613201
 20
-3531.8088684128
 30
0.0
 11
5318.3027526132
 21
-3531.8088684128
 31
0.0
  0
LINE
  5
CC
330
1F
100
AcDbEntity
  8
1
  6
________________
 62
     7
370
     9
100
AcDbLine
 10
5318.3027526132
 20
-3531.8088684128
 30
0.0
 11
5318.3027526132
 21
-3376.0088684128
 31
0.0
  0
LINE
  5
CD
330
1F
100
AcDbEntity
  8
1
  6
________________
 62
     7
370
     9
100
AcDbLine
 10
5318.3027526132
 20
-3376.0088684128
 30
0.0
 11
5319.902752613201
 21
-3376.0088684128
 31
0.0
  0
LINE
  5
CE
330
1F
100
AcDbEntity
  8
1
  6
________________
 62
     7
370
     9
100
AcDbLine
 10
5314.902752613201
 20
-3378.0088684128
 30
0.0
 11
5314.902752613201
 21
-3529.8088684128
 31
0.0
  0
ARC
  5
CF
330
1F
100
AcDbEntity
  8
1
  6
________________
 62
     7
370
     9
100
AcDbCircle
 10
5316.9027526132
 20
-3378.0088684128
 30
0.0
 40
1.99999999999978
100
AcDbArc
 50
90.0
 51
180.0
  0
LINE
  5
D0
330
1F
100
AcDbEntity
  8
1
  6
________________
 62
     7
370
     9
100
AcDbLine
 10
5318.3027526132
 20
-3376.0088684128
 30
0.0
 11
5316.9027526132
 21
-3376.0088684128
 31
0.0
  0
ARC
  5
D1
330
1F
100
AcDbEntity
  8
1
  6
________________
 62
     7
370
     9
100
AcDbCircle
 10
5316.9027526132
 20
-3529.8088684128
 30
0.0
 40
1.99999999999978
100
AcDbArc
 50
180.0
 51
270.0
  0
LINE
  5
D2
330
1F
100
AcDbEntity
  8
1
  6
________________
 62
     7
370
     9
100
AcDbLine
 10
5316.9027526132
 20
-3531.8088684128
 30
0.0
 11
5318.3027526132
 21
-3531.8088684128
 31
0.0
  0
CIRCLE
  5
D3
330
1F
100
AcDbEntity
  8
1
  6
________________
 62
     7
370
     9
100
AcDbCircle
 10
5307.9027526132
 20
-3391.4088684128
 30
0.0
 40
1.299999999999635
  0
CIRCLE
  5
D4
330
1F
100
AcDbEntity
  8
1
  6
________________
 62
     7
370
     9
100
AcDbCircle
 10
5307.9027526132
 20
-3503.9088684128
 30
0.0
 40
3.000000000000114
  0
CIRCLE
  5
D5
330
1F
100
AcDbEntity
  8
1
  6
________________
 62
     7
370
     9
100
AcDbCircle
 10
5307.9027526132
 20
-3403.9088684128
 30
0.0
 40
3.000000000000114
  0
CIRCLE
  5
D6
330
1F
100
AcDbEntity
  8
1
  6
________________
 62
     7
370
     9
100
AcDbCircle
 10
5307.9027526132
 20
-3516.4088684128
 30
0.0
 40
1.299999999999635
  0
LINE
  5
D7
330
1F
100
AcDbEntity
  8
1
  6
________________
 62
     7
370
     9
100
AcDbLine
 10
5316.9027526132
 20
-3376.0088684128
 30
0.0
 11
5297.9027526132
 21
-3376.0088684128
 31
0.0
  0
LINE
  5
D8
330
1F
100
AcDbEntity
  8
1
  6
________________
 62
     7
370
     9
100
AcDbLine
 10
5297.9027526132
 20
-3531.8088684128
 30
0.0
 11
5316.9027526132
 21
-3531.8088684128
 31
0.0
  0
LINE
  5
D9
330
1F
100
AcDbEntity
  8
1
  6
________________
 62
     7
370
     9
100
AcDbLine
 10
6599.502752613199
 20
-3555.4088684128
 30
0.0
 11
5296.3027526132
 21
-3555.4088684128
 31
0.0
  0
LINE
  5
DA
330
1F
100
AcDbEntity
  8
1
  6
________________
 62
     7
370
     9
100
AcDbLine
 10
5296.3027526132
 20
-3555.4088684128
 30
0.0
 11
5296.3027526132
 21
-3553.8088684128
 31
0.0
  0
LINE
  5
DB
330
1F
100
AcDbEntity
  8
1
  6
________________
 62
     7
370
     9
100
AcDbLine
 10
5296.3027526132
 20
-3553.8088684128
 30
0.0
 11
6599.502752613199
 21
-3553.8088684128
 31
0.0
  0
LINE
  5
DC
330
1F
100
AcDbEntity
  8
1
  6
________________
 62
     7
370
     9
100
AcDbLine
 10
6599.502752613199
 20
-3553.8088684128
 30
0.0
 11
6599.502752613199
 21
-3555.4088684128
 31
0.0
  0
ARC
  5
DD
330
1F
100
AcDbEntity
  8
1
  6
________________
 62
     7
370
     9
100
AcDbCircle
 10
6594.5027526132
 20
-3570.4088684128
 30
0.0
 40
4.999999999999893
100
AcDbArc
 50
270.0
 51
0.0
  0
LINE
  5
DE
330
1F
100
AcDbEntity
  8
1
  6
________________
 62
     7
370
     9
100
AcDbLine
 10
6594.5027526132
 20
-3575.4088684128
 30
0.0
 11
5301.3027526132
 21
-3575.4088684128
 31
0.0
  0
ARC
  5
DF
330
1F
100
AcDbEntity
  8
1
  6
________________
 62
     7
370
     9
100
AcDbCircle
 10
5301.3027526132
 20
-3570.4088684128
 30
0.0
 40
4.999999999999893
100
AcDbArc
 50
180.0
 51
270.0
  0
LINE
  5
E0
330
1F
100
AcDbEntity
  8
1
  6
________________
 62
     7
370
     9
100
AcDbLine
 10
6599.502752613199
 20
-3570.4088684128
 30
0.0
 11
6599.502752613199
 21
-3555.4088684128
 31
0.0
  0
LINE
  5
E1
330
1F
100
AcDbEntity
  8
1
  6
________________
 62
     7
370
     9
100
AcDbLine
 10
5296.3027526132
 20
-3570.4088684128
 30
0.0
 11
5296.3027526132
 21
-3555.4088684128
 31
0.0
  0
LINE
  5
E2
330
1F
100
AcDbEntity
  8
1
  6
________________
 62
     7
370
     9
100
AcDbLine
 10
5298.002752613201
 20
-3531.8088684128
 30
0.0
 11
5298.002752613201
 21
-3533.4088684128
 31
0.0
  0
LINE
  5
E3
330
1F
100
AcDbEntity
  8
1
  6
________________
 62
     7
370
     9
100
AcDbLine
 10
5298.002752613201
 20
-3531.8088684128
 30
0.0
 11
6575.9027526132
 21
-3531.8088684128
 31
0.0
  0
LINE
  5
E4
330
1F
100
AcDbEntity
  8
1
  6
________________
 62
     7
370
     9
100
AcDbLine
 10
6597.8027526132
 20
-3533.4088684128
 30
0.0
 11
6597.8027526132
 21
-3531.8088684128
 31
0.0
  0
LINE
  5
E5
330
1F
100
AcDbEntity
  8
1
  6
________________
 62
     7
370
     9
100
AcDbLine
 10
6597.8027526132
 20
-3533.4088684128
 30
0.0
 11
5298.002752613201
 21
-3533.4088684128
 31
0.0
  0
LINE
  5
E6
330
1F
100
AcDbEntity
  8
1
  6
________________
 62
     7
370
     9
100
AcDbLine
 10
6597.8027526132
 20
-3534.8088684128
 30
0.0
 11
6597.8027526132
 21
-3533.4088684128
 31
0.0
  0
ARC
  5
E7
330
1F
100
AcDbEntity
  8
1
  6
________________
 62
     7
370
     9
100
AcDbCircle
 10
6595.8027526132
 20
-3534.8088684128
 30
0.0
 40
1.99999999999978
100
AcDbArc
 50
270.0
 51
0.0
  0
LINE
  5
E8
330
1F
100
AcDbEntity
  8
1
  6
________________
 62
     7
370
     9
100
AcDbLine
 10
5298.002752613201
 20
-3533.4088684128
 30
0.0
 11
5298.002752613201
 21
-3534.8088684128
 31
0.0
  0
ARC
  5
E9
330
1F
100
AcDbEntity
  8
1
  6
________________
 62
     7
370
     9
100
AcDbCircle
 10
5300.0027526132
 20
-3534.8088684128
 30
0.0
 40
1.99999999999978
100
AcDbArc
 50
180.0
 51
270.0
  0
LINE
  5
EA
330
1F
100
AcDbEntity
  8
1
  6
________________
 62
     7
370
     9
100
AcDbLine
 10
6595.8027526132
 20
-3536.8088684128
 30
0.0
 11
5300.0027526132
 21
-3536.8088684128
 31
0.0
  0
CIRCLE
  5
EB
330
1F
100
AcDbEntity
  8
1
  6
________________
 62
     7
370
     9
100
AcDbCircle
 10
5385.402752613201
 20
-3543.8088684128
 30
0.0
 40
1.299999999999635
  0
CIRCLE
  5
EC
330
1F
100
AcDbEntity
  8
1
  6
________________
 62
     7
370
     9
100
AcDbCircle
 10
5935.4027526132
 20
-3543.8088684128
 30
0.0
 40
1.3
  0
CIRCLE
  5
ED
330
1F
100
AcDbEntity
  8
1
  6
________________
 62
     7
370
     9
100
AcDbCircle
 10
6510.4027526132
 20
-3543.8088684128
 30
0.0
 40
1.299999999999635
  0
CIRCLE
  5
EE
330
1F
100
AcDbEntity
  8
1
  6
________________
 62
     7
370
     9
100
AcDbCircle
 10
6497.902752613199
 20
-3543.8088684128
 30
0.0
 40
3.000000000000114
  0
CIRCLE
  5
EF
330
1F
100
AcDbEntity
  8
1
  6
________________
 62
     7
370
     9
100
AcDbCircle
 10
5947.9027526132
 20
-3543.8088684128
 30
0.0
 40
3.0
  0
CIRCLE
  5
F0
330
1F
100
AcDbEntity
  8
1
  6
________________
 62
     7
370
     9
100
AcDbCircle
 10
5397.9027526132
 20
-3543.8088684128
 30
0.0
 40
3.000000000000114
  0
LINE
  5
F1
330
1F
100
AcDbEntity
  8
1
  6
________________
 62
     7
370
     9
100
AcDbLine
 10
6597.8027526132
 20
-3553.8088684128
 30
0.0
 11
6597.8027526132
 21
-3534.8088684128
 31
0.0
  0
LINE
  5
F2
330
1F
100
AcDbEntity
  8
1
  6
________________
 62
     7
370
     9
100
AcDbLine
 10
5298.002752613201
 20
-3534.8088684128
 30
0.0
 11
5298.002752613201
 21
-3553.8088684128
 31
0.0
  0
LINE
  5
F3
330
1F
100
AcDbEntity
  8
1
  6
________...._...
 62
     1
420
 16711680
370
     9
100
AcDbLine
 10
5947.9027526132
 20
-3578.4088684128
 30
0.0
 11
5947.9027526132
 21
-3329.4088684128
 31
0.0
  0
POINT
  5
F4
330
1F
100
AcDbEntity
  8
1
 62
     2
420
 16776960
100
AcDbPoint
 10
6437.9027526132
 20
-3533.6088684128
 30
0.0
  0
CIRCLE
  5
F5
330
1F
100
AcDbEntity
  8
1
  6
________________
 62
     7
370
     9
100
AcDbCircle
 10
6497.902752613199
 20
-3565.4088684128
 30
0.0
 40
1.299999999999635
  0
CIRCLE
  5
F6
330
1F
100
AcDbEntity
  8
1
  6
________________
 62
     7
370
     9
100
AcDbCircle
 10
5947.9027526132
 20
-3565.4088684128
 30
0.0
 40
1.3
  0
CIRCLE
  5
F7
330
1F
100
AcDbEntity
  8
1
  6
________________
 62
     7
370
     9
100
AcDbCircle
 10
5397.9027526132
 20
-3565.4088684128
 30
0.0
 40
1.299999999999635
  0
LINE
  5
F8
330
1F
100
AcDbEntity
  8
1
  6
________________
 62
     7
370
     9
100
AcDbLine
 10
6599.502752613199
 20
-3352.4088684128
 30
0.0
 11
5296.3027526132
 21
-3352.4088684128
 31
0.0
  0
LINE
  5
F9
330
1F
100
AcDbEntity
  8
1
  6
________________
 62
     7
370
     9
100
AcDbLine
 10
5296.3027526132
 20
-3352.4088684128
 30
0.0
 11
5296.3027526132
 21
-3354.0088684128
 31
0.0
  0
LINE
  5
FA
330
1F
100
AcDbEntity
  8
1
  6
________________
 62
     7
370
     9
100
AcDbLine
 10
5296.3027526132
 20
-3354.0088684128
 30
0.0
 11
6599.502752613199
 21
-3354.0088684128
 31
0.0
  0
LINE
  5
FB
330
1F
100
AcDbEntity
  8
1
  6
________________
 62
     7
370
     9
100
AcDbLine
 10
6599.502752613199
 20
-3354.0088684128
 30
0.0
 11
6599.502752613199
 21
-3352.4088684128
 31
0.0
  0
ARC
  5
FC
330
1F
100
AcDbEntity
  8
1
  6
________________
 62
     7
370
     9
100
AcDbCircle
 10
6594.5027526132
 20
-3337.4088684128
 30
0.0
 40
4.999999999999893
100
AcDbArc
 50
0.0
 51
90.0
  0
LINE
  5
FD
330
1F
100
AcDbEntity
  8
1
  6
________________
 62
     7
370
     9
100
AcDbLine
 10
6594.5027526132
 20
-3332.4088684128
 30
0.0
 11
5301.3027526132
 21
-3332.4088684128
 31
0.0
  0
ARC
  5
FE
330
1F
100
AcDbEntity
  8
1
  6
________________
 62
     7
370
     9
100
AcDbCircle
 10
5301.3027526132
 20
-3337.4088684128
 30
0.0
 40
4.999999999999893
100
AcDbArc
 50
90.0
 51
180.0
  0
LINE
  5
FF
330
1F
100
AcDbEntity
  8
1
  6
________________
 62
     7
370
     9
100
AcDbLine
 10
6599.502752613199
 20
-3337.4088684128
 30
0.0
 11
6599.502752613199
 21
-3352.4088684128
 31
0.0
  0
LINE
  5
100
330
1F
100
AcDbEntity
  8
1
  6
________________
 62
     7
370
     9
100
AcDbLine
 10
5296.3027526132
 20
-3337.4088684128
 30
0.0
 11
5296.3027526132
 21
-3352.4088684128
 31
0.0
  0
LINE
  5
101
330
1F
100
AcDbEntity
  8
1
  6
________________
 62
     7
370
     9
100
AcDbLine
 10
5298.002752613201
 20
-3376.0088684128
 30
0.0
 11
5298.002752613201
 21
-3374.4088684128
 31
0.0
  0
LINE
  5
102
330
1F
100
AcDbEntity
  8
1
  6
________________
 62
     7
370
     9
100
AcDbLine
 10
5298.002752613201
 20
-3376.0088684128
 30
0.0
 11
6597.8027526132
 21
-3376.0088684128
 31
0.0
  0
LINE
  5
103
330
1F
100
AcDbEntity
  8
1
  6
________________
 62
     7
370
     9
100
AcDbLine
 10
6597.8027526132
 20
-3374.4088684128
 30
0.0
 11
6597.8027526132
 21
-3376.0088684128
 31
0.0
  0
LINE
  5
104
330
1F
100
AcDbEntity
  8
1
  6
________________
 62
     7
370
     9
100
AcDbLine
 10
6597.9027526132
 20
-3374.4088684128
 30
0.0
 11
5298.002752613201
 21
-3374.4088684128
 31
0.0
  0
LINE
  5
105
330
1F
100
AcDbEntity
  8
1
  6
________________
 62
     7
370
     9
100
AcDbLine
 10
6597.8027526132
 20
-3373.0088684128
 30
0.0
 11
6597.8027526132
 21
-3374.4088684128
 31
0.0
  0
ARC
  5
106
330
1F
100
AcDbEntity
  8
1
  6
________________
 62
     7
370
     9
100
AcDbCircle
 10
6595.8027526132
 20
-3373.0088684128
 30
0.0
 40
1.99999999999978
100
AcDbArc
 50
0.0
 51
90.0
  0
LINE
  5
107
330
1F
100
AcDbEntity
  8
1
  6
________________
 62
     7
370
     9
100
AcDbLine
 10
5298.002752613201
 20
-3374.4088684128
 30
0.0
 11
5298.002752613201
 21
-3373.0088684128
 31
0.0
  0
ARC
  5
108
330
1F
100
AcDbEntity
  8
1
  6
________________
 62
     7
370
     9
100
AcDbCircle
 10
5300.0027526132
 20
-3373.0088684128
 30
0.0
 40
1.99999999999978
100
AcDbArc
 50
90.0
 51
180.0
  0
LINE
  5
109
330
1F
100
AcDbEntity
  8
1
  6
________________
 62
     7
370
     9
100
AcDbLine
 10
6595.8027526132
 20
-3371.0088684128
 30
0.0
 11
5300.0027526132
 21
-3371.0088684128
 31
0.0
  0
CIRCLE
  5
10A
330
1F
100
AcDbEntity
  8
1
  6
________________
 62
     7
370
     9
100
AcDbCircle
 10
5385.402752613201
 20
-3364.0088684128
 30
0.0
 40
1.299999999999635
  0
CIRCLE
  5
10B
330
1F
100
AcDbEntity
  8
1
  6
________________
 62
     7
370
     9
100
AcDbCircle
 10
5935.4027526132
 20
-3364.0088684128
 30
0.0
 40
1.3
  0
CIRCLE
  5
10C
330
1F
100
AcDbEntity
  8
1
  6
________________
 62
     7
370
     9
100
AcDbCircle
 10
6510.4027526132
 20
-3364.0088684128
 30
0.0
 40
1.299999999999635
  0
CIRCLE
  5
10D
330
1F
100
AcDbEntity
  8
1
  6
________________
 62
     7
370
     9
100
AcDbCircle
 10
6497.902752613199
 20
-3364.0088684128
 30
0.0
 40
3.000000000000114
  0
CIRCLE
  5
10E
330
1F
100
AcDbEntity
  8
1
  6
________________
 62
     7
370
     9
100
AcDbCircle
 10
5947.9027526132
 20
-3364.0088684128
 30
0.0
 40
3.0
  0
CIRCLE
  5
10F
330
1F
100
AcDbEntity
  8
1
  6
________________
 62
     7
370
     9
100
AcDbCircle
 10
5397.9027526132
 20
-3364.0088684128
 30
0.0
 40
3.000000000000114
  0
LINE
  5
110
330
1F
100
AcDbEntity
  8
1
  6
________________
 62
     7
370
     9
100
AcDbLine
 10
6597.8027526132
 20
-3354.0088684128
 30
0.0
 11
6597.8027526132
 21
-3373.0088684128
 31
0.0
  0
LINE
  5
111
330
1F
100
AcDbEntity
  8
1
  6
________________
 62
     7
370
     9
100
AcDbLine
 10
5298.002752613201
 20
-3373.0088684128
 30
0.0
 11
5298.002752613201
 21
-3354.0088684128
 31
0.0
  0
POINT
  5
112
330
1F
100
AcDbEntity
  8
1
 62
     2
420
 16776960
100
AcDbPoint
 10
6437.9027526132
 20
-3374.2088684128
 30
0.0
  0
CIRCLE
  5
113
330
1F
100
AcDbEntity
  8
1
  6
________________
 62
     7
370
     9
100
AcDbCircle
 10
6497.902752613199
 20
-3342.4088684128
 30
0.0
 40
1.299999999999635
  0
CIRCLE
  5
114
330
1F
100
AcDbEntity
  8
1
  6
________________
 62
     7
370
     9
100
AcDbCircle
 10
5947.9027526132
 20
-3342.4088684128
 30
0.0
 40
1.3
  0
CIRCLE
  5
115
330
1F
100
AcDbEntity
  8
1
  6
________________
 62
     7
370
     9
100
AcDbCircle
 10
5397.9027526132
 20
-3342.4088684128
 30
0.0
 40
1.299999999999635
  0
ARC
  5
116
330
1F
100
AcDbEntity
  8
1
  6
________________
 62
     7
370
     9
100
AcDbCircle
 10
6614.5027526132
 20
-3337.3088684128
 30
0.0
 40
4.999999999999893
100
AcDbArc
 50
0.0
 51
90.0
  0
LINE
  5
117
330
1F
100
AcDbEntity
  8
1
  6
________________
 62
     7
370
     9
100
AcDbLine
 10
6604.502752613199
 20
-3332.3088684128
 30
0.0
 11
6614.5027526132
 21
-3332.3088684128
 31
0.0
  0
ARC
  5
118
330
1F
100
AcDbEntity
  8
1
  6
________________
 62
     7
370
     9
100
AcDbCircle
 10
6604.502752613199
 20
-3337.3088684128
 30
0.0
 40
4.999999999999893
100
AcDbArc
 50
90.0
 51
180.0
  0
LINE
  5
119
330
1F
100
AcDbEntity
  8
1
  6
________________
 62
     7
370
     9
100
AcDbLine
 10
6599.502752613199
 20
-3355.6088684128
 30
0.0
 11
6599.502752613199
 21
-3337.3088684128
 31
0.0
  0
LINE
  5
11A
330
1F
100
AcDbEntity
  8
1
  6
________________
 62
     7
370
     9
100
AcDbLine
 10
6599.502752613199
 20
-3552.2088684128
 30
0.0
 11
6599.502752613199
 21
-3355.6088684128
 31
0.0
  0
LINE
  5
11B
330
1F
100
AcDbEntity
  8
1
  6
________________
 62
     7
370
     9
100
AcDbLine
 10
6599.502752613199
 20
-3552.2088684128
 30
0.0
 11
6599.502752613199
 21
-3570.5088684128
 31
0.0
  0
ARC
  5
11C
330
1F
100
AcDbEntity
  8
1
  6
________________
 62
     7
370
     9
100
AcDbCircle
 10
6604.502752613199
 20
-3570.5088684128
 30
0.0
 40
4.999999999999893
100
AcDbArc
 50
180.0
 51
270.0
  0
LINE
  5
11D
330
1F
100
AcDbEntity
  8
1
  6
________________
 62
     7
370
     9
100
AcDbLine
 10
6604.502752613199
 20
-3575.5088684128
 30
0.0
 11
6614.5027526132
 21
-3575.5088684128
 31
0.0
  0
ARC
  5
11E
330
1F
100
AcDbEntity
  8
1
  6
________________
 62
     7
370
     9
100
AcDbCircle
 10
6614.5027526132
 20
-3570.5088684128
 30
0.0
 40
4.999999999999893
100
AcDbArc
 50
270.0
 51
0.0
  0
LINE
  5
11F
330
1F
100
AcDbEntity
  8
1
  6
________________
 62
     7
370
     9
100
AcDbLine
 10
6619.5027526132
 20
-3570.5088684128
 30
0.0
 11
6619.5027526132
 21
-3337.3088684128
 31
0.0
  0
CIRCLE
  5
120
330
1F
100
AcDbEntity
  8
1
  6
________________
 62
     7
370
     9
100
AcDbCircle
 10
6609.5027526132
 20
-3453.9088684128
 30
0.0
 40
1.299999999999635
  0
LINE
  5
121
330
1F
100
AcDbEntity
  8
1
  6
________________
 62
     7
370
     9
100
AcDbLine
 10
6597.9027526132
 20
-3355.6088684128
 30
0.0
 11
6597.9027526132
 21
-3552.2088684128
 31
0.0
  0
LINE
  5
122
330
1F
100
AcDbEntity
  8
1
  6
________________
 62
     7
370
     9
100
AcDbLine
 10
6597.9027526132
 20
-3552.2088684128
 30
0.0
 11
6599.502752613199
 21
-3552.2088684128
 31
0.0
  0
LINE
  5
123
330
1F
100
AcDbEntity
  8
1
  6
________________
 62
     7
370
     9
100
AcDbLine
 10
6599.502752613199
 20
-3355.6088684128
 30
0.0
 11
6597.9027526132
 21
-3355.6088684128
 31
0.0
  0
LINE
  5
124
330
1F
100
AcDbEntity
  8
1
  6
________________
 62
     7
370
     9
100
AcDbLine
 10
6597.9027526132
 20
-3552.7088684128
 30
0.0
 11
6597.9027526132
 21
-3552.2088684128
 31
0.0
  0
LINE
  5
125
330
1F
100
AcDbEntity
  8
1
  6
________________
 62
     7
370
     9
100
AcDbLine
 10
6597.9027526132
 20
-3552.7088684128
 30
0.0
 11
6599.4226210286
 21
-3552.7088684128
 31
0.0
  0
LINE
  5
126
330
1F
100
AcDbEntity
  8
1
  6
________________
 62
     7
370
     9
100
AcDbLine
 10
6599.4226210286
 20
-3552.7088684128
 30
0.0
 11
6599.5027524794
 21
-3552.209522684
 31
0.0
  0
LINE
  5
127
330
1F
100
AcDbEntity
  8
1
  6
________________
 62
     7
370
     9
100
AcDbLine
 10
6599.4226210286
 20
-3355.1088684128
 30
0.0
 11
6597.9027526132
 21
-3355.1088684128
 31
0.0
  0
LINE
  5
128
330
1F
100
AcDbEntity
  8
1
  6
________________
 62
     7
370
     9
100
AcDbLine
 10
6597.9027526132
 20
-3355.6088684128
 30
0.0
 11
6597.9027526132
 21
-3355.1088684128
 31
0.0
  0
LINE
  5
129
330
1F
100
AcDbEntity
  8
1
  6
________________
 62
     7
370
     9
100
AcDbLine
 10
6599.502752613199
 20
-3355.6088684128
 30
0.0
 11
6599.4226210286
 21
-3355.1088684128
 31
0.0
  0
LINE
  5
12A
330
1F
100
AcDbEntity
  8
1
  6
________________
 62
     7
370
     9
100
AcDbLine
 10
6582.902752613199
 20
-3553.8088684128
 30
0.0
 11
6582.902752613199
 21
-3552.2088684128
 31
0.0
  0
LINE
  5
12B
330
1F
100
AcDbEntity
  8
1
  6
________________
 62
     7
370
     9
100
AcDbLine
 10
6597.9027526132
 20
-3553.8088684128
 30
0.0
 11
6582.902752613199
 21
-3553.8088684128
 31
0.0
  0
LINE
  5
12C
330
1F
100
AcDbEntity
  8
1
  6
________________
 62
     7
370
     9
100
AcDbLine
 10
6597.9027526132
 20
-3552.2088684128
 30
0.0
 11
6582.902752613199
 21
-3552.2088684128
 31
0.0
  0
ARC
  5
12D
330
1F
100
AcDbEntity
  8
1
  6
________________
 62
     7
370
     9
100
AcDbCircle
 10
6597.9027526132
 20
-3552.2088684128
 30
0.0
 40
1.599999999999824
100
AcDbArc
 50
270.0
 51
341.7900431357
  0
LINE
  5
12E
330
1F
100
AcDbEntity
  8
1
  6
________________
 62
     7
370
     9
100
AcDbLine
 10
6597.9027526132
 20
-3354.0088684128
 30
0.0
 11
6582.902752613199
 21
-3354.0088684128
 31
0.0
  0
LINE
  5
12F
330
1F
100
AcDbEntity
  8
1
  6
________________
 62
     7
370
     9
100
AcDbLine
 10
6582.902752613199
 20
-3355.6088684128
 30
0.0
 11
6582.902752613199
 21
-3354.0088684128
 31
0.0
  0
LINE
  5
130
330
1F
100
AcDbEntity
  8
1
  6
________________
 62
     7
370
     9
100
AcDbLine
 10
6597.9027526132
 20
-3355.6088684128
 30
0.0
 11
6582.902752613199
 21
-3355.6088684128
 31
0.0
  0
ARC
  5
131
330
1F
100
AcDbEntity
  8
1
  6
________________
 62
     7
370
     9
100
AcDbCircle
 10
6597.9027526132
 20
-3355.6088684128
 30
0.0
 40
1.599999999999824
100
AcDbArc
 50
18.2099568643
 51
90.0
  0
LINE
  5
132
330
1F
100
AcDbEntity
  8
1
  6
________________
 62
     7
370
     9
100
AcDbLine
 10
6577.9027526132
 20
-3552.2088684128
 30
0.0
 11
6577.9027526132
 21
-3553.8088684128
 31
0.0
  0
LINE
  5
133
330
1F
100
AcDbEntity
  8
1
  6
________________
 62
     7
370
     9
100
AcDbLine
 10
6577.9027526132
 20
-3553.8088684128
 30
0.0
 11
6582.902752613199
 21
-3553.8088684128
 31
0.0
  0
LINE
  5
134
330
1F
100
AcDbEntity
  8
1
  6
________________
 62
     7
370
     9
100
AcDbLine
 10
6582.902752613199
 20
-3552.2088684128
 30
0.0
 11
6577.9027526132
 21
-3552.2088684128
 31
0.0
  0
LINE
  5
135
330
1F
100
AcDbEntity
  8
1
  6
________________
 62
     7
370
     9
100
AcDbLine
 10
6577.9027526132
 20
-3354.0088684128
 30
0.0
 11
6577.9027526132
 21
-3355.6088684128
 31
0.0
  0
LINE
  5
136
330
1F
100
AcDbEntity
  8
1
  6
________________
 62
     7
370
     9
100
AcDbLine
 10
6582.902752613199
 20
-3354.0088684128
 30
0.0
 11
6577.9027526132
 21
-3354.0088684128
 31
0.0
  0
LINE
  5
137
330
1F
100
AcDbEntity
  8
1
  6
________________
 62
     7
370
     9
100
AcDbLine
 10
6577.9027526132
 20
-3355.6088684128
 30
0.0
 11
6582.902752613199
 21
-3355.6088684128
 31
0.0
  0
LINE
  5
138
330
1F
100
AcDbEntity
  8
1
  6
________________
 62
     7
370
     9
100
AcDbLine
 10
6575.9027526132
 20
-3376.0088684128
 30
0.0
 11
6575.9027526132
 21
-3531.8088684128
 31
0.0
  0
LINE
  5
139
330
1F
100
AcDbEntity
  8
1
  6
________________
 62
     7
370
     9
100
AcDbLine
 10
6575.9027526132
 20
-3531.8088684128
 30
0.0
 11
6577.5027526132
 21
-3531.8088684128
 31
0.0
  0
LINE
  5
13A
330
1F
100
AcDbEntity
  8
1
  6
________________
 62
     7
370
     9
100
AcDbLine
 10
6577.5027526132
 20
-3531.8088684128
 30
0.0
 11
6577.5027526132
 21
-3376.0088684128
 31
0.0
  0
LINE
  5
13B
330
1F
100
AcDbEntity
  8
1
  6
________________
 62
     7
370
     9
100
AcDbLine
 10
6577.5027526132
 20
-3376.0088684128
 30
0.0
 11
6575.9027526132
 21
-3376.0088684128
 31
0.0
  0
LINE
  5
13C
330
1F
100
AcDbEntity
  8
1
  6
________________
 62
     7
370
     9
100
AcDbLine
 10
6580.9027526132
 20
-3378.0088684128
 30
0.0
 11
6580.9027526132
 21
-3529.8088684128
 31
0.0
  0
ARC
  5
13D
330
1F
100
AcDbEntity
  8
1
  6
________________
 62
     7
370
     9
100
AcDbCircle
 10
6578.9027526132
 20
-3378.0088684128
 30
0.0
 40
1.99999999999978
100
AcDbArc
 50
0.0
 51
90.0
  0
LINE
  5
13E
330
1F
100
AcDbEntity
  8
1
  6
________________
 62
     7
370
     9
100
AcDbLine
 10
6577.5027526132
 20
-3376.0088684128
 30
0.0
 11
6578.9027526132
 21
-3376.0088684128
 31
0.0
  0
ARC
  5
13F
330
1F
100
AcDbEntity
  8
1
  6
________________
 62
     7
370
     9
100
AcDbCircle
 10
6578.9027526132
 20
-3529.8088684128
 30
0.0
 40
1.99999999999978
100
AcDbArc
 50
270.0
 51
0.0
  0
LINE
  5
140
330
1F
100
AcDbEntity
  8
1
  6
________________
 62
     7
370
     9
100
AcDbLine
 10
6578.9027526132
 20
-3531.8088684128
 30
0.0
 11
6577.5027526132
 21
-3531.8088684128
 31
0.0
  0
CIRCLE
  5
141
330
1F
100
AcDbEntity
  8
1
  6
________________
 62
     7
370
     9
100
AcDbCircle
 10
6587.902752613199
 20
-3391.4088684128
 30
0.0
 40
1.299999999999635
  0
CIRCLE
  5
142
330
1F
100
AcDbEntity
  8
1
  6
________________
 62
     7
370
     9
100
AcDbCircle
 10
6587.902752613199
 20
-3503.9088684128
 30
0.0
 40
3.000000000000114
  0
CIRCLE
  5
143
330
1F
100
AcDbEntity
  8
1
  6
________________
 62
     7
370
     9
100
AcDbCircle
 10
6587.902752613199
 20
-3403.9088684128
 30
0.0
 40
3.000000000000114
  0
CIRCLE
  5
144
330
1F
100
AcDbEntity
  8
1
  6
________________
 62
     7
370
     9
100
AcDbCircle
 10
6587.902752613199
 20
-3516.4088684128
 30
0.0
 40
1.299999999999635
  0
LINE
  5
145
330
1F
100
AcDbEntity
  8
1
  6
________________
 62
     7
370
     9
100
AcDbLine
 10
6578.9027526132
 20
-3376.0088684128
 30
0.0
 11
6597.9027526132
 21
-3376.0088684128
 31
0.0
  0
LINE
  5
146
330
1F
100
AcDbEntity
  8
1
  6
________________
 62
     7
370
     9
100
AcDbLine
 10
6597.9027526132
 20
-3531.8088684128
 30
0.0
 11
6578.9027526132
 21
-3531.8088684128
 31
0.0
  0
LINE
  5
147
330
1F
100
AcDbEntity
  8
1
  6
________________
 62
     7
370
     9
100
AcDbLine
 10
6594.5027526132
 20
-3783.3380479908
 30
0.0
 11
6594.5027526132
 21
-3781.7380479908
 31
0.0
  0
LINE
  5
148
330
1F
100
AcDbEntity
  8
1
  6
________________
 62
     7
370
     9
100
AcDbLine
 10
6599.502752613199
 20
-3781.7380479908
 30
0.0
 11
6599.502752613199
 21
-3783.3380479908
 31
0.0
  0
LINE
  5
149
330
1F
100
AcDbEntity
  8
1
  6
________________
 62
     7
370
     9
100
AcDbLine
 10
6599.502752613199
 20
-3783.3380479908
 30
0.0
 11
6594.5027526132
 21
-3783.3380479908
 31
0.0
  0
LINE
  5
14A
330
1F
100
AcDbEntity
  8
1
  6
________________
 62
     7
370
     9
100
AcDbLine
 10
6594.5027526132
 20
-3781.7380479908
 30
0.0
 11
6599.502752613199
 21
-3781.7380479908
 31
0.0
  0
LINE
  5
14B
330
1F
100
AcDbEntity
  8
1
  6
________________
 62
     7
370
     9
100
AcDbLine
 10
6599.502752613199
 20
-3783.3380479908
 30
0.0
 11
5296.3027526132
 21
-3783.3380479908
 31
0.0
  0
LINE
  5
14C
330
1F
100
AcDbEntity
  8
1
  6
________________
 62
     7
370
     9
100
AcDbLine
 10
6599.502752613199
 20
-3781.7380479908
 30
0.0
 11
5296.3027526132
 21
-3781.7380479908
 31
0.0
  0
CIRCLE
  5
14D
330
1F
100
AcDbEntity
  8
1
  6
________________
 62
     7
370
     9
100
AcDbCircle
 10
6587.902752613199
 20
-3811.7380479908
 30
0.0
 40
1.599999999999824
  0
LINE
  5
14E
330
1F
100
AcDbEntity
  8
1
  6
________________
 62
     7
370
     9
100
AcDbLine
 10
5296.3027526132
 20
-3830.1380479908
 30
0.0
 11
6599.502752613199
 21
-3830.1380479908
 31
0.0
  0
CIRCLE
  5
14F
330
1F
100
AcDbEntity
  8
1
  6
________________
 62
     7
370
     9
100
AcDbCircle
 10
5307.9027526132
 20
-3796.7380479908
 30
0.0
 40
3.000000000000114
  0
CIRCLE
  5
150
330
1F
100
AcDbEntity
  8
1
  6
________________
 62
     7
370
     9
100
AcDbCircle
 10
5307.9027526132
 20
-3811.7380479908
 30
0.0
 40
1.599999999999824
  0
CIRCLE
  5
151
330
1F
100
AcDbEntity
  8
1
  6
________________
 62
     7
370
     9
100
AcDbCircle
 10
6587.902752613199
 20
-3796.7380479908
 30
0.0
 40
3.000000000000114
  0
LINE
  5
152
330
1F
100
AcDbEntity
  8
1
  6
________________
 62
     7
370
     9
100
AcDbLine
 10
5296.3027526132
 20
-3830.1380479908
 30
0.0
 11
5296.3027526132
 21
-3783.3380479908
 31
0.0
  0
LINE
  5
153
330
1F
100
AcDbEntity
  8
1
  6
________________
 62
     7
370
     9
100
AcDbLine
 10
6599.502752613199
 20
-3830.1380479908
 30
0.0
 11
6599.502752613199
 21
-3783.3380479908
 31
0.0
  0
LINE
  5
154
330
1F
100
AcDbEntity
  8
1
  6
________________
 62
     7
370
     9
100
AcDbLine
 10
6599.502752613199
 20
-3831.7380479908
 30
0.0
 11
6597.8027526132
 21
-3831.7380479908
 31
0.0
  0
LINE
  5
155
330
1F
100
AcDbEntity
  8
1
  6
________________
 62
     7
370
     9
100
AcDbLine
 10
6599.502752613199
 20
-3831.7380479908
 30
0.0
 11
5296.3027526132
 21
-3831.7380479908
 31
0.0
  0
LINE
  5
156
330
1F
100
AcDbEntity
  8
1
  6
________________
 62
     7
370
     9
100
AcDbLine
 10
5298.002752613201
 20
-3831.7380479908
 30
0.0
 11
5296.3027526132
 21
-3831.7380479908
 31
0.0
  0
LINE
  5
157
330
1F
100
AcDbEntity
  8
1
  6
________________
 62
     7
370
     9
100
AcDbLine
 10
5296.3027526132
 20
-3831.7380479908
 30
0.0
 11
5296.3027526132
 21
-3830.1380479908
 31
0.0
  0
LINE
  5
158
330
1F
100
AcDbEntity
  8
1
  6
________________
 62
     7
370
     9
100
AcDbLine
 10
6599.502752613199
 20
-3830.1380479908
 30
0.0
 11
6599.502752613199
 21
-3831.7380479908
 31
0.0
  0
LINE
  5
159
330
1F
100
AcDbEntity
  8
1
  6
________________
 62
     7
370
     9
100
AcDbLine
 10
6594.5027526132
 20
-3633.3380479908
 30
0.0
 11
6594.5027526132
 21
-3631.7380479908
 31
0.0
  0
LINE
  5
15A
330
1F
100
AcDbEntity
  8
1
  6
________________
 62
     7
370
     9
100
AcDbLine
 10
5301.3027526132
 20
-3631.7380479908
 30
0.0
 11
5301.3027526132
 21
-3633.3380479908
 31
0.0
  0
LINE
  5
15B
330
1F
100
AcDbEntity
  8
1
  6
________________
 62
     7
370
     9
100
AcDbLine
 10
6594.5027526132
 20
-3631.7380479908
 30
0.0
 11
5296.3027526132
 21
-3631.7380479908
 31
0.0
  0
LINE
  5
15C
330
1F
100
AcDbEntity
  8
1
  6
________________
 62
     7
370
     9
100
AcDbLine
 10
6594.5027526132
 20
-3633.3380479908
 30
0.0
 11
5296.3027526132
 21
-3633.3380479908
 31
0.0
  0
LINE
  5
15D
330
1F
100
AcDbEntity
  8
1
  6
________________
 62
     7
370
     9
100
AcDbLine
 10
6599.502752613199
 20
-3631.7380479908
 30
0.0
 11
6599.502752613199
 21
-3633.3380479908
 31
0.0
  0
LINE
  5
15E
330
1F
100
AcDbEntity
  8
1
  6
________________
 62
     7
370
     9
100
AcDbLine
 10
6594.5027526132
 20
-3631.7380479908
 30
0.0
 11
6599.502752613199
 21
-3631.7380479908
 31
0.0
  0
LINE
  5
15F
330
1F
100
AcDbEntity
  8
1
  6
________________
 62
     7
370
     9
100
AcDbLine
 10
6599.502752613199
 20
-3633.3380479908
 30
0.0
 11
6594.5027526132
 21
-3633.3380479908
 31
0.0
  0
LINE
  5
160
330
1F
100
AcDbEntity
  8
1
  6
________________
 62
     7
370
     9
100
AcDbLine
 10
6594.5027526132
 20
-3781.7380479908
 30
0.0
 11
6594.5027526132
 21
-3780.1380479908
 31
0.0
  0
LINE
  5
161
330
1F
100
AcDbEntity
  8
1
  6
________________
 62
     7
370
     9
100
AcDbLine
 10
6599.502752613199
 20
-3780.1380479908
 30
0.0
 11
5296.3027526132
 21
-3780.1380479908
 31
0.0
  0
LINE
  5
162
330
1F
100
AcDbEntity
  8
1
  6
________________
 62
     7
370
     9
100
AcDbLine
 10
6544.5027526132
 20
-3781.7380479908
 30
0.0
 11
5351.3027526132
 21
-3781.7380479908
 31
0.0
  0
LINE
  5
163
330
1F
100
AcDbEntity
  8
1
  6
________________
 62
     7
370
     9
100
AcDbLine
 10
6599.502752613199
 20
-3780.1380479908
 30
0.0
 11
6599.502752613199
 21
-3781.7380479908
 31
0.0
  0
LINE
  5
164
330
1F
100
AcDbEntity
  8
1
  6
________________
 62
     7
370
     9
100
AcDbLine
 10
6594.5027526132
 20
-3780.1380479908
 30
0.0
 11
6599.502752613199
 21
-3780.1380479908
 31
0.0
  0
LINE
  5
165
330
1F
100
AcDbEntity
  8
1
  6
________________
 62
     7
370
     9
100
AcDbLine
 10
6599.502752613199
 20
-3781.7380479908
 30
0.0
 11
6594.5027526132
 21
-3781.7380479908
 31
0.0
  0
LINE
  5
166
330
1F
100
AcDbEntity
  8
1
  6
________________
 62
     7
370
     9
100
AcDbLine
 10
5296.3027526132
 20
-3633.3380479908
 30
0.0
 11
5296.3027526132
 21
-3631.7380479908
 31
0.0
  0
LINE
  5
167
330
1F
100
AcDbEntity
  8
1
  6
________________
 62
     7
370
     9
100
AcDbLine
 10
5296.3027526132
 20
-3631.7380479908
 30
0.0
 11
5301.3027526132
 21
-3631.7380479908
 31
0.0
  0
LINE
  5
168
330
1F
100
AcDbEntity
  8
1
  6
________________
 62
     7
370
     9
100
AcDbLine
 10
5301.3027526132
 20
-3633.3380479908
 30
0.0
 11
5296.3027526132
 21
-3633.3380479908
 31
0.0
  0
CIRCLE
  5
169
330
1F
100
AcDbEntity
  8
1
  6
________________
 62
     7
370
     9
100
AcDbCircle
 10
6587.902752613199
 20
-3656.7380479908
 30
0.0
 40
3.000000000000114
  0
CIRCLE
  5
16A
330
1F
100
AcDbEntity
  8
1
  6
________________
 62
     7
370
     9
100
AcDbCircle
 10
5307.9027526132
 20
-3671.7380479908
 30
0.0
 40
1.599999999999824
  0
CIRCLE
  5
16B
330
1F
100
AcDbEntity
  8
1
  6
________________
 62
     7
370
     9
100
AcDbCircle
 10
5307.9027526132
 20
-3756.7380479908
 30
0.0
 40
3.000000000000114
  0
CIRCLE
  5
16C
330
1F
100
AcDbEntity
  8
1
  6
________________
 62
     7
370
     9
100
AcDbCircle
 10
5307.9027526132
 20
-3656.7380479908
 30
0.0
 40
3.000000000000114
  0
CIRCLE
  5
16D
330
1F
100
AcDbEntity
  8
1
  6
________________
 62
     7
370
     9
100
AcDbCircle
 10
6587.902752613199
 20
-3756.7380479908
 30
0.0
 40
3.000000000000114
  0
CIRCLE
  5
16E
330
1F
100
AcDbEntity
  8
1
  6
________________
 62
     7
370
     9
100
AcDbCircle
 10
6587.902752613199
 20
-3671.7380479908
 30
0.0
 40
1.599999999999824
  0
LINE
  5
16F
330
1F
100
AcDbEntity
  8
1
  6
________________
 62
     7
370
     9
100
AcDbLine
 10
5296.3027526132
 20
-3780.1380479908
 30
0.0
 11
5296.3027526132
 21
-3633.3380479908
 31
0.0
  0
LINE
  5
170
330
1F
100
AcDbEntity
  8
1
  6
________________
 62
     7
370
     9
100
AcDbLine
 10
6599.502752613199
 20
-3780.1380479908
 30
0.0
 11
6599.502752613199
 21
-3633.3380479908
 31
0.0
  0
LINE
  5
171
330
1F
100
AcDbEntity
  8
1
  6
________________
 62
     7
370
     9
100
AcDbLine
 10
6599.502752613199
 20
-3783.3380479908
 30
0.0
 11
6599.502752613199
 21
-3830.1380479908
 31
0.0
  0
LINE
  5
172
330
1F
100
AcDbEntity
  8
1
  6
________________
 62
     7
370
     9
100
AcDbLine
 10
6614.5027526132
 20
-3783.3380479908
 30
0.0
 11
6614.5027526132
 21
-3781.7380479908
 31
0.0
  0
LINE
  5
173
330
1F
100
AcDbEntity
  8
1
  6
________________
 62
     7
370
     9
100
AcDbLine
 10
6599.502752613199
 20
-3781.7380479908
 30
0.0
 11
6614.5027526132
 21
-3781.7380479908
 31
0.0
  0
LINE
  5
174
330
1F
100
AcDbEntity
  8
1
  6
________________
 62
     7
370
     9
100
AcDbLine
 10
6614.5027526132
 20
-3783.3380479908
 30
0.0
 11
6599.502752613199
 21
-3783.3380479908
 31
0.0
  0
LINE
  5
175
330
1F
100
AcDbEntity
  8
1
  6
________________
 62
     7
370
     9
100
AcDbLine
 10
6619.5027526132
 20
-3781.7380479908
 30
0.0
 11
6619.5027526132
 21
-3783.3380479908
 31
0.0
  0
LINE
  5
176
330
1F
100
AcDbEntity
  8
1
  6
________________
 62
     7
370
     9
100
AcDbLine
 10
6614.5027526132
 20
-3781.7380479908
 30
0.0
 11
6619.5027526132
 21
-3781.7380479908
 31
0.0
  0
LINE
  5
177
330
1F
100
AcDbEntity
  8
1
  6
________________
 62
     7
370
     9
100
AcDbLine
 10
6619.5027526132
 20
-3783.3380479908
 30
0.0
 11
6614.5027526132
 21
-3783.3380479908
 31
0.0
  0
LINE
  5
178
330
1F
100
AcDbEntity
  8
1
  6
________________
 62
     7
370
     9
100
AcDbLine
 10
6597.9027526132
 20
-3831.7380479908
 30
0.0
 11
6577.5027526132
 21
-3831.7380479908
 31
0.0
  0
ARC
  5
179
330
1F
100
AcDbEntity
  8
1
  6
________________
 62
     7
370
     9
100
AcDbCircle
 10
6597.9027526132
 20
-3830.1380479908
 30
0.0
 40
1.599999999999824
100
AcDbArc
 50
270.0
 51
341.7900431357
  0
LINE
  5
17A
330
1F
100
AcDbEntity
  8
1
  6
________________
 62
     7
370
     9
100
AcDbLine
 10
6619.5027526132
 20
-3631.7380479908
 30
0.0
 11
6619.5027526132
 21
-3633.3380479908
 31
0.0
  0
LINE
  5
17B
330
1F
100
AcDbEntity
  8
1
  6
________________
 62
     7
370
     9
100
AcDbLine
 10
6614.5027526132
 20
-3633.3380479908
 30
0.0
 11
6614.5027526132
 21
-3631.7380479908
 31
0.0
  0
LINE
  5
17C
330
1F
100
AcDbEntity
  8
1
  6
________________
 62
     7
370
     9
100
AcDbLine
 10
6614.5027526132
 20
-3631.7380479908
 30
0.0
 11
6619.5027526132
 21
-3631.7380479908
 31
0.0
  0
LINE
  5
17D
330
1F
100
AcDbEntity
  8
1
  6
________________
 62
     7
370
     9
100
AcDbLine
 10
6619.5027526132
 20
-3633.3380479908
 30
0.0
 11
6614.5027526132
 21
-3633.3380479908
 31
0.0
  0
LINE
  5
17E
330
1F
100
AcDbEntity
  8
1
  6
________________
 62
     7
370
     9
100
AcDbLine
 10
6604.502752613199
 20
-3631.7380479908
 30
0.0
 11
6604.502752613199
 21
-3633.3380479908
 31
0.0
  0
LINE
  5
17F
330
1F
100
AcDbEntity
  8
1
  6
________________
 62
     7
370
     9
100
AcDbLine
 10
6604.502752613199
 20
-3631.7380479908
 30
0.0
 11
6614.5027526132
 21
-3631.7380479908
 31
0.0
  0
LINE
  5
180
330
1F
100
AcDbEntity
  8
1
  6
________________
 62
     7
370
     9
100
AcDbLine
 10
6614.5027526132
 20
-3633.3380479908
 30
0.0
 11
6604.502752613199
 21
-3633.3380479908
 31
0.0
  0
LINE
  5
181
330
1F
100
AcDbEntity
  8
1
  6
________________
 62
     7
370
     9
100
AcDbLine
 10
6599.502752613199
 20
-3633.3380479908
 30
0.0
 11
6599.502752613199
 21
-3631.7380479908
 31
0.0
  0
LINE
  5
182
330
1F
100
AcDbEntity
  8
1
  6
________________
 62
     7
370
     9
100
AcDbLine
 10
6599.502752613199
 20
-3631.7380479908
 30
0.0
 11
6604.502752613199
 21
-3631.7380479908
 31
0.0
  0
LINE
  5
183
330
1F
100
AcDbEntity
  8
1
  6
________________
 62
     7
370
     9
100
AcDbLine
 10
6604.502752613199
 20
-3633.3380479908
 30
0.0
 11
6599.502752613199
 21
-3633.3380479908
 31
0.0
  0
LINE
  5
184
330
1F
100
AcDbEntity
  8
1
  6
________________
 62
     7
370
     9
100
AcDbLine
 10
6599.502752613199
 20
-3633.3380479908
 30
0.0
 11
6599.502752613199
 21
-3780.1380479908
 31
0.0
  0
LINE
  5
185
330
1F
100
AcDbEntity
  8
1
  6
________________
 62
     7
370
     9
100
AcDbLine
 10
6614.5027526132
 20
-3781.7380479908
 30
0.0
 11
6614.5027526132
 21
-3780.1380479908
 31
0.0
  0
LINE
  5
186
330
1F
100
AcDbEntity
  8
1
  6
________________
 62
     7
370
     9
100
AcDbLine
 10
6614.5027526132
 20
-3780.1380479908
 30
0.0
 11
6619.5027526132
 21
-3780.1380479908
 31
0.0
  0
LINE
  5
187
330
1F
100
AcDbEntity
  8
1
  6
________________
 62
     7
370
     9
100
AcDbLine
 10
6619.5027526132
 20
-3780.1380479908
 30
0.0
 11
6619.5027526132
 21
-3781.7380479908
 31
0.0
  0
LINE
  5
188
330
1F
100
AcDbEntity
  8
1
  6
________________
 62
     7
370
     9
100
AcDbLine
 10
6619.5027526132
 20
-3781.7380479908
 30
0.0
 11
6614.5027526132
 21
-3781.7380479908
 31
0.0
  0
LINE
  5
189
330
1F
100
AcDbEntity
  8
1
  6
________________
 62
     7
370
     9
100
AcDbLine
 10
6614.5027526132
 20
-3780.1380479908
 30
0.0
 11
6599.502752613199
 21
-3780.1380479908
 31
0.0
  0
LINE
  5
18A
330
1F
100
AcDbEntity
  8
1
  6
________________
 62
     7
370
     9
100
AcDbLine
 10
6599.502752613199
 20
-3781.7380479908
 30
0.0
 11
6614.5027526132
 21
-3781.7380479908
 31
0.0
  0
LINE
  5
18B
330
1F
100
AcDbEntity
  8
1
  6
________________
 62
     7
370
     9
100
AcDbLine
 10
5301.3027526132
 20
-3783.3380479908
 30
0.0
 11
5301.3027526132
 21
-3781.7380479908
 31
0.0
  0
LINE
  5
18C
330
1F
100
AcDbEntity
  8
1
  6
________________
 62
     7
370
     9
100
AcDbLine
 10
5301.3027526132
 20
-3781.7380479908
 30
0.0
 11
5301.3027526132
 21
-3780.1380479908
 31
0.0
  0
CIRCLE
  5
18D
330
1F
100
AcDbEntity
  8
1
  6
________________
 62
     7
370
     9
100
AcDbCircle
 10
6397.9027526132
 20
-3565.4088684128
 30
0.0
 40
1.3
  0
CIRCLE
  5
18E
330
1F
100
AcDbEntity
  8
1
  6
________________
 62
     7
370
     9
100
AcDbCircle
 10
6397.9027526132
 20
-3342.4088684128
 30
0.0
 40
1.3
  0
CIRCLE
  5
18F
330
1F
100
AcDbEntity
  8
1
  6
________________
 62
     7
370
     9
100
AcDbCircle
 10
5497.9027526132
 20
-3565.4088684128
 30
0.0
 40
1.3
  0
CIRCLE
  5
190
330
1F
100
AcDbEntity
  8
1
  6
________________
 62
     7
370
     9
100
AcDbCircle
 10
5497.9027526132
 20
-3342.4088684128
 30
0.0
 40
1.3
  0
CIRCLE
  5
191
330
1F
100
AcDbEntity
  8
1
  6
________________
 62
     7
370
     9
100
AcDbCircle
 10
5547.9027526132
 20
-3565.4088684128
 30
0.0
 40
1.3
  0
CIRCLE
  5
192
330
1F
100
AcDbEntity
  8
1
  6
________________
 62
     7
370
     9
100
AcDbCircle
 10
5547.9027526132
 20
-3342.4088684128
 30
0.0
 40
1.3
  0
CIRCLE
  5
193
330
1F
100
AcDbEntity
  8
1
  6
________________
 62
     7
370
     9
100
AcDbCircle
 10
6347.9027526132
 20
-3565.4088684128
 30
0.0
 40
1.3
  0
CIRCLE
  5
194
330
1F
100
AcDbEntity
  8
1
  6
________________
 62
     7
370
     9
100
AcDbCircle
 10
6347.9027526132
 20
-3342.4088684128
 30
0.0
 40
1.3
  0
CIRCLE
  5
195
330
1F
100
AcDbEntity
  8
1
  6
________________
 62
     7
370
     9
100
AcDbCircle
 10
6297.9027526132
 20
-3565.4088684128
 30
0.0
 40
1.3
  0
CIRCLE
  5
196
330
1F
100
AcDbEntity
  8
1
  6
________________
 62
     7
370
     9
100
AcDbCircle
 10
6297.9027526132
 20
-3342.4088684128
 30
0.0
 40
1.3
  0
CIRCLE
  5
197
330
1F
100
AcDbEntity
  8
1
  6
________________
 62
     7
370
     9
100
AcDbCircle
 10
5597.9027526132
 20
-3565.4088684128
 30
0.0
 40
1.3
  0
CIRCLE
  5
198
330
1F
100
AcDbEntity
  8
1
  6
________________
 62
     7
370
     9
100
AcDbCircle
 10
5597.9027526132
 20
-3342.4088684128
 30
0.0
 40
1.3
  0
CIRCLE
  5
199
330
1F
100
AcDbEntity
  8
1
  6
________________
 62
     7
370
     9
100
AcDbCircle
 10
5647.9027526132
 20
-3565.4088684128
 30
0.0
 40
1.3
  0
CIRCLE
  5
19A
330
1F
100
AcDbEntity
  8
1
  6
________________
 62
     7
370
     9
100
AcDbCircle
 10
5647.9027526132
 20
-3342.4088684128
 30
0.0
 40
1.3
  0
CIRCLE
  5
19B
330
1F
100
AcDbEntity
  8
1
  6
________________
 62
     7
370
     9
100
AcDbCircle
 10
6247.9027526132
 20
-3565.4088684128
 30
0.0
 40
1.3
  0
CIRCLE
  5
19C
330
1F
100
AcDbEntity
  8
1
  6
________________
 62
     7
370
     9
100
AcDbCircle
 10
6247.9027526132
 20
-3342.4088684128
 30
0.0
 40
1.3
  0
CIRCLE
  5
19D
330
1F
100
AcDbEntity
  8
1
  6
________________
 62
     7
370
     9
100
AcDbCircle
 10
5697.9027526132
 20
-3565.4088684128
 30
0.0
 40
1.3
  0
CIRCLE
  5
19E
330
1F
100
AcDbEntity
  8
1
  6
________________
 62
     7
370
     9
100
AcDbCircle
 10
5697.9027526132
 20
-3342.4088684128
 30
0.0
 40
1.3
  0
CIRCLE
  5
19F
330
1F
100
AcDbEntity
  8
1
  6
________________
 62
     7
370
     9
100
AcDbCircle
 10
6197.9027526132
 20
-3565.4088684128
 30
0.0
 40
1.3
  0
CIRCLE
  5
1A0
330
1F
100
AcDbEntity
  8
1
  6
________________
 62
     7
370
     9
100
AcDbCircle
 10
6197.9027526132
 20
-3342.4088684128
 30
0.0
 40
1.3
  0
CIRCLE
  5
1A1
330
1F
100
AcDbEntity
  8
1
  6
________________
 62
     7
370
     9
100
AcDbCircle
 10
6147.9027526132
 20
-3565.4088684128
 30
0.0
 40
1.3
  0
CIRCLE
  5
1A2
330
1F
100
AcDbEntity
  8
1
  6
________________
 62
     7
370
     9
100
AcDbCircle
 10
6147.9027526132
 20
-3342.4088684128
 30
0.0
 40
1.3
  0
CIRCLE
  5
1A3
330
1F
100
AcDbEntity
  8
1
  6
________________
 62
     7
370
     9
100
AcDbCircle
 10
5747.9027526132
 20
-3565.4088684128
 30
0.0
 40
1.3
  0
CIRCLE
  5
1A4
330
1F
100
AcDbEntity
  8
1
  6
________________
 62
     7
370
     9
100
AcDbCircle
 10
5747.9027526132
 20
-3342.4088684128
 30
0.0
 40
1.3
  0
CIRCLE
  5
1A5
330
1F
100
AcDbEntity
  8
1
  6
________________
 62
     7
370
     9
100
AcDbCircle
 10
6222.9027526132
 20
-3543.8088684128
 30
0.0
 40
3.000000000000114
  0
CIRCLE
  5
1A6
330
1F
100
AcDbEntity
  8
1
  6
________________
 62
     7
370
     9
100
AcDbCircle
 10
5672.902752613199
 20
-3543.8088684128
 30
0.0
 40
3.000000000000114
  0
CIRCLE
  5
1A7
330
1F
100
AcDbEntity
  8
1
  6
________________
 62
     7
370
     9
100
AcDbCircle
 10
6235.4027526132
 20
-3543.8088684128
 30
0.0
 40
1.299999999999635
  0
CIRCLE
  5
1A8
330
1F
100
AcDbEntity
  8
1
  6
________________
 62
     7
370
     9
100
AcDbCircle
 10
5660.4027526132
 20
-3543.8088684128
 30
0.0
 40
1.299999999999635
  0
CIRCLE
  5
1A9
330
1F
100
AcDbEntity
  8
1
  6
________________
 62
     7
370
     9
100
AcDbCircle
 10
6222.9027526132
 20
-3364.0088684128
 30
0.0
 40
3.000000000000114
  0
CIRCLE
  5
1AA
330
1F
100
AcDbEntity
  8
1
  6
________________
 62
     7
370
     9
100
AcDbCircle
 10
5672.902752613199
 20
-3364.0088684128
 30
0.0
 40
3.000000000000114
  0
CIRCLE
  5
1AB
330
1F
100
AcDbEntity
  8
1
  6
________________
 62
     7
370
     9
100
AcDbCircle
 10
6235.4027526132
 20
-3364.0088684128
 30
0.0
 40
1.299999999999635
  0
CIRCLE
  5
1AC
330
1F
100
AcDbEntity
  8
1
  6
________________
 62
     7
370
     9
100
AcDbCircle
 10
5660.4027526132
 20
-3364.0088684128
 30
0.0
 40
1.299999999999635
  0
CIRCLE
  5
1AD
330
1F
100
AcDbEntity
  8
1
  6
________________
 62
     7
370
     9
100
AcDbCircle
 10
6097.9027526132
 20
-3565.4088684128
 30
0.0
 40
1.3
  0
CIRCLE
  5
1AE
330
1F
100
AcDbEntity
  8
1
  6
________________
 62
     7
370
     9
100
AcDbCircle
 10
6097.9027526132
 20
-3342.4088684128
 30
0.0
 40
1.3
  0
CIRCLE
  5
1AF
330
1F
100
AcDbEntity
  8
1
  6
________________
 62
     7
370
     9
100
AcDbCircle
 10
5797.9027526132
 20
-3565.4088684128
 30
0.0
 40
1.3
  0
CIRCLE
  5
1B0
330
1F
100
AcDbEntity
  8
1
  6
________________
 62
     7
370
     9
100
AcDbCircle
 10
5797.9027526132
 20
-3342.4088684128
 30
0.0
 40
1.3
  0
CIRCLE
  5
1B1
330
1F
100
AcDbEntity
  8
1
  6
________________
 62
     7
370
     9
100
AcDbCircle
 10
5847.9027526132
 20
-3565.4088684128
 30
0.0
 40
1.3
  0
CIRCLE
  5
1B2
330
1F
100
AcDbEntity
  8
1
  6
________________
 62
     7
370
     9
100
AcDbCircle
 10
5847.9027526132
 20
-3342.4088684128
 30
0.0
 40
1.3
  0
CIRCLE
  5
1B3
330
1F
100
AcDbEntity
  8
1
  6
________________
 62
     7
370
     9
100
AcDbCircle
 10
6047.9027526132
 20
-3565.4088684128
 30
0.0
 40
1.3
  0
CIRCLE
  5
1B4
330
1F
100
AcDbEntity
  8
1
  6
________________
 62
     7
370
     9
100
AcDbCircle
 10
6047.9027526132
 20
-3342.4088684128
 30
0.0
 40
1.3
  0
CIRCLE
  5
1B5
330
1F
100
AcDbEntity
  8
1
  6
________________
 62
     7
370
     9
100
AcDbCircle
 10
5997.9027526132
 20
-3565.4088684128
 30
0.0
 40
1.3
  0
CIRCLE
  5
1B6
330
1F
100
AcDbEntity
  8
1
  6
________________
 62
     7
370
     9
100
AcDbCircle
 10
5997.9027526132
 20
-3342.4088684128
 30
0.0
 40
1.3
  0
CIRCLE
  5
1B7
330
1F
100
AcDbEntity
  8
1
  6
________________
 62
     7
370
     9
100
AcDbCircle
 10
5897.9027526132
 20
-3565.4088684128
 30
0.0
 40
1.3
  0
CIRCLE
  5
1B8
330
1F
100
AcDbEntity
  8
1
  6
________________
 62
     7
370
     9
100
AcDbCircle
 10
5897.9027526132
 20
-3342.4088684128
 30
0.0
 40
1.3
  0
MTEXT
  5
1B9
330
1F
100
AcDbEntity
  8
1
 62
     7
100
AcDbMText
 10
5825.779932799999
 20
-3874.009891818182
 30
0.0
 40
3.5
 41
0.0
 46
0.0
 71
     1
 72
     1
  1
{\FＭＳ ゴシック;\W0.589798;ＭＴＫＢ－ＢＳ１３０２０}
 73
     1
 44
1.0
  0
LINE
  5
1BA
330
1F
100
AcDbEntity
  8
1
  6
________________
 62
     7
370
     9
100
AcDbLine
 10
4995.3164165212
 20
-3781.7380479908
 30
0.0
 11
4995.3164165212
 21
-3780.1380479908
 31
0.0
  0
LINE
  5
1BB
330
1F
100
AcDbEntity
  8
1
  6
________________
 62
     7
370
     9
100
AcDbLine
 10
5000.3164165212
 20
-3780.1380479908
 30
0.0
 11
5000.3164165212
 21
-3781.7380479908
 31
0.0
  0
LINE
  5
1BC
330
1F
100
AcDbEntity
  8
1
  6
________________
 62
     7
370
     9
100
AcDbLine
 10
4995.3164165212
 20
-3780.1380479908
 30
0.0
 11
5000.3164165212
 21
-3780.1380479908
 31
0.0
  0
LINE
  5
1BD
330
1F
100
AcDbEntity
  8
1
  6
________________
 62
     7
370
     9
100
AcDbLine
 10
5000.3164165212
 20
-3781.7380479908
 30
0.0
 11
4995.3164165212
 21
-3781.7380479908
 31
0.0
  0
ARC
  5
1BE
330
1F
100
AcDbEntity
  8
1
  6
________________
 62
     7
370
     9
100
AcDbCircle
 10
5015.3164165212
 20
-3780.1380479908
 30
0.0
 40
1.599999999999824
100
AcDbArc
 50
270.0
 51
0.0000000000999876
  0
LINE
  5
1BF
330
1F
100
AcDbEntity
  8
1
  6
________________
 62
     7
370
     9
100
AcDbLine
 10
5000.3164165212
 20
-3780.1380479908
 30
0.0
 11
5015.3164165212
 21
-3780.1380479908
 31
0.0
  0
LINE
  5
1C0
330
1F
100
AcDbEntity
  8
1
  6
________________
 62
     7
370
     9
100
AcDbLine
 10
5016.9164165212
 20
-3633.3380479908
 30
0.0
 11
5016.9164165212
 21
-3780.1380479908
 31
0.0
  0
LINE
  5
1C1
330
1F
100
AcDbEntity
  8
1
  6
________________
 62
     7
370
     9
100
AcDbLine
 10
5015.3164165212
 20
-3780.1380479908
 30
0.0
 11
5015.3164165212
 21
-3633.3380479908
 31
0.0
  0
LINE
  5
1C2
330
1F
100
AcDbEntity
  8
1
  6
________________
 62
     7
370
     9
100
AcDbLine
 10
5015.3164165212
 20
-3781.7380479908
 30
0.0
 11
5000.3164165212
 21
-3781.7380479908
 31
0.0
  0
LINE
  5
1C3
330
1F
100
AcDbEntity
  8
1
  6
________________
 62
     7
370
     9
100
AcDbLine
 10
4995.3164165212
 20
-3783.3380479908
 30
0.0
 11
4995.3164165212
 21
-3781.7380479908
 31
0.0
  0
LINE
  5
1C4
330
1F
100
AcDbEntity
  8
1
  6
________________
 62
     7
370
     9
100
AcDbLine
 10
4995.3164165212
 20
-3781.7380479908
 30
0.0
 11
5000.3164165212
 21
-3781.7380479908
 31
0.0
  0
LINE
  5
1C5
330
1F
100
AcDbEntity
  8
1
  6
________________
 62
     7
370
     9
100
AcDbLine
 10
5000.3164165212
 20
-3781.7380479908
 30
0.0
 11
5000.3164165212
 21
-3783.3380479908
 31
0.0
  0
LINE
  5
1C6
330
1F
100
AcDbEntity
  8
1
  6
________________
 62
     7
370
     9
100
AcDbLine
 10
5000.3164165212
 20
-3783.3380479908
 30
0.0
 11
4995.3164165212
 21
-3783.3380479908
 31
0.0
  0
LINE
  5
1C7
330
1F
100
AcDbEntity
  8
1
  6
________________
 62
     7
370
     9
100
AcDbLine
 10
5000.3164165212
 20
-3781.7380479908
 30
0.0
 11
5015.3164165212
 21
-3781.7380479908
 31
0.0
  0
LINE
  5
1C8
330
1F
100
AcDbEntity
  8
1
  6
________________
 62
     7
370
     9
100
AcDbLine
 10
5016.9164165212
 20
-3783.3380479908
 30
0.0
 11
5016.9164165212
 21
-3831.7380479908
 31
0.0
  0
LINE
  5
1C9
330
1F
100
AcDbEntity
  8
1
  6
________________
 62
     7
370
     9
100
AcDbLine
 10
5015.3164165212
 20
-3830.1380479908
 30
0.0
 11
5015.3164165212
 21
-3783.3380479908
 31
0.0
  0
LINE
  5
1CA
330
1F
100
AcDbEntity
  8
1
  6
________________
 62
     7
370
     9
100
AcDbLine
 10
5015.3164165212
 20
-3783.3380479908
 30
0.0
 11
5000.3164165212
 21
-3783.3380479908
 31
0.0
  0
ARC
  5
1CB
330
1F
100
AcDbEntity
  8
1
  6
________________
 62
     7
370
     9
100
AcDbCircle
 10
5016.9164165212
 20
-3830.1380479908
 30
0.0
 40
1.599999999999824
100
AcDbArc
 50
180.0
 51
270.0
  0
ARC
  5
1CC
330
1F
100
AcDbEntity
  8
1
  6
________________
 62
     7
370
     9
100
AcDbCircle
 10
5015.3164165212
 20
-3783.3380479908
 30
0.0
 40
1.599999999999824
100
AcDbArc
 50
0.0
 51
90.0
  0
ARC
  5
1CD
330
1F
100
AcDbEntity
  8
1
  6
________________
 62
     7
370
     9
100
AcDbCircle
 10
5037.3164165212
 20
-3830.1380479908
 30
0.0
 40
1.599999999999824
100
AcDbArc
 50
270.0
 51
0.0
  0
LINE
  5
1CE
330
1F
100
AcDbEntity
  8
1
  6
________________
 62
     7
370
     9
100
AcDbLine
 10
5037.3164165212
 20
-3831.7380479908
 30
0.0
 11
5016.9164165212
 21
-3831.7380479908
 31
0.0
  0
LINE
  5
1CF
330
1F
100
AcDbEntity
  8
1
  6
________________
 62
     7
370
     9
100
AcDbLine
 10
5238.5164165212
 20
-3781.7380479908
 30
0.0
 11
5238.5164165212
 21
-3780.1380479908
 31
0.0
  0
LINE
  5
1D0
330
1F
100
AcDbEntity
  8
1
  6
________________
 62
     7
370
     9
100
AcDbLine
 10
5233.5164165212
 20
-3780.1380479908
 30
0.0
 11
5233.5164165212
 21
-3781.7380479908
 31
0.0
  0
LINE
  5
1D1
330
1F
100
AcDbEntity
  8
1
  6
________________
 62
     7
370
     9
100
AcDbLine
 10
5238.5164165212
 20
-3780.1380479908
 30
0.0
 11
5233.5164165212
 21
-3780.1380479908
 31
0.0
  0
LINE
  5
1D2
330
1F
100
AcDbEntity
  8
1
  6
________________
 62
     7
370
     9
100
AcDbLine
 10
5233.5164165212
 20
-3781.7380479908
 30
0.0
 11
5238.5164165212
 21
-3781.7380479908
 31
0.0
  0
ARC
  5
1D3
330
1F
100
AcDbEntity
  8
1
  6
________________
 62
     7
370
     9
100
AcDbCircle
 10
5218.5164165212
 20
-3780.1380479908
 30
0.0
 40
1.599999999999824
100
AcDbArc
 50
179.9999999999
 51
270.0
  0
LINE
  5
1D4
330
1F
100
AcDbEntity
  8
1
  6
________________
 62
     7
370
     9
100
AcDbLine
 10
5233.5164165212
 20
-3780.1380479908
 30
0.0
 11
5218.5164165212
 21
-3780.1380479908
 31
0.0
  0
LINE
  5
1D5
330
1F
100
AcDbEntity
  8
1
  6
________________
 62
     7
370
     9
100
AcDbLine
 10
5216.9164165212
 20
-3633.3380479908
 30
0.0
 11
5216.9164165212
 21
-3780.1380479908
 31
0.0
  0
LINE
  5
1D6
330
1F
100
AcDbEntity
  8
1
  6
________________
 62
     7
370
     9
100
AcDbLine
 10
5218.5164165212
 20
-3780.1380479908
 30
0.0
 11
5218.5164165212
 21
-3633.3380479908
 31
0.0
  0
LINE
  5
1D7
330
1F
100
AcDbEntity
  8
1
  6
________________
 62
     7
370
     9
100
AcDbLine
 10
5218.5164165212
 20
-3781.7380479908
 30
0.0
 11
5233.5164165212
 21
-3781.7380479908
 31
0.0
  0
LINE
  5
1D8
330
1F
100
AcDbEntity
  8
1
  6
________________
 62
     7
370
     9
100
AcDbLine
 10
5238.5164165212
 20
-3783.3380479908
 30
0.0
 11
5238.5164165212
 21
-3781.7380479908
 31
0.0
  0
LINE
  5
1D9
330
1F
100
AcDbEntity
  8
1
  6
________________
 62
     7
370
     9
100
AcDbLine
 10
5238.5164165212
 20
-3781.7380479908
 30
0.0
 11
5233.5164165212
 21
-3781.7380479908
 31
0.0
  0
LINE
  5
1DA
330
1F
100
AcDbEntity
  8
1
  6
________________
 62
     7
370
     9
100
AcDbLine
 10
5233.5164165212
 20
-3781.7380479908
 30
0.0
 11
5233.5164165212
 21
-3783.3380479908
 31
0.0
  0
LINE
  5
1DB
330
1F
100
AcDbEntity
  8
1
  6
________________
 62
     7
370
     9
100
AcDbLine
 10
5233.5164165212
 20
-3783.3380479908
 30
0.0
 11
5238.5164165212
 21
-3783.3380479908
 31
0.0
  0
LINE
  5
1DC
330
1F
100
AcDbEntity
  8
1
  6
________________
 62
     7
370
     9
100
AcDbLine
 10
5233.5164165212
 20
-3781.7380479908
 30
0.0
 11
5218.5164165212
 21
-3781.7380479908
 31
0.0
  0
LINE
  5
1DD
330
1F
100
AcDbEntity
  8
1
  6
________________
 62
     7
370
     9
100
AcDbLine
 10
5216.9164165212
 20
-3783.3380479908
 30
0.0
 11
5216.9164165212
 21
-3831.7380479908
 31
0.0
  0
LINE
  5
1DE
330
1F
100
AcDbEntity
  8
1
  6
________________
 62
     7
370
     9
100
AcDbLine
 10
5218.5164165212
 20
-3830.1380479908
 30
0.0
 11
5218.5164165212
 21
-3783.3380479908
 31
0.0
  0
LINE
  5
1DF
330
1F
100
AcDbEntity
  8
1
  6
________________
 62
     7
370
     9
100
AcDbLine
 10
5218.5164165212
 20
-3783.3380479908
 30
0.0
 11
5233.5164165212
 21
-3783.3380479908
 31
0.0
  0
ARC
  5
1E0
330
1F
100
AcDbEntity
  8
1
  6
________________
 62
     7
370
     9
100
AcDbCircle
 10
5216.9164165212
 20
-3830.1380479908
 30
0.0
 40
1.599999999999824
100
AcDbArc
 50
270.0
 51
0.0
  0
ARC
  5
1E1
330
1F
100
AcDbEntity
  8
1
  6
________________
 62
     7
370
     9
100
AcDbCircle
 10
5218.5164165212
 20
-3783.3380479908
 30
0.0
 40
1.599999999999824
100
AcDbArc
 50
90.0
 51
180.0
  0
ARC
  5
1E2
330
1F
100
AcDbEntity
  8
1
  6
________________
 62
     7
370
     9
100
AcDbCircle
 10
5196.516416521201
 20
-3830.1380479908
 30
0.0
 40
1.599999999999824
100
AcDbArc
 50
180.0
 51
270.0
  0
LINE
  5
1E3
330
1F
100
AcDbEntity
  8
1
  6
________________
 62
     7
370
     9
100
AcDbLine
 10
5196.516416521201
 20
-3831.7380479908
 30
0.0
 11
5216.9164165212
 21
-3831.7380479908
 31
0.0
  0
INSERT
  5
1E8
330
1F
100
AcDbEntity
  8
1
  6
________________
 62
     7
370
     9
100
AcDbBlockReference
  2
@364
 10
-50.0
 20
0.0
 30
0.0
  0
INSERT
  5
1ED
330
1F
100
AcDbEntity
  8
1
  6
________________
 62
     7
370
     9
100
AcDbBlockReference
  2
@363
 10
-50.0
 20
0.0
 30
0.0
  0
INSERT
  5
1F2
330
1F
100
AcDbEntity
  8
1
  6
________________
 62
     7
370
     9
100
AcDbBlockReference
  2
@362
 10
50.0
 20
0.0
 30
0.0
  0
INSERT
  5
1F7
330
1F
100
AcDbEntity
  8
1
  6
________________
 62
     7
370
     9
100
AcDbBlockReference
  2
@361
 10
50.0
 20
0.0
 30
0.0
  0
POINT
  5
1F8
330
1F
100
AcDbEntity
  8
0
 62
     7
100
AcDbPoint
 10
6594.5027526132
 20
-3633.3380479908
 30
0.0
  0
ENDSEC
  0
SECTION
  2
OBJECTS
  0
DICTIONARY
  5
C
330
0
100
AcDbDictionary
281
     1
  3
ACAD_GROUP
350
D
  3
ACAD_LAYOUT
350
1A
  3
ACAD_MLEADERSTYLE
350
1FA
  3
ACAD_MLINESTYLE
350
17
  3
ACAD_PLOTSETTINGS
350
19
  3
ACAD_PLOTSTYLENAME
350
E
  3
ACAD_TABLESTYLE
350
1F9
  3
ACAD_VISUALSTYLE
350
2A
  0
DICTIONARY
  5
D
102
{ACAD_REACTORS
330
C
102
}
330
C
100
AcDbDictionary
281
     1
  0
DICTIONARY
  5
1A
102
{ACAD_REACTORS
330
C
102
}
330
C
100
AcDbDictionary
281
     1
  3
Layout1
350
1E
  3
Layout2
350
26
  3
Model
350
22
  0
DICTIONARY
  5
1FA
102
{ACAD_REACTORS
330
C
102
}
330
C
100
AcDbDictionary
281
     1
  0
DICTIONARY
  5
17
102
{ACAD_REACTORS
330
C
102
}
330
C
100
AcDbDictionary
281
     1
  3
Standard
350
18
  0
DICTIONARY
  5
19
102
{ACAD_REACTORS
330
C
102
}
330
C
100
AcDbDictionary
281
     1
  0
ACDBDICTIONARYWDFLT
  5
E
102
{ACAD_REACTORS
330
C
102
}
330
C
100
AcDbDictionary
281
     1
  3
Normal
350
F
100
AcDbDictionaryWithDefault
340
F
  0
DICTIONARY
  5
1F9
102
{ACAD_REACTORS
330
C
102
}
330
C
100
AcDbDictionary
281
     1
  0
DICTIONARY
  5
2A
102
{ACAD_REACTORS
330
C
102
}
330
C
100
AcDbDictionary
281
     1
  3
2dWireframe
350
2F
  3
3D Hidden
350
31
  3
3dWireframe
350
30
  3
Basic
350
32
  3
Brighten
350
36
  3
ColorChange
350
3A
  3
Conceptual
350
34
  3
Dim
350
35
  3
Facepattern
350
39
  3
Flat
350
2B
  3
FlatWithEdges
350
2C
  3
Gouraud
350
2D
  3
GouraudWithEdges
350
2E
  3
Linepattern
350
38
  3
Realistic
350
33
  3
Thicken
350
37
  0
LAYOUT
  5
1E
102
{ACAD_REACTORS
330
1A
102
}
330
1A
100
AcDbPlotSettings
  1

  2
none_device
  4

  6

 40
0.0
 41
0.0
 42
0.0
 43
0.0
 44
0.0
 45
0.0
 46
0.0
 47
0.0
 48
0.0
 49
0.0
140
0.0
141
0.0
142
1.0
143
1.0
 70
   688
 72
     0
 73
     0
 74
     5
  7

 75
    16
 76
     0
 77
     2
 78
   300
147
1.0
148
0.0
149
0.0
100
AcDbLayout
  1
Layout1
 70
     1
 71
     1
 10
0.0
 20
0.0
 11
12.0
 21
9.0
 12
0.0
 22
0.0
 32
0.0
 14
1.000000000000000E+20
 24
1.000000000000000E+20
 34
1.000000000000000E+20
 15
-1.000000000000000E+20
 25
-1.000000000000000E+20
 35
-1.000000000000000E+20
146
0.0
 13
0.0
 23
0.0
 33
0.0
 16
1.0
 26
0.0
 36
0.0
 17
0.0
 27
1.0
 37
0.0
 76
     0
330
1B
  0
LAYOUT
  5
26
102
{ACAD_REACTORS
330
1A
102
}
330
1A
100
AcDbPlotSettings
  1

  2
none_device
  4

  6

 40
0.0
 41
0.0
 42
0.0
 43
0.0
 44
0.0
 45
0.0
 46
0.0
 47
0.0
 48
0.0
 49
0.0
140
0.0
141
0.0
142
1.0
143
1.0
 70
   688
 72
     0
 73
     0
 74
     5
  7

 75
    16
 76
     0
 77
     2
 78
   300
147
1.0
148
0.0
149
0.0
100
AcDbLayout
  1
Layout2
 70
     1
 71
     2
 10
0.0
 20
0.0
 11
0.0
 21
0.0
 12
0.0
 22
0.0
 32
0.0
 14
0.0
 24
0.0
 34
0.0
 15
0.0
 25
0.0
 35
0.0
146
0.0
 13
0.0
 23
0.0
 33
0.0
 16
1.0
 26
0.0
 36
0.0
 17
0.0
 27
1.0
 37
0.0
 76
     0
330
23
  0
LAYOUT
  5
22
102
{ACAD_REACTORS
330
1A
102
}
330
1A
100
AcDbPlotSettings
  1

  2
none_device
  4

  6

 40
0.0
 41
0.0
 42
0.0
 43
0.0
 44
0.0
 45
0.0
 46
0.0
 47
0.0
 48
0.0
 49
0.0
140
0.0
141
0.0
142
1.0
143
1.0
 70
  1712
 72
     0
 73
     0
 74
     0
  7

 75
     0
 76
     0
 77
     2
 78
   300
147
1.0
148
0.0
149
0.0
100
AcDbLayout
  1
Model
 70
     1
 71
     0
 10
0.0
 20
0.0
 11
12.0
 21
9.0
 12
0.0
 22
0.0
 32
0.0
 14
4995.3164165212
 24
-3876.84171
 34
0.0
 15
6619.5027526132
 25
-3329.4088684128
 35
0.0
146
0.0
 13
0.0
 23
0.0
 33
0.0
 16
1.0
 26
0.0
 36
0.0
 17
0.0
 27
1.0
 37
0.0
 76
     0
330
1F
331
29
  0
MLINESTYLE
  5
18
102
{ACAD_REACTORS
330
17
102
}
330
17
100
AcDbMlineStyle
  2
Standard
 70
     0
  3

 62
   256
 51
90.0
 52
90.0
 71
     2
 49
0.5
 62
   256
  6
BYLAYER
 49
-0.5
 62
   256
  6
BYLAYER
  0
ACDBPLACEHOLDER
  5
F
102
{ACAD_REACTORS
330
E
102
}
330
E
  0
VISUALSTYLE
  5
2F
102
{ACAD_REACTORS
330
2A
102
}
330
2A
100
AcDbVisualStyle
  2
2dWireframe
 70
     4
 71
     0
 72
     2
 73
     0
 90
        0
 40
-0.6
 41
-30.0
 62
     5
 63
     7
421
 16777215
 74
     1
 91
        4
 64
     7
 65
   257
 75
     1
175
     1
 42
1.0
 92
        0
 66
   257
 43
1.0
 76
     1
 77
     6
 78
     2
 67
     7
 79
     5
170
     0
171
     0
290
     0
174
     0
 93
        1
 44
0.0
173
     0
291
     0
 45
0.0
  0
VISUALSTYLE
  5
31
102
{ACAD_REACTORS
330
2A
102
}
330
2A
100
AcDbVisualStyle
  2
3D Hidden
 70
     6
 71
     1
 72
     2
 73
     2
 90
        0
 40
-0.6
 41
-30.0
 62
     5
 63
     7
421
 16777215
 74
     2
 91
        2
 64
     7
 65
   257
 75
     2
175
     1
 42
40.0
 92
        0
 66
   257
 43
1.0
 76
     1
 77
     6
 78
     2
 67
     7
 79
     3
170
     0
171
     0
290
     0
174
     0
 93
        1
 44
0.0
173
     0
291
     0
 45
0.0
  0
VISUALSTYLE
  5
30
102
{ACAD_REACTORS
330
2A
102
}
330
2A
100
AcDbVisualStyle
  2
3dWireframe
 70
     5
 71
     0
 72
     2
 73
     0
 90
        0
 40
-0.6
 41
-30.0
 62
     5
 63
     7
421
 16777215
 74
     1
 91
        4
 64
     7
 65
   257
 75
     1
175
     1
 42
1.0
 92
        0
 66
   257
 43
1.0
 76
     1
 77
     6
 78
     2
 67
     7
 79
     5
170
     0
171
     0
290
     0
174
     0
 93
        1
 44
0.0
173
     0
291
     0
 45
0.0
  0
VISUALSTYLE
  5
32
102
{ACAD_REACTORS
330
2A
102
}
330
2A
100
AcDbVisualStyle
  2
Basic
 70
     7
 71
     1
 72
     0
 73
     1
 90
        0
 40
-0.6
 41
-30.0
 62
     5
 63
     7
421
 16777215
 74
     0
 91
        4
 64
     7
 65
   257
 75
     1
175
     1
 42
1.0
 92
        8
 66
     7
 43
1.0
 76
     1
 77
     6
 78
     2
 67
     7
 79
     5
170
     0
171
     0
290
     0
174
     0
 93
        1
 44
0.0
173
     0
291
     1
 45
0.0
  0
VISUALSTYLE
  5
36
102
{ACAD_REACTORS
330
2A
102
}
330
2A
100
AcDbVisualStyle
  2
Brighten
 70
    12
 71
     2
 72
     2
 73
     0
 90
        0
 40
-0.6
 41
-30.0
 62
     5
 63
     7
421
 16777215
 74
     1
 91
        4
 64
     7
 65
   257
 75
     1
175
     1
 42
1.0
 92
        8
 66
     7
 43
1.0
 76
     1
 77
     6
 78
     2
 67
     7
 79
     5
170
     0
171
     0
290
     0
174
     0
 93
        1
 44
50.0
173
     0
291
     1
 45
0.0
  0
VISUALSTYLE
  5
3A
102
{ACAD_REACTORS
330
2A
102
}
330
2A
100
AcDbVisualStyle
  2
ColorChange
 70
    16
 71
     2
 72
     2
 73
     3
 90
        0
 40
-0.6
 41
-30.0
 62
     5
 63
     8
421
  8421504
 74
     1
 91
        4
 64
     7
 65
   257
 75
     1
175
     1
 42
1.0
 92
        8
 66
     8
424
  8421504
 43
1.0
 76
     1
 77
     6
 78
     2
 67
     7
 79
     5
170
     0
171
     0
290
     0
174
     0
 93
        1
 44
0.0
173
     0
291
     1
 45
0.0
  0
VISUALSTYLE
  5
34
102
{ACAD_REACTORS
330
2A
102
}
330
2A
100
AcDbVisualStyle
  2
Conceptual
 70
     9
 71
     3
 72
     2
 73
     0
 90
        0
 40
-0.6
 41
-30.0
 62
     5
 63
     7
421
 16777215
 74
     2
 91
        2
 64
     7
 65
   257
 75
     1
175
     1
 42
40.0
 92
        8
 66
     7
 43
1.0
 76
     1
 77
     6
 78
     2
 67
     7
 79
     3
170
     0
171
     0
290
     0
174
     0
 93
        1
 44
0.0
173
     0
291
     0
 45
0.0
  0
VISUALSTYLE
  5
35
102
{ACAD_REACTORS
330
2A
102
}
330
2A
100
AcDbVisualStyle
  2
Dim
 70
    11
 71
     2
 72
     2
 73
     0
 90
        0
 40
-0.6
 41
-30.0
 62
     5
 63
     7
421
 16777215
 74
     1
 91
        4
 64
     7
 65
   257
 75
     1
175
     1
 42
1.0
 92
        8
 66
     7
 43
1.0
 76
     1
 77
     6
 78
     2
 67
     7
 79
     5
170
     0
171
     0
290
     0
174
     0
 93
        1
 44
-50.0
173
     0
291
     1
 45
0.0
  0
VISUALSTYLE
  5
39
102
{ACAD_REACTORS
330
2A
102
}
330
2A
100
AcDbVisualStyle
  2
Facepattern
 70
    15
 71
     2
 72
     2
 73
     0
 90
        0
 40
-0.6
 41
-30.0
 62
     5
 63
     7
421
 16777215
 74
     1
 91
        4
 64
     7
 65
   257
 75
     1
175
     1
 42
1.0
 92
        8
 66
     7
 43
1.0
 76
     1
 77
     6
 78
     2
 67
     7
 79
     5
170
     0
171
     0
290
     0
174
     0
 93
        1
 44
0.0
173
     0
291
     1
 45
0.0
  0
VISUALSTYLE
  5
2B
102
{ACAD_REACTORS
330
2A
102
}
330
2A
100
AcDbVisualStyle
  2
Flat
 70
     0
 71
     2
 72
     1
 73
     1
 90
        2
 40
-0.6
 41
30.0
 62
     5
 63
     7
421
 16777215
 74
     0
 91
        4
 64
     7
 65
   257
 75
     1
175
     1
 42
1.0
 92
        8
 66
     7
 43
1.0
 76
     1
 77
     6
 78
     2
 67
     7
 79
     5
170
     0
171
     0
290
     0
174
     0
 93
       13
 44
0.0
173
     0
291
     1
 45
0.0
  0
VISUALSTYLE
  5
2C
102
{ACAD_REACTORS
330
2A
102
}
330
2A
100
AcDbVisualStyle
  2
FlatWithEdges
 70
     1
 71
     2
 72
     1
 73
     1
 90
        2
 40
-0.6
 41
30.0
 62
     5
 63
     7
421
 16777215
 74
     1
 91
        4
 64
     7
 65
   257
 75
     1
175
     1
 42
1.0
 92
        0
 66
   257
 43
1.0
 76
     1
 77
     6
 78
     2
 67
     7
 79
     5
170
     0
171
     0
290
     0
174
     0
 93
       13
 44
0.0
173
     0
291
     1
 45
0.0
  0
VISUALSTYLE
  5
2D
102
{ACAD_REACTORS
330
2A
102
}
330
2A
100
AcDbVisualStyle
  2
Gouraud
 70
     2
 71
     2
 72
     2
 73
     1
 90
        2
 40
-0.6
 41
30.0
 62
     5
 63
     7
421
 16777215
 74
     0
 91
        4
 64
     7
 65
   257
 75
     1
175
     1
 42
1.0
 92
        0
 66
     7
 43
1.0
 76
     1
 77
     6
 78
     2
 67
     7
 79
     5
170
     0
171
     0
290
     0
174
     0
 93
       13
 44
0.0
173
     0
291
     1
 45
0.0
  0
VISUALSTYLE
  5
2E
102
{ACAD_REACTORS
330
2A
102
}
330
2A
100
AcDbVisualStyle
  2
GouraudWithEdges
 70
     3
 71
     2
 72
     2
 73
     1
 90
        2
 40
-0.6
 41
30.0
 62
     5
 63
     7
421
 16777215
 74
     1
 91
        4
 64
     7
 65
   257
 75
     1
175
     1
 42
1.0
 92
        0
 66
   257
 43
1.0
 76
     1
 77
     6
 78
     2
 67
     7
 79
     5
170
     0
171
     0
290
     0
174
     0
 93
       13
 44
0.0
173
     0
291
     1
 45
0.0
  0
VISUALSTYLE
  5
38
102
{ACAD_REACTORS
330
2A
102
}
330
2A
100
AcDbVisualStyle
  2
Linepattern
 70
    14
 71
     2
 72
     2
 73
     0
 90
        0
 40
-0.6
 41
-30.0
 62
     5
 63
     7
421
 16777215
 74
     1
 91
        4
 64
     7
 65
   257
 75
     7
175
     7
 42
1.0
 92
        8
 66
     7
 43
1.0
 76
     1
 77
     6
 78
     2
 67
     7
 79
     5
170
     0
171
     0
290
     0
174
     0
 93
        1
 44
0.0
173
     0
291
     1
 45
0.0
  0
VISUALSTYLE
  5
33
102
{ACAD_REACTORS
330
2A
102
}
330
2A
100
AcDbVisualStyle
  2
Realistic
 70
     8
 71
     2
 72
     2
 73
     0
 90
        0
 40
-0.6
 41
-30.0
 62
     5
 63
     7
421
 16777215
 74
     1
 91
        0
 64
     7
 65
   257
 75
     1
175
     1
 42
1.0
 92
        8
 66
     8
424
  7895160
 43
1.0
 76
     1
 77
     6
 78
     2
 67
     7
 79
     5
170
     0
171
     0
290
     0
174
     0
 93
       13
 44
0.0
173
     0
291
     0
 45
0.0
  0
VISUALSTYLE
  5
37
102
{ACAD_REACTORS
330
2A
102
}
330
2A
100
AcDbVisualStyle
  2
Thicken
 70
    13
 71
     2
 72
     2
 73
     0
 90
        0
 40
-0.6
 41
-30.0
 62
     5
 63
     7
421
 16777215
 74
     1
 91
        4
 64
     7
 65
   257
 75
     1
175
     1
 42
1.0
 92
       12
 66
     7
 43
1.0
 76
     1
 77
     6
 78
     2
 67
     7
 79
     5
170
     0
171
     0
290
     0
174
     0
 93
        1
 44
0.0
173
     0
291
     1
 45
0.0
  0
ENDSEC
  0
EOF
