  0
SECTION
  2
HEADER
  9
$ACADVER
  1
AC1021
  9
$ACADMAINTVER
 70
    25
  9
$DWGCODEPAGE
  3
ANSI_932
  9
$INSBASE
 10
0.0
 20
0.0
 30
0.0
  9
$EXTMIN
 10
-27.83333333333332
 20
-439.7469696969698
 30
0.0
  9
$EXTMAX
 10
420.3333333333333
 20
10.0
 30
10.0
  9
$LIMMIN
 10
0.0
 20
0.0
  9
$LIMMAX
 10
12.0
 20
9.0
  9
$ORTHOMODE
 70
     0
  9
$REGENMODE
 70
     1
  9
$FILLMODE
 70
     1
  9
$QTEXTMODE
 70
     0
  9
$MIRRTEXT
 70
     1
  9
$LTSCALE
 40
1.0
  9
$ATTMODE
 70
     1
  9
$TEXTSIZE
 40
0.2
  9
$TRACEWID
 40
0.05
  9
$TEXTSTYLE
  7
Standard
  9
$CLAYER
  8
0
  9
$CELTYPE
  6
ByLayer
  9
$CECOLOR
 62
   256
  9
$CELTSCALE
 40
1.0
  9
$DISPSILH
 70
     0
  9
$DIMSCALE
 40
1.0
  9
$DIMASZ
 40
3.0
  9
$DIMEXO
 40
0.0625
  9
$DIMDLI
 40
0.38
  9
$DIMRND
 40
0.0
  9
$DIMDLE
 40
0.0
  9
$DIMEXE
 40
0.18
  9
$DIMTP
 40
0.0
  9
$DIMTM
 40
0.0
  9
$DIMTXT
 40
3.0
  9
$DIMCEN
 40
0.09
  9
$DIMTSZ
 40
0.0
  9
$DIMTOL
 70
     0
  9
$DIMLIM
 70
     0
  9
$DIMTIH
 70
     1
  9
$DIMTOH
 70
     1
  9
$DIMSE1
 70
     0
  9
$DIMSE2
 70
     0
  9
$DIMTAD
 70
     1
  9
$DIMZIN
 70
     0
  9
$DIMBLK
  1

  9
$DIMASO
 70
     1
  9
$DIMSHO
 70
     1
  9
$DIMPOST
  1

  9
$DIMAPOST
  1

  9
$DIMALT
 70
     0
  9
$DIMALTD
 70
     2
  9
$DIMALTF
 40
25.4
  9
$DIMLFAC
 40
1.0
  9
$DIMTOFL
 70
     0
  9
$DIMTVP
 40
0.0
  9
$DIMTIX
 70
     0
  9
$DIMSOXD
 70
     0
  9
$DIMSAH
 70
     0
  9
$DIMBLK1
  1

  9
$DIMBLK2
  1

  9
$DIMSTYLE
  2
Standard
  9
$DIMCLRD
 70
     0
  9
$DIMCLRE
 70
     0
  9
$DIMCLRT
 70
     0
  9
$DIMTFAC
 40
1.0
  9
$DIMGAP
 40
0.09
  9
$DIMJUST
 70
     0
  9
$DIMSD1
 70
     0
  9
$DIMSD2
 70
     0
  9
$DIMTOLJ
 70
     1
  9
$DIMTZIN
 70
     0
  9
$DIMALTZ
 70
     0
  9
$DIMALTTZ
 70
     0
  9
$DIMUPT
 70
     0
  9
$DIMDEC
 70
     2
  9
$DIMTDEC
 70
     4
  9
$DIMALTU
 70
     2
  9
$DIMALTTD
 70
     2
  9
$DIMTXSTY
  7
Standard
  9
$DIMAUNIT
 70
     0
  9
$DIMADEC
 70
     2
  9
$DIMALTRND
 40
0.0
  9
$DIMAZIN
 70
     0
  9
$DIMDSEP
 70
    46
  9
$DIMATFIT
 70
     3
  9
$DIMFRAC
 70
     0
  9
$DIMLDRBLK
  1

  9
$DIMLUNIT
 70
     2
  9
$DIMLWD
 70
    -2
  9
$DIMLWE
 70
    -2
  9
$DIMTMOVE
 70
     0
  9
$DIMFXL
 40
1.0
  9
$DIMFXLON
 70
     0
  9
$DIMJOGANG
 40
0.7853981633974483
  9
$DIMTFILL
 70
     0
  9
$DIMTFILLCLR
 70
     0
  9
$DIMARCSYM
 70
     0
  9
$DIMLTYPE
  6

  9
$DIMLTEX1
  6

  9
$DIMLTEX2
  6

  9
$LUNITS
 70
     2
  9
$LUPREC
 70
     4
  9
$SKETCHINC
 40
0.1
  9
$FILLETRAD
 40
0.5
  9
$AUNITS
 70
     0
  9
$AUPREC
 70
     0
  9
$MENU
  1
.
  9
$ELEVATION
 40
0.0
  9
$PELEVATION
 40
0.0
  9
$THICKNESS
 40
0.0
  9
$LIMCHECK
 70
     0
  9
$CHAMFERA
 40
0.5
  9
$CHAMFERB
 40
0.5
  9
$CHAMFERC
 40
1.0
  9
$CHAMFERD
 40
0.0
  9
$SKPOLY
 70
     0
  9
$TDCREATE
 40
2459545.447909109
  9
$TDUCREATE
 40
2459545.072909109
  9
$TDUPDATE
 40
2459545.44790912
  9
$TDUUPDATE
 40
2459545.07290912
  9
$TDINDWG
 40
0.0000000116
  9
$TDUSRTIMER
 40
0.0000000116
  9
$USRTIMER
 70
     1
  9
$ANGBASE
 50
0.0
  9
$ANGDIR
 70
     0
  9
$PDMODE
 70
     0
  9
$PDSIZE
 40
0.0
  9
$PLINEWID
 40
0.0
  9
$SPLFRAME
 70
     0
  9
$SPLINETYPE
 70
     6
  9
$SPLINESEGS
 70
     8
  9
$HANDSEED
  5
117
  9
$SURFTAB1
 70
     6
  9
$SURFTAB2
 70
     6
  9
$SURFTYPE
 70
     6
  9
$SURFU
 70
     6
  9
$SURFV
 70
     6
  9
$UCSBASE
  2

  9
$UCSNAME
  2

  9
$UCSORG
 10
0.0
 20
0.0
 30
0.0
  9
$UCSXDIR
 10
1.0
 20
0.0
 30
0.0
  9
$UCSYDIR
 10
0.0
 20
1.0
 30
0.0
  9
$UCSORTHOREF
  2

  9
$UCSORTHOVIEW
 70
     0
  9
$UCSORGTOP
 10
0.0
 20
0.0
 30
0.0
  9
$UCSORGBOTTOM
 10
0.0
 20
0.0
 30
0.0
  9
$UCSORGLEFT
 10
0.0
 20
0.0
 30
0.0
  9
$UCSORGRIGHT
 10
0.0
 20
0.0
 30
0.0
  9
$UCSORGFRONT
 10
0.0
 20
0.0
 30
0.0
  9
$UCSORGBACK
 10
0.0
 20
0.0
 30
0.0
  9
$PUCSBASE
  2

  9
$PUCSNAME
  2

  9
$PUCSORG
 10
0.0
 20
0.0
 30
0.0
  9
$PUCSXDIR
 10
1.0
 20
0.0
 30
0.0
  9
$PUCSYDIR
 10
0.0
 20
1.0
 30
0.0
  9
$PUCSORTHOREF
  2

  9
$PUCSORTHOVIEW
 70
     0
  9
$PUCSORGTOP
 10
0.0
 20
0.0
 30
0.0
  9
$PUCSORGBOTTOM
 10
0.0
 20
0.0
 30
0.0
  9
$PUCSORGLEFT
 10
0.0
 20
0.0
 30
0.0
  9
$PUCSORGRIGHT
 10
0.0
 20
0.0
 30
0.0
  9
$PUCSORGFRONT
 10
0.0
 20
0.0
 30
0.0
  9
$PUCSORGBACK
 10
0.0
 20
0.0
 30
0.0
  9
$USERI1
 70
     0
  9
$USERI2
 70
     0
  9
$USERI3
 70
     0
  9
$USERI4
 70
     0
  9
$USERI5
 70
     0
  9
$USERR1
 40
0.0
  9
$USERR2
 40
0.0
  9
$USERR3
 40
0.0
  9
$USERR4
 40
0.0
  9
$USERR5
 40
0.0
  9
$WORLDVIEW
 70
     1
  9
$SHADEDGE
 70
     3
  9
$SHADEDIF
 70
    70
  9
$TILEMODE
 70
     1
  9
$MAXACTVP
 70
    64
  9
$PINSBASE
 10
0.0
 20
0.0
 30
0.0
  9
$PLIMCHECK
 70
     0
  9
$PEXTMIN
 10
1.000000000000000E+20
 20
1.000000000000000E+20
 30
1.000000000000000E+20
  9
$PEXTMAX
 10
-1.000000000000000E+20
 20
-1.000000000000000E+20
 30
-1.000000000000000E+20
  9
$PLIMMIN
 10
0.0
 20
0.0
  9
$PLIMMAX
 10
12.0
 20
9.0
  9
$UNITMODE
 70
     0
  9
$VISRETAIN
 70
     1
  9
$PLINEGEN
 70
     0
  9
$PSLTSCALE
 70
     1
  9
$TREEDEPTH
 70
  3020
  9
$CMLSTYLE
  2
Standard
  9
$CMLJUST
 70
     0
  9
$CMLSCALE
 40
1.0
  9
$PROXYGRAPHICS
 70
     1
  9
$MEASUREMENT
 70
     1
  9
$CELWEIGHT
370
    -1
  9
$ENDCAPS
280
     0
  9
$JOINSTYLE
280
     0
  9
$LWDISPLAY
290
     1
  9
$INSUNITS
 70
     4
  9
$HYPERLINKBASE
  1

  9
$STYLESHEET
  1

  9
$XEDIT
290
     1
  9
$CEPSNTYPE
380
     0
  9
$PSTYLEMODE
290
     1
  9
$FINGERPRINTGUID
  2
{E835FFED-C0ED-497C-8097-103633B66D9F}
  9
$VERSIONGUID
  2
{FAEB1C32-E019-11D5-929B-00C0DF256EC4}
  9
$EXTNAMES
290
     1
  9
$PSVPSCALE
 40
0.0
  9
$OLESTARTUP
290
     0
  9
$SORTENTS
280
   127
  9
$INDEXCTL
280
     0
  9
$HIDETEXT
280
     1
  9
$XCLIPFRAME
290
     0
  9
$HALOGAP
280
     0
  9
$OBSCOLOR
 70
   257
  9
$OBSLTYPE
280
     0
  9
$INTERSECTIONDISPLAY
280
     0
  9
$INTERSECTIONCOLOR
 70
   257
  9
$DIMASSOC
280
     2
  9
$PROJECTNAME
  1

  9
$CAMERADISPLAY
290
     0
  9
$LENSLENGTH
 40
50.0
  9
$CAMERAHEIGHT
 40
0.0
  9
$STEPSPERSEC
 40
2.0
  9
$STEPSIZE
 40
6.0
  9
$3DDWFPREC
 40
2.0
  9
$PSOLWIDTH
 40
0.25
  9
$PSOLHEIGHT
 40
4.0
  9
$LOFTANG1
 40
1.570796326794897
  9
$LOFTANG2
 40
1.570796326794897
  9
$LOFTMAG1
 40
0.0
  9
$LOFTMAG2
 40
0.0
  9
$LOFTPARAM
 70
     7
  9
$LOFTNORMALS
280
     1
  9
$LATITUDE
 40
37.795
  9
$LONGITUDE
 40
-122.394
  9
$NORTHDIRECTION
 40
0.0
  9
$TIMEZONE
 70
 -8000
  9
$LIGHTGLYPHDISPLAY
280
     1
  9
$TILEMODELIGHTSYNCH
280
     1
  9
$SOLIDHIST
280
     1
  9
$SHOWHIST
280
     1
  9
$DWFFRAME
280
     2
  9
$DGNFRAME
280
     2
  9
$REALWORLDSCALE
290
     1
  9
$INTERFERECOLOR
 62
   256
  9
$CSHADOW
280
     0
  9
$SHADOWPLANELOCATION
 40
0.0
  0
ENDSEC
  0
SECTION
  2
CLASSES
  0
CLASS
  1
ACDBDICTIONARYWDFLT
  2
AcDbDictionaryWithDefault
  3
ObjectDBX Classes
 90
        0
 91
        4
280
     0
281
     0
  0
CLASS
  1
VISUALSTYLE
  2
AcDbVisualStyle
  3
ObjectDBX Classes
 90
     4095
 91
        4
280
     0
281
     0
  0
ENDSEC
  0
SECTION
  2
TABLES
  0
TABLE
  2
VPORT
  5
8
330
0
100
AcDbSymbolTable
 70
     1
  0
VPORT
  5
29
330
8
100
AcDbSymbolTableRecord
100
AcDbViewportTableRecord
  2
*Active
 70
     0
 10
0.0
 20
0.0
 11
1.0
 21
1.0
 12
196.25
 22
-214.8734848484849
 13
0.0
 23
0.0
 14
0.5
 24
0.5
 15
0.5
 25
0.5
 16
0.0
 26
0.0
 36
1.0
 17
0.0
 27
0.0
 37
0.0
 40
449.7469696969698
 41
1.6
 42
50.0
 43
0.0
 44
0.0
 50
0.0
 51
0.0
 71
     0
 72
   100
 73
     1
 74
     3
 75
     0
 76
     0
 77
     0
 78
     0
281
     0
 65
     1
110
0.0
120
0.0
130
0.0
111
1.0
121
0.0
131
0.0
112
0.0
122
1.0
132
0.0
 79
     0
146
0.0
 60
     3
 61
     5
292
     1
282
     1
141
0.0
142
0.0
 63
   250
  0
ENDTAB
  0
TABLE
  2
LTYPE
  5
5
330
0
100
AcDbSymbolTable
 70
     3
  0
LTYPE
  5
14
330
5
100
AcDbSymbolTableRecord
100
AcDbLinetypeTableRecord
  2
ByBlock
 70
     0
  3

 72
    65
 73
     0
 40
0.0
  0
LTYPE
  5
15
330
5
100
AcDbSymbolTableRecord
100
AcDbLinetypeTableRecord
  2
ByLayer
 70
     0
  3

 72
    65
 73
     0
 40
0.0
  0
LTYPE
  5
16
330
5
100
AcDbSymbolTableRecord
100
AcDbLinetypeTableRecord
  2
Continuous
 70
     0
  3
Solid line
 72
    65
 73
     0
 40
0.0
  0
LTYPE
  5
3D
330
5
100
AcDbSymbolTableRecord
100
AcDbLinetypeTableRecord
  2
________________
 70
     0
  3

 72
    65
 73
     0
 40
0.0
  0
LTYPE
  5
111
330
5
100
AcDbSymbolTableRecord
100
AcDbLinetypeTableRecord
  2
______....__....
 70
     0
  3

 72
    65
 73
     4
 40
6.0
 49
2.25
 74
     0
 49
-1.5
 74
     0
 49
0.7499999999999999
 74
     0
 49
-1.5
 74
     0
  0
ENDTAB
  0
TABLE
  2
LAYER
  5
2
330
0
100
AcDbSymbolTable
 70
     2
  0
LAYER
  5
10
330
2
100
AcDbSymbolTableRecord
100
AcDbLayerTableRecord
  2
0
 70
     0
 62
     7
  6
Continuous
370
    -3
390
F
347
0
  0
LAYER
  5
3B
330
2
100
AcDbSymbolTableRecord
100
AcDbLayerTableRecord
  2
1
 70
     0
 62
     7
  6
Continuous
370
    -3
390
F
347
0
  0
ENDTAB
  0
TABLE
  2
STYLE
  5
3
330
0
100
AcDbSymbolTable
 70
     1
  0
STYLE
  5
11
330
3
100
AcDbSymbolTableRecord
100
AcDbTextStyleTableRecord
  2
Standard
 70
     0
 40
0.0
 41
1.0
 50
0.0
 71
     0
 42
0.2
  3
txt
  4

  0
ENDTAB
  0
TABLE
  2
VIEW
  5
6
330
0
100
AcDbSymbolTable
 70
     0
  0
ENDTAB
  0
TABLE
  2
UCS
  5
7
330
0
100
AcDbSymbolTable
 70
     0
  0
ENDTAB
  0
TABLE
  2
APPID
  5
9
330
0
100
AcDbSymbolTable
 70
     1
  0
APPID
  5
12
330
9
100
AcDbSymbolTableRecord
100
AcDbRegAppTableRecord
  2
ACAD
 70
     0
  0
ENDTAB
  0
TABLE
  2
DIMSTYLE
  5
A
330
0
100
AcDbSymbolTable
 70
     1
100
AcDbDimStyleTable
  0
DIMSTYLE
105
27
330
A
100
AcDbSymbolTableRecord
100
AcDbDimStyleTableRecord
  2
Standard
 70
     0
340
11
  0
ENDTAB
  0
TABLE
  2
BLOCK_RECORD
  5
1
330
0
100
AcDbSymbolTable
 70
     1
  0
BLOCK_RECORD
  5
1F
330
1
100
AcDbSymbolTableRecord
100
AcDbBlockTableRecord
  2
*Model_Space
340
22
 70
     0
280
     1
281
     0
  0
BLOCK_RECORD
  5
1B
330
1
100
AcDbSymbolTableRecord
100
AcDbBlockTableRecord
  2
*Paper_Space
340
1E
 70
     0
280
     1
281
     0
  0
BLOCK_RECORD
  5
23
330
1
100
AcDbSymbolTableRecord
100
AcDbBlockTableRecord
  2
*Paper_Space0
340
26
 70
     0
280
     1
281
     0
  0
ENDTAB
  0
ENDSEC
  0
SECTION
  2
BLOCKS
  0
BLOCK
  5
20
330
1F
100
AcDbEntity
  8
0
100
AcDbBlockBegin
  2
*Model_Space
 70
     0
 10
0.0
 20
0.0
 30
0.0
  3
*Model_Space
  1

  0
ENDBLK
  5
21
330
1F
100
AcDbEntity
  8
0
100
AcDbBlockEnd
  0
BLOCK
  5
1C
330
1B
100
AcDbEntity
 67
     1
  8
0
100
AcDbBlockBegin
  2
*Paper_Space
 70
     0
 10
0.0
 20
0.0
 30
0.0
  3
*Paper_Space
  1

  0
ENDBLK
  5
1D
330
1B
100
AcDbEntity
 67
     1
  8
0
100
AcDbBlockEnd
  0
BLOCK
  5
24
330
23
100
AcDbEntity
  8
0
100
AcDbBlockBegin
  2
*Paper_Space0
 70
     0
 10
0.0
 20
0.0
 30
0.0
  3
*Paper_Space0
  1

  0
ENDBLK
  5
25
330
23
100
AcDbEntity
  8
0
100
AcDbBlockEnd
  0
ENDSEC
  0
SECTION
  2
ENTITIES
  0
ARC
  5
3C
330
1F
100
AcDbEntity
  8
1
  6
________________
 62
     7
370
     0
100
AcDbCircle
 10
240.8040764133284
 20
-348.3333333333333
 30
0.0
 40
13.92249999999998
100
AcDbArc
 50
99.9288663620202
 51
180.0
  0
LINE
  5
3E
330
1F
100
AcDbEntity
  8
1
  6
________________
 62
     7
370
     0
100
AcDbLine
 10
226.8815764133284
 20
-348.3333333333333
 30
0.0
 11
225.2490244091936
 21
-348.3333333333333
 31
0.0
  0
ARC
  5
3F
330
1F
100
AcDbEntity
  8
1
  6
________________
 62
     7
370
     0
100
AcDbCircle
 10
-244.9540886575815
 20
-347.5627294392152
 30
0.0
 40
19.72012645483601
210
0.0
220
0.0
230
-1.0
100
AcDbArc
 50
357.7604811249566
 51
23.44902047034958
  0
LINE
  5
40
330
1F
100
AcDbEntity
  8
1
  6
________________
 62
     7
370
     0
100
AcDbLine
 10
226.862558655594
 20
-339.7154413992672
 30
0.0
 11
226.8815764133279
 21
-339.6074029686457
 31
0.0
  0
ARC
  5
41
330
1F
100
AcDbEntity
  8
1
  6
________________
 62
     7
370
     0
100
AcDbCircle
 10
240.8040764133284
 20
-348.3333333333333
 30
0.0
 40
13.92249999999998
100
AcDbArc
 50
180.0
 51
260.0711336379799
  0
LWPOLYLINE
  5
42
330
1F
100
AcDbEntity
  8
1
  6
________________
 62
     7
370
     0
100
AcDbPolyline
 90
        4
 70
     0
 43
0.0
 10
226.8815764133284
 20
-357.0592636980207
 10
226.8624576421516
 20
-356.9508436628516
 10
226.8298556403525
 20
-356.8423059523495
 10
226.7535143006572
 20
-356.6251333298828
  0
ARC
  5
43
330
1F
100
AcDbEntity
  8
1
  6
________________
 62
     7
370
     0
100
AcDbCircle
 10
-243.9079184492991
 20
-349.2301954190099
 30
0.0
 40
18.68043597993929
210
0.0
220
0.0
230
-1.0
100
AcDbArc
 50
336.6800433934376
 51
2.751872285621971
  0
LINE
  5
44
330
1F
100
AcDbEntity
  8
1
  6
________________
 62
     7
370
     0
100
AcDbLine
 10
214.8815764133284
 20
-348.3333333333333
 30
0.0
 11
214.8815764133284
 21
-335.942794112472
 31
0.0
  0
LINE
  5
45
330
1F
100
AcDbEntity
  8
1
  6
________________
 62
     7
370
     0
100
AcDbLine
 10
226.527294109763
 20
-335.739517353945
 30
0.0
 11
214.8815764133284
 21
-335.9427941124719
 31
0.0
  0
LINE
  5
46
330
1F
100
AcDbEntity
  8
1
  6
________________
 62
     7
370
     0
100
AcDbLine
 10
226.8815764133278
 20
-335.7158222885754
 30
0.0
 11
226.527294109763
 21
-335.739517353945
 31
0.0
  0
LINE
  5
47
330
1F
100
AcDbEntity
  8
1
  6
________________
 62
     7
370
     0
100
AcDbLine
 10
226.8815764133284
 20
-339.6074029686458
 30
0.0
 11
226.8815764133284
 21
-335.7158222885754
 31
0.0
  0
LINE
  5
48
330
1F
100
AcDbEntity
  8
1
  6
________________
 62
     7
370
     0
100
AcDbLine
 10
225.2490244091936
 20
-348.3333333333333
 30
0.0
 11
214.8815764133283
 21
-348.3333333333333
 31
0.0
  0
LINE
  5
49
330
1F
100
AcDbEntity
  8
1
  6
________________
 62
     7
370
     0
100
AcDbLine
 10
226.527294109763
 20
-360.9271493127217
 30
0.0
 11
226.8815764133273
 21
-360.9508443780912
 31
0.0
  0
LINE
  5
4A
330
1F
100
AcDbEntity
  8
1
  6
________________
 62
     7
370
     0
100
AcDbLine
 10
226.527294109763
 20
-360.9271493127217
 30
0.0
 11
214.8815764133284
 21
-360.7238725541947
 31
0.0
  0
LINE
  5
4B
330
1F
100
AcDbEntity
  8
1
  6
________________
 62
     7
370
     0
100
AcDbLine
 10
214.8815764133284
 20
-360.7238725541947
 30
0.0
 11
214.8815764133284
 21
-348.3333333333333
 31
0.0
  0
LINE
  5
4C
330
1F
100
AcDbEntity
  8
1
  6
________________
 62
     7
370
     0
100
AcDbLine
 10
226.8815764133284
 20
-360.9508443780912
 30
0.0
 11
226.8815764133284
 21
-357.0592636980208
 31
0.0
  0
ARC
  5
4D
330
1F
100
AcDbEntity
  8
1
  6
________________
 62
     7
370
     0
100
AcDbCircle
 10
-226.1980217976764
 20
-365.5598942453556
 30
0.0
 40
4.659462156891863
210
0.0
220
0.0
230
-1.0
100
AcDbArc
 50
98.43587801355484
 51
129.6754552397569
  0
ARC
  5
4E
330
1F
100
AcDbEntity
  8
1
  6
________________
 62
     7
370
     0
100
AcDbCircle
 10
-226.1980206889389
 20
-331.106769937543
 30
0.0
 40
4.659464776441746
210
0.0
220
0.0
230
-1.0
100
AcDbArc
 50
230.3245537658967
 51
261.5641129807846
  0
ARC
  5
4F
330
1F
100
AcDbEntity
  8
1
  6
________________
 62
     7
370
     0
100
AcDbCircle
 10
225.6737223103985
 20
-362.9125548176307
 30
0.0
 40
2.000000000000002
100
AcDbArc
 50
28.21129889989119
 51
88.99999999999994
  0
ARC
  5
50
330
1F
100
AcDbEntity
  8
1
  6
________________
 62
     7
370
     0
100
AcDbCircle
 10
225.6737223103985
 20
-333.754111849036
 30
0.0
 40
2.000000000000002
100
AcDbArc
 50
270.9999999999999
 51
331.7887011001086
  0
LINE
  5
51
330
1F
100
AcDbEntity
  8
1
  6
________________
 62
     7
370
     0
100
AcDbLine
 10
229.5894719300602
 20
-365.9811466294339
 30
0.0
 11
227.436142803395
 21
-361.9671057148938
 31
0.0
  0
LINE
  5
52
330
1F
100
AcDbEntity
  8
1
  6
________________
 62
     7
370
     0
100
AcDbLine
 10
227.436142803395
 20
-334.6995609517728
 30
0.0
 11
229.5894719300602
 21
-330.6855200372327
 31
0.0
  0
LINE
  5
53
330
1F
100
AcDbEntity
  8
1
  6
________________
 62
     7
370
     0
100
AcDbLine
 10
244.2210147111329
 20
-333.6010143019863
 30
0.0
 11
238.4034839296491
 21
-334.6193564492453
 31
0.0
  0
LINE
  5
54
330
1F
100
AcDbEntity
  8
1
  6
________________
 62
     7
370
     0
100
AcDbLine
 10
238.4034839296491
 20
-362.0473102174214
 30
0.0
 11
244.2210147111329
 21
-363.0656523646805
 31
0.0
  0
LINE
  5
55
330
1F
100
AcDbEntity
  8
1
  6
________________
 62
     7
370
     0
100
AcDbLine
 10
244.2210147111329
 20
-333.6010143019863
 30
0.0
 11
246.6058303071543
 21
-333.1835591434164
 31
0.0
  0
LINE
  5
56
330
1F
100
AcDbEntity
  8
1
  6
________________
 62
     7
370
     0
100
AcDbLine
 10
246.6058303071543
 20
-363.4831075232503
 30
0.0
 11
244.2210147111328
 21
-363.0656523646805
 31
0.0
  0
ARC
  5
57
330
1F
100
AcDbEntity
  8
1
  6
________________
 62
     7
370
     0
100
AcDbCircle
 10
-244.8815764133284
 20
-323.3333333333334
 30
0.0
 40
9.99999999999998
210
0.0
220
0.0
230
-1.0
100
AcDbArc
 50
212.3677211014583
 51
260.0711336379799
  0
ARC
  5
58
330
1F
100
AcDbEntity
  8
1
  6
________________
 62
     7
370
     0
100
AcDbCircle
 10
-244.8815764133284
 20
-373.3333333333333
 30
0.0
 40
10.00000000000001
210
0.0
220
0.0
230
-1.0
100
AcDbArc
 50
99.92886636202023
 51
147.6322788985417
  0
LINE
  5
59
330
1F
100
AcDbEntity
  8
1
  6
________________
 62
     7
370
     0
100
AcDbLine
 10
231.7432230197288
 20
-326.6706925375212
 30
0.0
 11
229.5894719300602
 21
-330.6855200372327
 31
0.0
  0
LINE
  5
5A
330
1F
100
AcDbEntity
  8
1
  6
________________
 62
     7
370
     0
100
AcDbLine
 10
229.5894719300602
 20
-365.9811466294339
 30
0.0
 11
231.7432230197288
 21
-369.9959741291454
 31
0.0
  0
ARC
  5
5B
330
1F
100
AcDbEntity
  8
1
  6
________________
 62
     7
370
     0
100
AcDbCircle
 10
-244.8815764133284
 20
-323.3333333333334
 30
0.0
 40
10.00000000000001
210
0.0
220
0.0
230
-1.0
100
AcDbArc
 50
180.0
 51
212.3677211014583
  0
ARC
  5
5C
330
1F
100
AcDbEntity
  8
1
  6
________________
 62
     7
370
     0
100
AcDbCircle
 10
-244.8815764133284
 20
-373.3333333333333
 30
0.0
 40
9.999999999999954
210
0.0
220
0.0
230
-1.0
100
AcDbArc
 50
147.6322788985416
 51
180.0
  0
ARC
  5
5D
330
1F
100
AcDbEntity
  8
1
  6
________________
 62
     7
370
     0
100
AcDbCircle
 10
-244.8815764133284
 20
-323.3333333333334
 30
0.0
 40
10.00000000000001
210
0.0
220
0.0
230
-1.0
100
AcDbArc
 50
28.21129889989126
 51
89.99999999999996
  0
ARC
  5
5E
330
1F
100
AcDbEntity
  8
1
  6
________________
 62
     7
370
     0
100
AcDbCircle
 10
-244.8815764133284
 20
-373.3333333333333
 30
0.0
 40
10.00000000000004
210
0.0
220
0.0
230
-1.0
100
AcDbArc
 50
270.0000000000001
 51
331.7887011001086
  0
ARC
  5
5F
330
1F
100
AcDbEntity
  8
1
  6
________________
 62
     7
370
     0
100
AcDbCircle
 10
-250.8815728294232
 20
-317.3333369172385
 30
0.0
 40
4.00000358390673
210
0.0
220
0.0
230
-1.0
100
AcDbArc
 50
90.00005133561376
 51
179.9999486643862
  0
ARC
  5
60
330
1F
100
AcDbEntity
  8
1
  6
________________
 62
     7
370
     0
100
AcDbCircle
 10
-250.8815764133284
 20
-379.3333333333333
 30
0.0
 40
3.999999999999976
210
0.0
220
0.0
230
-1.0
100
AcDbArc
 50
180.0
 51
269.9999999999999
  0
LINE
  5
61
330
1F
100
AcDbEntity
  8
1
  6
________________
 62
     7
370
     0
100
AcDbLine
 10
236.0694739483458
 20
-318.606087819649
 30
0.0
 11
231.7432230197288
 21
-326.6706925375213
 31
0.0
  0
LINE
  5
62
330
1F
100
AcDbEntity
  8
1
  6
________________
 62
     7
370
     0
100
AcDbLine
 10
231.7432230197288
 20
-369.9959741291454
 30
0.0
 11
236.0694739483458
 21
-378.0605788470177
 31
0.0
  0
LINE
  5
63
330
1F
100
AcDbEntity
  8
1
  6
________________
 62
     7
370
     0
100
AcDbLine
 10
244.8815764133284
 20
-313.3333333333334
 30
0.0
 11
250.8815764133284
 21
-313.3333333333334
 31
0.0
  0
LINE
  5
64
330
1F
100
AcDbEntity
  8
1
  6
________________
 62
     7
370
     0
100
AcDbLine
 10
250.8815764133284
 20
-383.3333333333333
 30
0.0
 11
244.8815764133284
 21
-383.3333333333333
 31
0.0
  0
LINE
  5
65
330
1F
100
AcDbEntity
  8
1
  6
________________
 62
     7
370
     0
100
AcDbLine
 10
254.8815764133284
 20
-323.3333333333333
 30
0.0
 11
254.8815764133284
 21
-317.3333333333334
 31
0.0
  0
LINE
  5
66
330
1F
100
AcDbEntity
  8
1
  6
________________
 62
     7
370
     0
100
AcDbLine
 10
254.8815764133284
 20
-379.3333333333333
 30
0.0
 11
254.8815764133284
 21
-373.3333333333333
 31
0.0
  0
LINE
  5
67
330
1F
100
AcDbEntity
  8
1
  6
________________
 62
     7
370
     0
100
AcDbLine
 10
205.8784235866716
 20
-408.3333333333333
 30
0.0
 11
205.8784235866716
 21
-288.3333333333333
 31
0.0
  0
LINE
  5
68
330
1F
100
AcDbEntity
  8
1
  6
________________
 62
     7
370
     0
100
AcDbLine
 10
212.8784235866716
 20
-290.4209133140622
 30
0.0
 11
212.8784235866716
 21
-406.2457533526044
 31
0.0
  0
LINE
  5
69
330
1F
100
AcDbEntity
  8
1
  6
________________
 62
     7
370
     0
100
AcDbLine
 10
214.8784235866716
 20
-338.3333333333333
 30
0.0
 11
214.8784235866716
 21
-358.3333333333333
 31
0.0
  0
LINE
  5
6A
330
1F
100
AcDbEntity
  8
1
  6
________________
 62
     7
370
     0
100
AcDbLine
 10
227.16
 20
-351.1037457714473
 30
0.0
 11
227.16
 21
-345.5629208952193
 31
0.0
  0
LINE
  5
6B
330
1F
100
AcDbEntity
  8
1
  6
________________
 62
     7
370
     0
100
AcDbLine
 10
145.8784235866716
 20
-397.3333333333333
 30
0.0
 11
145.8784235866716
 21
-299.3333333333333
 31
0.0
  0
LINE
  5
6C
330
1F
100
AcDbEntity
  8
1
  6
________________
 62
     7
370
     0
100
AcDbLine
 10
139.8784235866716
 20
-394.2805111544169
 30
0.0
 11
139.8784235866716
 21
-302.3861555122497
 31
0.0
  0
LINE
  5
6D
330
1F
100
AcDbEntity
  8
1
  6
________________
 62
     7
370
     0
100
AcDbLine
 10
139.8784235866716
 20
-311.3333333333333
 30
0.0
 11
134.7911615544852
 21
-311.2445348442546
 31
0.0
  0
LINE
  5
6E
330
1F
100
AcDbEntity
  8
1
  6
________________
 62
     7
370
     0
100
AcDbLine
 10
139.8784235866716
 20
-307.3333333333333
 30
0.0
 11
134.7911615544852
 21
-307.4221318224119
 31
0.0
  0
LINE
  5
6F
330
1F
100
AcDbEntity
  8
1
  6
________________
 62
     7
370
     0
100
AcDbLine
 10
129.8784235866716
 20
-311.1587826840511
 30
0.0
 11
129.8784235866716
 21
-307.5078839826155
 31
0.0
  0
LINE
  5
70
330
1F
100
AcDbEntity
  8
1
  6
________________
 62
     7
370
     0
100
AcDbLine
 10
129.8784235866716
 20
-307.5078839826155
 30
0.0
 11
134.7911615544852
 21
-307.4221318224119
 31
0.0
  0
LINE
  5
71
330
1F
100
AcDbEntity
  8
1
  6
________________
 62
     7
370
     0
100
AcDbLine
 10
134.7911615544852
 20
-311.2445348442546
 30
0.0
 11
129.8784235866716
 21
-311.1587826840511
 31
0.0
  0
LINE
  5
72
330
1F
100
AcDbEntity
  8
1
  6
________________
 62
     7
370
     0
100
AcDbLine
 10
205.8784235866716
 20
-408.3333333333333
 30
0.0
 11
210.9133283995462
 21
-408.2454487429172
 31
0.0
  0
LINE
  5
73
330
1F
100
AcDbEntity
  8
1
  6
________________
 62
     7
370
     0
100
AcDbLine
 10
210.9133283995462
 20
-288.4212179237495
 30
0.0
 11
205.8784235866716
 21
-288.3333333333333
 31
0.0
  0
ARC
  5
74
330
1F
100
AcDbEntity
  8
1
  6
________________
 62
     7
370
     0
100
AcDbCircle
 10
210.8784235866716
 20
-406.2457533526044
 30
0.0
 40
2.000000000000002
100
AcDbArc
 50
271.0
 51
0.0
  0
ARC
  5
75
330
1F
100
AcDbEntity
  8
1
  6
________________
 62
     7
370
     0
100
AcDbCircle
 10
210.8784235866716
 20
-290.4209133140622
 30
0.0
 40
1.999999999999998
100
AcDbArc
 50
0.0
 51
89.00000000000001
  0
LINE
  5
76
330
1F
100
AcDbEntity
  8
1
  6
________________
 62
     7
370
     0
100
AcDbLine
 10
212.8784235866716
 20
-358.3333333333333
 30
0.0
 11
214.8784235866716
 21
-358.3333333333333
 31
0.0
  0
LINE
  5
77
330
1F
100
AcDbEntity
  8
1
  6
________________
 62
     7
370
     0
100
AcDbLine
 10
214.8784235866716
 20
-338.3333333333333
 30
0.0
 11
212.8784235866716
 21
-338.3333333333333
 31
0.0
  0
LINE
  5
78
330
1F
100
AcDbEntity
  8
1
  6
________________
 62
     7
370
     0
100
AcDbLine
 10
205.8784235866716
 20
-299.3333333333333
 30
0.0
 11
145.8784235866716
 21
-299.3333333333333
 31
0.0
  0
LINE
  5
79
330
1F
100
AcDbEntity
  8
1
  6
________________
 62
     7
370
     0
100
AcDbLine
 10
145.8784235866716
 20
-397.3333333333333
 30
0.0
 11
205.8784235866716
 21
-397.3333333333333
 31
0.0
  0
LINE
  5
7A
330
1F
100
AcDbEntity
  8
1
  6
________________
 62
     7
370
     0
100
AcDbLine
 10
145.8784235866716
 20
-299.3333333333333
 30
0.0
 11
142.8260663673597
 21
-299.3866124267806
 31
0.0
  0
LINE
  5
7B
330
1F
100
AcDbEntity
  8
1
  6
________________
 62
     7
370
     0
100
AcDbLine
 10
142.8260663673597
 20
-397.2800542398861
 30
0.0
 11
145.8784235866716
 21
-397.3333333333333
 31
0.0
  0
ARC
  5
7C
330
1F
100
AcDbEntity
  8
1
  6
________________
 62
     7
370
     0
100
AcDbCircle
 10
142.8784235866716
 20
-394.2805111544169
 30
0.0
 40
3.000000000000003
100
AcDbArc
 50
180.0
 51
268.9999999999998
  0
ARC
  5
7D
330
1F
100
AcDbEntity
  8
1
  6
________________
 62
     7
370
     0
100
AcDbCircle
 10
142.8784235866716
 20
-302.3861555122497
 30
0.0
 40
3.000000000000007
100
AcDbArc
 50
90.99999999999996
 51
179.9999999999999
  0
CIRCLE
  5
7E
330
1F
100
AcDbEntity
  8
1
  6
________________
 62
     9
420
 12632256
370
     0
100
AcDbCircle
 10
358.3333333333333
 20
-348.3333333333333
 30
0.0
 40
5.000000000000004
  0
ARC
  5
7F
330
1F
100
AcDbEntity
  8
1
  6
________________
 62
     7
370
     0
100
AcDbCircle
 10
319.3130369558482
 20
-375.4022444200878
 30
0.0
 40
36.39496704345518
100
AcDbArc
 50
0.0000000000000035
 51
3.088876559677443
  0
ARC
  5
80
330
1F
100
AcDbEntity
  8
1
  6
________________
 62
     7
370
     0
100
AcDbCircle
 10
319.3130369558482
 20
-375.4022444200878
 30
0.0
 40
36.39496704345515
100
AcDbArc
 50
354.1234436683665
 51
0.0
  0
LINE
  5
81
330
1F
100
AcDbEntity
  8
1
  6
________________
 62
     7
370
     0
100
AcDbLine
 10
361.1499257387433
 20
-379.1285622804609
 30
0.0
 11
361.3955263739475
 21
-381.0243819592362
 31
0.0
  0
ARC
  5
82
330
1F
100
AcDbEntity
  8
1
  6
________________
 62
     7
370
     0
100
AcDbCircle
 10
359.4195331936851
 20
-381.3333333333333
 30
0.0
 40
2.000000000000002
100
AcDbArc
 50
269.9999999999998
 51
8.886389096351479
  0
ARC
  5
83
330
1F
100
AcDbEntity
  8
1
  6
________________
 62
     7
370
     0
100
AcDbCircle
 10
319.3130369558581
 20
-375.4022444200871
 30
0.0
 40
36.39496704344523
100
AcDbArc
 50
3.088876559677322
 51
9.522275464605071
  0
ARC
  5
84
330
1F
100
AcDbEntity
  8
1
  6
________________
 62
     7
370
     0
100
AcDbCircle
 10
397.3536297108184
 20
-375.4022444200878
 30
0.0
 40
36.39496704345518
100
AcDbArc
 50
176.9111234403226
 51
185.8765563316336
  0
LINE
  5
85
330
1F
100
AcDbEntity
  8
1
  6
________________
 62
     7
370
     0
100
AcDbLine
 10
355.5167409279234
 20
-317.5381043862058
 30
0.0
 11
355.2711402927191
 21
-315.6422847074305
 31
0.0
  0
ARC
  5
86
330
1F
100
AcDbEntity
  8
1
  6
________________
 62
     7
370
     0
100
AcDbCircle
 10
357.2471334729815
 20
-315.3333333333334
 30
0.0
 40
2.000000000000002
100
AcDbArc
 50
90.0000000000003
 51
188.8863890963515
  0
LINE
  5
87
330
1F
100
AcDbEntity
  8
1
  6
________________
 62
     7
370
     0
100
AcDbLine
 10
355.2711402927191
 20
-381.0243819592362
 30
0.0
 11
355.5167409279234
 21
-379.1285622804609
 31
0.0
  0
ARC
  5
88
330
1F
100
AcDbEntity
  8
1
  6
________________
 62
     7
370
     0
100
AcDbCircle
 10
357.2471334729815
 20
-381.3333333333333
 30
0.0
 40
2.000000000000024
100
AcDbArc
 50
171.1136109036497
 51
269.9999999999998
  0
ARC
  5
89
330
1F
100
AcDbEntity
  8
1
  6
________________
 62
     7
370
     0
100
AcDbCircle
 10
319.3130369558482
 20
-321.2644222465789
 30
0.0
 40
36.39496704345518
100
AcDbArc
 50
0.0000000000000035
 51
5.876556331633492
  0
ARC
  5
8A
330
1F
100
AcDbEntity
  8
1
  6
________________
 62
     7
370
     0
100
AcDbCircle
 10
319.3130369558482
 20
-321.2644222465789
 30
0.0
 40
36.39496704345518
100
AcDbArc
 50
356.9111234403226
 51
0.0
  0
LINE
  5
8B
330
1F
100
AcDbEntity
  8
1
  6
________________
 62
     7
370
     0
100
AcDbLine
 10
359.4195331936851
 20
-383.3333333333333
 30
0.0
 11
357.2471334729815
 21
-383.3333333333333
 31
0.0
  0
LINE
  5
8C
330
1F
100
AcDbEntity
  8
1
  6
________________
 62
     7
370
     0
100
AcDbLine
 10
361.3955263739475
 20
-315.6422847074305
 30
0.0
 11
361.1499257387432
 21
-317.5381043862058
 31
0.0
  0
ARC
  5
8D
330
1F
100
AcDbEntity
  8
1
  6
________________
 62
     7
370
     0
100
AcDbCircle
 10
359.4195331936851
 20
-315.3333333333333
 30
0.0
 40
1.999999999999986
100
AcDbArc
 50
351.1136109036468
 51
90.00000000000021
  0
LINE
  5
8E
330
1F
100
AcDbEntity
  8
1
  6
________________
 62
     7
370
     0
100
AcDbLine
 10
359.4195331936851
 20
-313.3333333333334
 30
0.0
 11
357.2471334729815
 21
-313.3333333333334
 31
0.0
  0
ARC
  5
8F
330
1F
100
AcDbEntity
  8
1
  6
________________
 62
     7
370
     0
100
AcDbCircle
 10
397.3536297108184
 20
-321.2644222465789
 30
0.0
 40
36.39496704345515
100
AcDbArc
 50
174.1234436683665
 51
183.0888765596775
  0
ARC
  5
90
330
1F
100
AcDbEntity
  8
1
  6
________________
 62
     7
370
     0
100
AcDbCircle
 10
397.3536297108334
 20
-375.4022444200893
 30
0.0
 40
36.39496704347023
100
AcDbArc
 50
170.4777245353981
 51
176.9111234403213
  0
ARC
  5
91
330
1F
100
AcDbEntity
  8
1
  6
________________
 62
     7
370
     0
100
AcDbCircle
 10
319.3130369558787
 20
-321.2644222465823
 30
0.0
 40
36.39496704342451
100
AcDbArc
 50
350.4777245353941
 51
356.9111234403254
  0
ARC
  5
92
330
1F
100
AcDbEntity
  8
1
  6
________________
 62
     7
370
     0
100
AcDbCircle
 10
397.3536297108334
 20
-321.2644222465773
 30
0.0
 40
36.39496704347023
100
AcDbArc
 50
183.0888765596787
 51
189.5222754646019
  0
ARC
  5
93
330
1F
100
AcDbEntity
  8
1
  6
________________
 62
     7
370
     0
100
AcDbCircle
 10
371.3223494224242
 20
-371.0356975266969
 30
0.0
 40
9.999999999999275
100
AcDbArc
 50
152.2760522749315
 51
170.4777245353968
  0
ARC
  5
94
330
1F
100
AcDbEntity
  8
1
  6
________________
 62
     7
370
     0
100
AcDbCircle
 10
345.3443172442418
 20
-325.6309691399697
 30
0.0
 40
9.99999999999989
100
AcDbArc
 50
332.276052274933
 51
350.477724535397
  0
ARC
  5
95
330
1F
100
AcDbEntity
  8
1
  6
________________
 62
     7
370
     0
100
AcDbCircle
 10
371.322349422423
 20
-325.6309691399701
 30
0.0
 40
9.999999999998005
100
AcDbArc
 50
189.5222754646022
 51
207.7239477250697
  0
ARC
  5
96
330
1F
100
AcDbEntity
  8
1
  6
________________
 62
     7
370
     0
100
AcDbCircle
 10
345.3443172442432
 20
-371.0356975266965
 30
0.0
 40
9.999999999998435
100
AcDbArc
 50
9.522275464601499
 51
27.7239477250682
  0
ARC
  5
97
330
1F
100
AcDbEntity
  8
1
  6
________________
 62
     7
370
     0
100
AcDbCircle
 10
371.3223494224249
 20
-325.6309691399696
 30
0.0
 40
10.00000000000001
100
AcDbArc
 50
207.7239477250675
 51
210.0000000000001
  0
ARC
  5
98
330
1F
100
AcDbEntity
  8
1
  6
________________
 62
     7
370
     0
100
AcDbCircle
 10
345.3443172442417
 20
-325.6309691399696
 30
0.0
 40
10.00000000000001
100
AcDbArc
 50
330.0000000000002
 51
332.2760522749326
  0
ARC
  5
99
330
1F
100
AcDbEntity
  8
1
  6
________________
 62
     7
370
     0
100
AcDbCircle
 10
345.3443172442417
 20
-371.035697526697
 30
0.0
 40
10.00000000000001
100
AcDbArc
 50
27.72394772506732
 51
29.99999999999991
  0
ARC
  5
9A
330
1F
100
AcDbEntity
  8
1
  6
________________
 62
     7
370
     0
100
AcDbCircle
 10
371.3223494224249
 20
-371.035697526697
 30
0.0
 40
10.00000000000001
100
AcDbArc
 50
149.9999999999999
 51
152.2760522749325
  0
LINE
  5
9B
330
1F
100
AcDbEntity
  8
1
  6
________________
 62
     7
370
     0
100
AcDbLine
 10
363.2500354974277
 20
-365.017355379438
 30
0.0
 11
362.6620953845805
 21
-366.035697526697
 31
0.0
  0
LINE
  5
9C
330
1F
100
AcDbEntity
  8
1
  6
________________
 62
     7
370
     0
100
AcDbLine
 10
353.416631169239
 20
-331.6493112872286
 30
0.0
 11
354.0045712820861
 21
-330.6309691399696
 31
0.0
  0
LINE
  5
9D
330
1F
100
AcDbEntity
  8
1
  6
________________
 62
     7
370
     0
100
AcDbLine
 10
354.0045712820861
 20
-366.035697526697
 30
0.0
 11
353.416631169239
 21
-365.017355379438
 31
0.0
  0
LINE
  5
9E
330
1F
100
AcDbEntity
  8
1
  6
________________
 62
     7
370
     0
100
AcDbLine
 10
362.6620953845805
 20
-330.6309691399696
 30
0.0
 11
363.2500354974277
 21
-331.6493112872286
 31
0.0
  0
LINE
  5
9F
330
1F
100
AcDbEntity
  8
1
  6
________________
 62
     7
370
     0
100
AcDbLine
 10
370.5731590401534
 20
-348.3333333333333
 30
0.0
 11
372.8496554225388
 21
-348.3333333333333
 31
0.0
  0
LINE
  5
A0
330
1F
100
AcDbEntity
  8
1
  6
________________
 62
     7
370
     0
100
AcDbLine
 10
372.8496554225388
 20
-348.3333333333333
 30
0.0
 11
367.8446418719295
 21
-357.059263698021
 31
0.0
  0
LINE
  5
A1
330
1F
100
AcDbEntity
  8
1
  6
________________
 62
     7
370
     0
100
AcDbLine
 10
363.2500354974277
 20
-365.017355379438
 30
0.0
 11
367.8446418719296
 21
-357.0592636980208
 31
0.0
  0
LINE
  5
A2
330
1F
100
AcDbEntity
  8
1
  6
________________
 62
     7
370
     0
100
AcDbLine
 10
367.8446418719296
 20
-339.6074029686458
 30
0.0
 11
372.8496554225388
 21
-348.3333333333333
 31
0.0
  0
LINE
  5
A3
330
1F
100
AcDbEntity
  8
1
  6
________________
 62
     7
370
     0
100
AcDbLine
 10
367.8446418719296
 20
-339.6074029686458
 30
0.0
 11
363.2500354974277
 21
-331.6493112872286
 31
0.0
  0
LINE
  5
A4
330
1F
100
AcDbEntity
  8
1
  6
________________
 62
     7
370
     0
100
AcDbLine
 10
346.0935076265133
 20
-348.3333333333333
 30
0.0
 11
343.8170112441279
 21
-348.3333333333333
 31
0.0
  0
LINE
  5
A5
330
1F
100
AcDbEntity
  8
1
  6
________________
 62
     7
370
     0
100
AcDbLine
 10
348.822024794737
 20
-357.0592636980207
 30
0.0
 11
343.8170112441279
 21
-348.3333333333333
 31
0.0
  0
LINE
  5
A6
330
1F
100
AcDbEntity
  8
1
  6
________________
 62
     7
370
     0
100
AcDbLine
 10
348.822024794737
 20
-357.0592636980208
 30
0.0
 11
353.416631169239
 21
-365.017355379438
 31
0.0
  0
LINE
  5
A7
330
1F
100
AcDbEntity
  8
1
  6
________________
 62
     7
370
     0
100
AcDbLine
 10
343.8170112441279
 20
-348.3333333333333
 30
0.0
 11
348.8220247947371
 21
-339.6074029686457
 31
0.0
  0
LINE
  5
A8
330
1F
100
AcDbEntity
  8
1
  6
________________
 62
     7
370
     0
100
AcDbLine
 10
353.416631169239
 20
-331.6493112872286
 30
0.0
 11
348.822024794737
 21
-339.6074029686458
 31
0.0
  0
LWPOLYLINE
  5
A9
330
1F
100
AcDbEntity
  8
1
  6
________________
 62
     7
370
     0
100
AcDbPolyline
 90
       26
 70
     0
 43
0.0
 10
353.9149965511122
 20
-339.6807018464195
 10
353.8802262920028
 20
-339.6813190667893
 10
353.8454916583532
 20
-339.6831625961167
 10
353.8108961564781
 20
-339.686220236729
 10
353.7765432926924
 20
-339.6904797909531
 10
353.7413437308444
 20
-339.6961349809642
 10
353.7064706396039
 20
-339.7030402606031
 10
353.6720205603025
 20
-339.7111574785013
 10
353.6380900342727
 20
-339.7204484832898
 10
353.5947169477841
 20
-339.7342850692
 10
353.5522693358755
 20
-339.7500302353775
 10
353.5108731879171
 20
-339.7675673338771
 10
353.4706544932787
 20
-339.7867797167538
 10
353.4317392413307
 20
-339.8075507360625
 10
353.394253421443
 20
-339.8297637438583
 10
353.3587441622554
 20
-339.852974491777
 10
353.3245402460801
 20
-339.8774778056702
 10
353.2916924215958
 20
-339.9031733644807
 10
353.2602514374814
 20
-339.9299608471514
 10
353.2293619630365
 20
-339.9586069262922
 10
353.1999260758249
 20
-339.9883086470718
 10
353.1719694847998
 20
-340.0189760888243
 10
353.1455178989148
 20
-340.0505193308835
 10
353.1119361530116
 20
-340.0947433353105
 10
353.0810749210011
 20
-340.1404045254883
 10
353.0529667394784
 20
-340.1873178053443
  0
LWPOLYLINE
  5
AA
330
1F
100
AcDbEntity
  8
1
  6
________________
 62
     7
370
     0
100
AcDbPolyline
 90
        4
 70
     0
 43
0.0
 10
348.4029087032717
 20
-348.3333333333333
 10
350.0593696233436
 20
-345.4537492950196
 10
351.6320598253689
 20
-342.6986957652227
 10
353.052966739479
 20
-340.1873178053445
  0
LWPOLYLINE
  5
AB
330
1F
100
AcDbEntity
  8
1
  6
________________
 62
     7
370
     0
100
AcDbPolyline
 90
        4
 70
     0
 43
0.0
 10
-348.4029087032718
 20
-348.3333333333334
 10
-350.0593696233436
 20
-351.212917371647
 10
-351.6320598253689
 20
-353.9679709014439
 10
-353.052966739479
 20
-356.4793488613221
210
0.0
220
0.0
230
-1.0
  0
LWPOLYLINE
  5
AC
330
1F
100
AcDbEntity
  8
1
  6
________________
 62
     7
370
     0
100
AcDbPolyline
 90
       26
 70
     0
 43
0.0
 10
-353.9149965511122
 20
-356.9859648202471
 10
-353.8802262920028
 20
-356.9853475998773
 10
-353.8454916583532
 20
-356.9835040705499
 10
-353.8108961564781
 20
-356.9804464299377
 10
-353.7765432926924
 20
-356.9761868757135
 10
-353.7413437308444
 20
-356.9705316857024
 10
-353.7064706396039
 20
-356.9636264060635
 10
-353.6720205603025
 20
-356.9555091881654
 10
-353.6380900342727
 20
-356.9462181833768
 10
-353.5947169477841
 20
-356.9323815974666
 10
-353.5522693358755
 20
-356.9166364312892
 10
-353.5108731879171
 20
-356.8990993327895
 10
-353.4706544932787
 20
-356.8798869499128
 10
-353.4317392413307
 20
-356.8591159306041
 10
-353.394253421443
 20
-356.8369029228084
 10
-353.3587441622554
 20
-356.8136921748896
 10
-353.3245402460801
 20
-356.7891888609965
 10
-353.2916924215958
 20
-356.7634933021859
 10
-353.2602514374814
 20
-356.7367058195152
 10
-353.2293619630365
 20
-356.7080597403744
 10
-353.1999260758249
 20
-356.6783580195948
 10
-353.1719694847998
 20
-356.6476905778424
 10
-353.1455178989148
 20
-356.6161473357832
 10
-353.1119361530116
 20
-356.5719233313562
 10
-353.0810749210011
 20
-356.5262621411784
 10
-353.0529667394784
 20
-356.4793488613223
210
0.0
220
0.0
230
-1.0
  0
LINE
  5
AD
330
1F
100
AcDbEntity
  8
1
  6
________________
 62
     7
370
     0
100
AcDbLine
 10
353.9149965511122
 20
-356.9859648202471
 30
0.0
 11
362.7516701155545
 21
-356.9859648202471
 31
0.0
  0
LWPOLYLINE
  5
AE
330
1F
100
AcDbEntity
  8
1
  6
________________
 62
     7
370
     0
100
AcDbPolyline
 90
       26
 70
     0
 43
0.0
 10
-363.6136999271877
 20
-356.479348861322
 10
-363.584312144601
 20
-356.5282662322252
 10
-363.5519265531473
 20
-356.5758158857681
 10
-363.5165806046784
 20
-356.6217867448725
 10
-363.4873407101038
 20
-356.6560105768348
 10
-363.4563040091361
 20
-356.6891731314319
 10
-363.423506458526
 20
-356.7211551518433
 10
-363.3889840150238
 20
-356.7518373812482
 10
-363.3513383132673
 20
-356.7822083189942
 10
-363.3118187543676
 20
-356.8110114600059
 10
-363.2705099018833
 20
-356.8380863773729
 10
-363.2375004729291
 20
-356.857677286827
 10
-363.2034372699554
 20
-356.8761341239161
 10
-363.1683913975467
 20
-356.8933764360476
 10
-363.1324339602874
 20
-356.9093237706295
 10
-363.1020711606072
 20
-356.9214754791229
 10
-363.0711059170765
 20
-356.9326857901178
 10
-363.0396015805738
 20
-356.9429122866984
 10
-363.0076215019778
 20
-356.9521125519488
 10
-362.9742684939472
 20
-356.9604706757196
 10
-362.940455501537
 20
-356.9676949088951
 10
-362.9062749673604
 20
-356.9737526452122
 10
-362.8718193340308
 20
-356.9786112784081
 10
-362.8319580340228
 20
-356.9826857837847
 10
-362.7918547295256
 20
-356.9851423622203
 10
-362.7516701155545
 20
-356.9859648202472
210
0.0
220
0.0
230
-1.0
  0
LWPOLYLINE
  5
AF
330
1F
100
AcDbEntity
  8
1
  6
________________
 62
     7
370
     0
100
AcDbPolyline
 90
        4
 70
     0
 43
0.0
 10
-363.6136999271876
 20
-356.479348861322
 10
-365.0346068412978
 20
-353.9679709014438
 10
-366.6072970433231
 20
-351.212917371647
 10
-368.2637579633949
 20
-348.3333333333333
210
0.0
220
0.0
230
-1.0
  0
LWPOLYLINE
  5
B0
330
1F
100
AcDbEntity
  8
1
  6
________________
 62
     7
370
     0
100
AcDbPolyline
 90
        4
 70
     0
 43
0.0
 10
363.6136999271876
 20
-340.1873178053447
 10
365.0346068412978
 20
-342.6986957652228
 10
366.607297043323
 20
-345.4537492950196
 10
368.2637579633948
 20
-348.3333333333333
  0
LWPOLYLINE
  5
B1
330
1F
100
AcDbEntity
  8
1
  6
________________
 62
     7
370
     0
100
AcDbPolyline
 90
       26
 70
     0
 43
0.0
 10
363.6136999271877
 20
-340.1873178053446
 10
363.584312144601
 20
-340.1384004344415
 10
363.5519265531473
 20
-340.0908507808986
 10
363.5165806046784
 20
-340.0448799217942
 10
363.4873407101038
 20
-340.0106560898319
 10
363.4563040091361
 20
-339.9774935352347
 10
363.423506458526
 20
-339.9455115148233
 10
363.3889840150238
 20
-339.9148292854184
 10
363.3513383132673
 20
-339.8844583476725
 10
363.3118187543676
 20
-339.8556552066607
 10
363.2705099018833
 20
-339.8285802892938
 10
363.2375004729291
 20
-339.8089893798396
 10
363.2034372699554
 20
-339.7905325427507
 10
363.1683913975467
 20
-339.7732902306191
 10
363.1324339602874
 20
-339.7573428960371
 10
363.1020711606072
 20
-339.7451911875437
 10
363.0711059170765
 20
-339.7339808765488
 10
363.0396015805738
 20
-339.7237543799683
 10
363.0076215019778
 20
-339.7145541147178
 10
362.9742684939472
 20
-339.706195990947
 10
362.940455501537
 20
-339.6989717577716
 10
362.9062749673604
 20
-339.6929140214544
 10
362.8718193340308
 20
-339.6880553882585
 10
362.8319580340228
 20
-339.6839808828819
 10
362.7918547295256
 20
-339.6815243044464
 10
362.7516701155545
 20
-339.6807018464195
  0
LINE
  5
B2
330
1F
100
AcDbEntity
  8
1
  6
________________
 62
     7
370
     0
100
AcDbLine
 10
353.9149965511122
 20
-339.6807018464195
 30
0.0
 11
362.7516701155545
 21
-339.6807018464195
 31
0.0
  0
LWPOLYLINE
  5
B3
330
1F
100
AcDbEntity
  8
1
  6
________________
 62
     7
370
     0
100
AcDbPolyline
 90
        6
 70
     0
 43
0.0
 10
363.5065553248575
 20
-340.3728977003373
 10
363.3836920440251
 20
-340.2037890850242
 10
363.228357959062
 20
-340.0639239240472
 10
363.0473396432047
 20
-339.9594129506588
 10
362.8485458182128
 20
-339.8948222674956
 10
362.6406618209367
 20
-339.8729738527591
  0
LWPOLYLINE
  5
B4
330
1F
100
AcDbEntity
  8
1
  6
________________
 62
     7
370
     0
100
AcDbPolyline
 90
        6
 70
     0
 43
0.0
 10
362.6406618209367
 20
-356.7936928139075
 10
362.8485458182128
 20
-356.771844399171
 10
363.0473396432048
 20
-356.7072537160078
 10
363.2283579590621
 20
-356.6027427426193
 10
363.3836920440252
 20
-356.4628775816424
 10
363.5065553248575
 20
-356.2937689663293
  0
LWPOLYLINE
  5
B5
330
1F
100
AcDbEntity
  8
1
  6
________________
 62
     7
370
     0
100
AcDbPolyline
 90
        6
 70
     0
 43
0.0
 10
354.02600484573
 20
-339.8729738527591
 10
353.8181208484539
 20
-339.8948222674956
 10
353.6193270234619
 20
-339.9594129506588
 10
353.4383087076046
 20
-340.0639239240472
 10
353.2829746226415
 20
-340.2037890850242
 10
353.1601113418092
 20
-340.3728977003373
  0
LWPOLYLINE
  5
B6
330
1F
100
AcDbEntity
  8
1
  6
________________
 62
     7
370
     0
100
AcDbPolyline
 90
        6
 70
     0
 43
0.0
 10
353.1601113418092
 20
-356.2937689663293
 10
353.2829746226415
 20
-356.4628775816424
 10
353.4383087076046
 20
-356.6027427426193
 10
353.6193270234619
 20
-356.7072537160078
 10
353.8181208484539
 20
-356.771844399171
 10
354.02600484573
 20
-356.7936928139075
  0
LINE
  5
B7
330
1F
100
AcDbEntity
  8
1
  6
________________
 62
     7
370
     0
100
AcDbLine
 10
354.0260048457299
 20
-356.7936928139076
 30
0.0
 11
362.6406618209367
 21
-356.7936928139076
 31
0.0
  0
LINE
  5
B8
330
1F
100
AcDbEntity
  8
1
  6
________________
 62
     7
370
     0
100
AcDbLine
 10
362.6406618209367
 20
-339.8729738527591
 30
0.0
 11
354.0260048457299
 21
-339.8729738527591
 31
0.0
  0
LINE
  5
B9
330
1F
100
AcDbEntity
  8
1
  6
________________
 62
     7
370
     0
100
AcDbLine
 10
348.6915398712454
 20
-348.8332571809115
 30
0.0
 11
348.4029087032718
 21
-348.3333333333333
 31
0.0
  0
LINE
  5
BA
330
1F
100
AcDbEntity
  8
1
  6
________________
 62
     7
370
     0
100
AcDbLine
 10
348.8527828542058
 20
-348.8332571809115
 30
0.0
 11
353.1601113418092
 21
-356.2937689663294
 31
0.0
  0
LINE
  5
BB
330
1F
100
AcDbEntity
  8
1
  6
________________
 62
     7
370
     0
100
AcDbLine
 10
353.1601113418092
 20
-340.3728977003372
 30
0.0
 11
348.8527828542058
 21
-347.8334094857551
 31
0.0
  0
LINE
  5
BC
330
1F
100
AcDbEntity
  8
1
  6
________________
 62
     7
370
     0
100
AcDbLine
 10
348.6915398712454
 20
-347.8334094857551
 30
0.0
 11
348.4029087032718
 21
-348.3333333333333
 31
0.0
  0
LINE
  5
BD
330
1F
100
AcDbEntity
  8
1
  6
________________
 62
     7
370
     0
100
AcDbLine
 10
363.5065553248575
 20
-356.2937689663294
 30
0.0
 11
367.8138838124608
 21
-348.8332571809115
 31
0.0
  0
LINE
  5
BE
330
1F
100
AcDbEntity
  8
1
  6
________________
 62
     7
370
     0
100
AcDbLine
 10
368.2637579633949
 20
-348.3333333333333
 30
0.0
 11
367.9751267954213
 21
-348.8332571809115
 31
0.0
  0
LINE
  5
BF
330
1F
100
AcDbEntity
  8
1
  6
________________
 62
     7
370
     0
100
AcDbLine
 10
367.8138838124608
 20
-347.8334094857551
 30
0.0
 11
363.5065553248574
 21
-340.3728977003372
 31
0.0
  0
LINE
  5
C0
330
1F
100
AcDbEntity
  8
1
  6
________________
 62
     7
370
     0
100
AcDbLine
 10
368.2637579633949
 20
-348.3333333333333
 30
0.0
 11
367.9751267954213
 21
-347.8334094857551
 31
0.0
  0
LWPOLYLINE
  5
C1
330
1F
100
AcDbEntity
  8
1
  6
________________
 62
     7
370
     0
100
AcDbPolyline
 90
        6
 70
     0
 43
0.0
 10
367.8138838124609
 20
-348.8332571809115
 10
367.8989045289046
 20
-348.6423001508618
 10
367.9423642689335
 20
-348.4378443067217
 10
367.9423642689335
 20
-348.2288223599449
 10
367.8989045289046
 20
-348.0243665158048
 10
367.8138838124609
 20
-347.8334094857551
  0
LWPOLYLINE
  5
C2
330
1F
100
AcDbEntity
  8
1
  6
________________
 62
     7
370
     0
100
AcDbPolyline
 90
        6
 70
     0
 43
0.0
 10
-367.9751267954213
 20
-347.8334094857551
 10
-368.0601475118651
 20
-348.0243665158048
 10
-368.1036072518939
 20
-348.2288223599449
 10
-368.1036072518939
 20
-348.4378443067217
 10
-368.0601475118651
 20
-348.6423001508618
 10
-367.9751267954213
 20
-348.8332571809115
210
0.0
220
0.0
230
-1.0
  0
LWPOLYLINE
  5
C3
330
1F
100
AcDbEntity
  8
1
  6
________________
 62
     7
370
     0
100
AcDbPolyline
 90
        6
 70
     0
 43
0.0
 10
348.8527828542058
 20
-347.8334094857551
 10
348.767762137762
 20
-348.0243665158048
 10
348.7243023977331
 20
-348.2288223599449
 10
348.7243023977331
 20
-348.4378443067217
 10
348.767762137762
 20
-348.6423001508618
 10
348.8527828542058
 20
-348.8332571809115
  0
LWPOLYLINE
  5
C4
330
1F
100
AcDbEntity
  8
1
  6
________________
 62
     7
370
     0
100
AcDbPolyline
 90
        6
 70
     0
 43
0.0
 10
-348.6915398712453
 20
-348.8332571809115
 10
-348.6065191548015
 20
-348.6423001508618
 10
-348.5630594147726
 20
-348.4378443067217
 10
-348.5630594147726
 20
-348.2288223599449
 10
-348.6065191548015
 20
-348.0243665158048
 10
-348.6915398712453
 20
-347.8334094857551
210
0.0
220
0.0
230
-1.0
  0
CIRCLE
  5
C5
330
1F
100
AcDbEntity
  8
1
  6
________________
 62
     7
370
     0
100
AcDbCircle
 10
-358.3333333333333
 20
-348.3333333333333
 30
0.0
 40
60.0
210
0.0
220
0.0
230
-1.0
  0
ARC
  5
C6
330
1F
100
AcDbEntity
  8
1
  6
________________
 62
     7
370
     0
100
AcDbCircle
 10
358.3333333333333
 20
-348.3333333333333
 30
0.0
 40
8.000000000000032
100
AcDbArc
 50
210.0
 51
270.0
  0
LINE
  5
C7
330
1F
100
AcDbEntity
  8
1
  6
________________
 62
     7
370
     0
100
AcDbLine
 10
358.3333333333333
 20
-356.3333333333333
 30
0.0
 11
353.7145311798163
 21
-356.3333333333333
 31
0.0
  0
LINE
  5
C8
330
1F
100
AcDbEntity
  8
1
  6
________________
 62
     7
370
     0
100
AcDbLine
 10
353.7145311798163
 20
-356.3333333333333
 30
0.0
 11
351.4051301030578
 21
-352.3333333333333
 31
0.0
  0
LINE
  5
C9
330
1F
100
AcDbEntity
  8
1
  6
________________
 62
     7
370
     0
100
AcDbLine
 10
362.9521354868504
 20
-356.3333333333333
 30
0.0
 11
358.3333333333333
 21
-356.3333333333333
 31
0.0
  0
ARC
  5
CA
330
1F
100
AcDbEntity
  8
1
  6
________________
 62
     7
370
     0
100
AcDbCircle
 10
-358.3333333333333
 20
-348.3333333333333
 30
0.0
 40
8.000000000000032
210
0.0
220
0.0
230
-1.0
100
AcDbArc
 50
210.0
 51
270.0000000000001
  0
LINE
  5
CB
330
1F
100
AcDbEntity
  8
1
  6
________________
 62
     7
370
     0
100
AcDbLine
 10
365.2615365636089
 20
-352.3333333333333
 30
0.0
 11
362.9521354868504
 21
-356.3333333333333
 31
0.0
  0
ARC
  5
CC
330
1F
100
AcDbEntity
  8
1
  6
________________
 62
     7
370
     0
100
AcDbCircle
 10
-358.3333333333333
 20
-348.3333333333333
 30
0.0
 40
8.000000000000032
210
0.0
220
0.0
230
-1.0
100
AcDbArc
 50
150.0
 51
210.0
  0
LINE
  5
CD
330
1F
100
AcDbEntity
  8
1
  6
________________
 62
     7
370
     0
100
AcDbLine
 10
365.2615365636089
 20
-344.3333333333333
 30
0.0
 11
367.5709376403673
 21
-348.3333333333333
 31
0.0
  0
LINE
  5
CE
330
1F
100
AcDbEntity
  8
1
  6
________________
 62
     7
370
     0
100
AcDbLine
 10
367.5709376403673
 20
-348.3333333333333
 30
0.0
 11
365.2615365636089
 21
-352.3333333333333
 31
0.0
  0
LINE
  5
CF
330
1F
100
AcDbEntity
  8
1
  6
________________
 62
     7
370
     0
100
AcDbLine
 10
349.0957290262993
 20
-348.3333333333333
 30
0.0
 11
351.4051301030578
 21
-344.3333333333333
 31
0.0
  0
ARC
  5
D0
330
1F
100
AcDbEntity
  8
1
  6
________________
 62
     7
370
     0
100
AcDbCircle
 10
-358.3333333333333
 20
-348.3333333333333
 30
0.0
 40
8.000000000000032
210
0.0
220
0.0
230
-1.0
100
AcDbArc
 50
330.0
 51
30.00000000000005
  0
LINE
  5
D1
330
1F
100
AcDbEntity
  8
1
  6
________________
 62
     7
370
     0
100
AcDbLine
 10
351.4051301030578
 20
-352.3333333333333
 30
0.0
 11
349.0957290262993
 21
-348.3333333333333
 31
0.0
  0
ARC
  5
D2
330
1F
100
AcDbEntity
  8
1
  6
________________
 62
     7
370
     0
100
AcDbCircle
 10
-358.3333333333333
 20
-348.3333333333333
 30
0.0
 40
8.000000000000032
210
0.0
220
0.0
230
-1.0
100
AcDbArc
 50
30.00000000000002
 51
90.00000000000001
  0
LINE
  5
D3
330
1F
100
AcDbEntity
  8
1
  6
________________
 62
     7
370
     0
100
AcDbLine
 10
351.4051301030578
 20
-344.3333333333333
 30
0.0
 11
353.7145311798163
 21
-340.3333333333333
 31
0.0
  0
LINE
  5
D4
330
1F
100
AcDbEntity
  8
1
  6
________________
 62
     7
370
     0
100
AcDbLine
 10
353.7145311798163
 20
-340.3333333333333
 30
0.0
 11
358.3333333333333
 21
-340.3333333333333
 31
0.0
  0
ARC
  5
D5
330
1F
100
AcDbEntity
  8
1
  6
________________
 62
     7
370
     0
100
AcDbCircle
 10
-358.3333333333333
 20
-348.3333333333333
 30
0.0
 40
8.000000000000007
210
0.0
220
0.0
230
-1.0
100
AcDbArc
 50
90.00000000000001
 51
150.0
  0
LINE
  5
D6
330
1F
100
AcDbEntity
  8
1
  6
________________
 62
     7
370
     0
100
AcDbLine
 10
358.3333333333333
 20
-340.3333333333333
 30
0.0
 11
362.9521354868504
 21
-340.3333333333333
 31
0.0
  0
LINE
  5
D7
330
1F
100
AcDbEntity
  8
1
  6
________________
 62
     7
370
     0
100
AcDbLine
 10
362.9521354868504
 20
-340.3333333333333
 30
0.0
 11
365.2615365636089
 21
-344.3333333333333
 31
0.0
  0
CIRCLE
  5
D8
330
1F
100
AcDbEntity
  8
1
  6
________________
 62
     7
370
     0
100
AcDbCircle
 10
-358.3333333333333
 20
-348.3333333333333
 30
0.0
 40
4.249999999999976
210
0.0
220
0.0
230
-1.0
  0
CIRCLE
  5
D9
330
1F
100
AcDbEntity
  8
1
  6
________________
 62
     7
370
     0
100
AcDbCircle
 10
34.16666666666668
 20
-348.3333333333333
 30
0.0
 40
60.0
  0
LINE
  5
DA
330
1F
100
AcDbEntity
  8
1
  6
________________
 62
     7
370
     0
100
AcDbLine
 10
24.92906235963266
 20
-348.3333333333333
 30
0.0
 11
29.54786451314966
 21
-356.3333333333333
 31
0.0
  0
LINE
  5
DB
330
1F
100
AcDbEntity
  8
1
  6
________________
 62
     7
370
     0
100
AcDbLine
 10
29.54786451314966
 20
-340.3333333333333
 30
0.0
 11
24.92906235963266
 21
-348.3333333333333
 31
0.0
  0
LINE
  5
DC
330
1F
100
AcDbEntity
  8
1
  6
________________
 62
     7
370
     0
100
AcDbLine
 10
29.54786451314965
 20
-356.3333333333333
 30
0.0
 11
38.78546882018367
 21
-356.3333333333333
 31
0.0
  0
LINE
  5
DD
330
1F
100
AcDbEntity
  8
1
  6
________________
 62
     7
370
     0
100
AcDbLine
 10
43.40427097370068
 20
-348.3333333333333
 30
0.0
 11
38.78546882018367
 21
-340.3333333333333
 31
0.0
  0
LINE
  5
DE
330
1F
100
AcDbEntity
  8
1
  6
________________
 62
     7
370
     0
100
AcDbLine
 10
38.78546882018367
 20
-356.3333333333333
 30
0.0
 11
43.40427097370068
 21
-348.3333333333333
 31
0.0
  0
LINE
  5
DF
330
1F
100
AcDbEntity
  8
1
  6
________________
 62
     7
370
     0
100
AcDbLine
 10
38.78546882018367
 20
-340.3333333333333
 30
0.0
 11
29.54786451314967
 21
-340.3333333333333
 31
0.0
  0
CIRCLE
  5
E0
330
1F
100
AcDbEntity
  8
1
  6
________________
 62
     7
370
     0
100
AcDbCircle
 10
34.16666666666666
 20
-348.3333333333333
 30
0.0
 40
49.49999999999999
  0
LINE
  5
E1
330
1F
100
AcDbEntity
  8
1
  6
________________
 62
     7
370
     0
100
AcDbLine
 10
34.16666666666664
 20
-311.2111478788357
 30
0.0
 11
37.16666666666666
 21
-311.2635130736204
 31
0.0
  0
LINE
  5
E2
330
1F
100
AcDbEntity
  8
1
  6
________________
 62
     7
370
     0
100
AcDbLine
 10
28.16666666666666
 20
-311.3333333333333
 30
0.0
 11
40.16666666666666
 21
-311.3333333333333
 31
0.0
  0
LINE
  5
E3
330
1F
100
AcDbEntity
  8
1
  6
________________
 62
     7
370
     0
100
AcDbLine
 10
28.16666666666666
 20
-311.3333333333333
 30
0.0
 11
28.25546515574533
 21
-311.2445348442546
 31
0.0
  0
LINE
  5
E4
330
1F
100
AcDbEntity
  8
1
  6
________________
 62
     7
370
     0
100
AcDbLine
 10
33.25470363152728
 20
-311.1587826840511
 30
0.0
 11
28.25546515574533
 21
-311.2445348442546
 31
0.0
  0
LINE
  5
E5
330
1F
100
AcDbEntity
  8
1
  6
________________
 62
     7
370
     0
100
AcDbLine
 10
33.25470363152728
 20
-311.1587826840511
 30
0.0
 11
35.07862970180603
 21
-311.1587826840511
 31
0.0
  0
LINE
  5
E6
330
1F
100
AcDbEntity
  8
1
  6
________________
 62
     7
370
     0
100
AcDbLine
 10
40.07786817758799
 20
-311.2445348442546
 30
0.0
 11
35.07862970180603
 21
-311.1587826840511
 31
0.0
  0
LINE
  5
E7
330
1F
100
AcDbEntity
  8
1
  6
________________
 62
     7
370
     0
100
AcDbLine
 10
40.16666666666666
 20
-311.3333333333333
 30
0.0
 11
40.07786817758799
 21
-311.2445348442546
 31
0.0
  0
LINE
  5
E8
330
1F
100
AcDbEntity
  8
1
  6
________________
 62
     7
370
     0
100
AcDbLine
 10
35.07862970180603
 20
-307.5078839826155
 30
0.0
 11
40.07786817758799
 21
-307.4221318224119
 31
0.0
  0
LINE
  5
E9
330
1F
100
AcDbEntity
  8
1
  6
________________
 62
     7
370
     0
100
AcDbLine
 10
28.25546515574533
 20
-307.4221318224119
 30
0.0
 11
33.25470363152728
 21
-307.5078839826155
 31
0.0
  0
LINE
  5
EA
330
1F
100
AcDbEntity
  8
1
  6
________________
 62
     7
370
     0
100
AcDbLine
 10
35.07862970180603
 20
-307.5078839826155
 30
0.0
 11
33.25470363152728
 21
-307.5078839826155
 31
0.0
  0
LINE
  5
EB
330
1F
100
AcDbEntity
  8
1
  6
________________
 62
     7
370
     0
100
AcDbLine
 10
34.16666666666664
 20
-307.3507883982615
 30
0.0
 11
37.16666666666666
 21
-307.4031535930462
 31
0.0
  0
LINE
  5
EC
330
1F
100
AcDbEntity
  8
1
  6
________________
 62
     7
370
     0
100
AcDbLine
 10
28.16666666666666
 20
-307.3333333333333
 30
0.0
 11
28.25546515574533
 21
-307.4221318224119
 31
0.0
  0
LINE
  5
ED
330
1F
100
AcDbEntity
  8
1
  6
________________
 62
     7
370
     0
100
AcDbLine
 10
40.16666666666666
 20
-307.3333333333333
 30
0.0
 11
28.16666666666665
 21
-307.3333333333333
 31
0.0
  0
LINE
  5
EE
330
1F
100
AcDbEntity
  8
1
  6
________________
 62
     7
370
     0
100
AcDbLine
 10
40.16666666666666
 20
-307.3333333333333
 30
0.0
 11
40.07786817758799
 21
-307.4221318224119
 31
0.0
  0
LINE
  5
EF
330
1F
100
AcDbEntity
  8
1
  6
________________
 62
     7
370
     0
100
AcDbLine
 10
31.16666666666665
 20
-311.2635130736204
 30
0.0
 11
34.16666666666666
 21
-311.2111478788357
 31
0.0
  0
ARC
  5
F0
330
1F
100
AcDbEntity
  8
1
  6
________________
 62
     7
370
     0
100
AcDbCircle
 10
-34.16666666666666
 20
-225.3547532248386
 30
0.0
 40
85.96112504356643
210
0.0
220
0.0
230
-1.0
100
AcDbArc
 50
268.0000000000007
 51
271.9999999999993
  0
LINE
  5
F1
330
1F
100
AcDbEntity
  8
1
  6
________________
 62
     7
370
     0
100
AcDbLine
 10
31.16666666666665
 20
-307.4031535930462
 30
0.0
 11
34.16666666666666
 21
-307.3507883982615
 31
0.0
  0
ARC
  5
F2
330
1F
100
AcDbEntity
  8
1
  6
________________
 62
     7
370
     0
100
AcDbCircle
 10
-34.16666666666666
 20
-221.4943937442644
 30
0.0
 40
85.96112504356648
210
0.0
220
0.0
230
-1.0
100
AcDbArc
 50
268.0000000000007
 51
271.9999999999993
  0
LINE
  5
F3
330
1F
100
AcDbEntity
  8
1
  6
________________
 62
     7
370
     0
100
AcDbLine
 10
28.16666666666666
 20
-307.3333333333333
 30
0.0
 11
28.16666666666666
 21
-311.3333333333333
 31
0.0
  0
LINE
  5
F4
330
1F
100
AcDbEntity
  8
1
  6
________________
 62
     7
370
     0
100
AcDbLine
 10
40.16666666666666
 20
-311.3333333333333
 30
0.0
 11
40.16666666666666
 21
-307.3333333333333
 31
0.0
  0
LINE
  5
F5
330
1F
100
AcDbEntity
  8
1
  6
________________
 62
     7
370
     0
100
AcDbLine
 10
39.13187898169744
 20
-356.9333333333333
 30
0.0
 11
44.09709129672822
 21
-348.3333333333333
 31
0.0
  0
LINE
  5
F6
330
1F
100
AcDbEntity
  8
1
  6
________________
 62
     7
370
     0
100
AcDbLine
 10
44.09709129672822
 20
-348.3333333333333
 30
0.0
 11
39.13187898169743
 21
-339.7333333333333
 31
0.0
  0
LINE
  5
F7
330
1F
100
AcDbEntity
  8
1
  6
________________
 62
     7
370
     0
100
AcDbLine
 10
39.13187898169743
 20
-339.7333333333333
 30
0.0
 11
29.20145435163587
 21
-339.7333333333333
 31
0.0
  0
LINE
  5
F8
330
1F
100
AcDbEntity
  8
1
  6
________________
 62
     7
370
     0
100
AcDbLine
 10
29.20145435163587
 20
-339.7333333333333
 30
0.0
 11
24.23624203660509
 21
-348.3333333333333
 31
0.0
  0
LINE
  5
F9
330
1F
100
AcDbEntity
  8
1
  6
________________
 62
     7
370
     0
100
AcDbLine
 10
24.2362420366051
 20
-348.3333333333333
 30
0.0
 11
29.20145435163587
 21
-356.9333333333333
 31
0.0
  0
LINE
  5
FA
330
1F
100
AcDbEntity
  8
1
  6
________________
 62
     7
370
     0
100
AcDbLine
 10
29.20145435163587
 20
-356.9333333333333
 30
0.0
 11
39.13187898169744
 21
-356.9333333333333
 31
0.0
  0
LINE
  5
FB
330
1F
100
AcDbEntity
  8
1
  6
________________
 62
     7
370
     0
100
AcDbLine
 10
39.13187898169743
 20
-339.7333333333333
 30
0.0
 11
39.0512574902172
 21
-339.8729738527591
 31
0.0
  0
LINE
  5
FC
330
1F
100
AcDbEntity
  8
1
  6
________________
 62
     7
370
     0
100
AcDbLine
 10
44.09709129672822
 20
-348.3333333333333
 30
0.0
 11
43.93584831376776
 21
-348.3333333333333
 31
0.0
  0
LINE
  5
FD
330
1F
100
AcDbEntity
  8
1
  6
________________
 62
     7
370
     0
100
AcDbLine
 10
43.93584831376776
 20
-348.3333333333333
 30
0.0
 11
39.0512574902172
 21
-339.8729738527591
 31
0.0
  0
LINE
  5
FE
330
1F
100
AcDbEntity
  8
1
  6
________________
 62
     7
370
     0
100
AcDbLine
 10
39.13187898169744
 20
-356.9333333333333
 30
0.0
 11
39.05125749021721
 21
-356.7936928139076
 31
0.0
  0
LINE
  5
FF
330
1F
100
AcDbEntity
  8
1
  6
________________
 62
     7
370
     0
100
AcDbLine
 10
39.0512574902172
 20
-356.7936928139076
 30
0.0
 11
43.93584831376776
 21
-348.3333333333333
 31
0.0
  0
LINE
  5
100
330
1F
100
AcDbEntity
  8
1
  6
________________
 62
     7
370
     0
100
AcDbLine
 10
29.20145435163587
 20
-356.9333333333333
 30
0.0
 11
29.2820758431161
 21
-356.7936928139076
 31
0.0
  0
LINE
  5
101
330
1F
100
AcDbEntity
  8
1
  6
________________
 62
     7
370
     0
100
AcDbLine
 10
24.2362420366051
 20
-348.3333333333333
 30
0.0
 11
24.39748501956556
 21
-348.3333333333333
 31
0.0
  0
LINE
  5
102
330
1F
100
AcDbEntity
  8
1
  6
________________
 62
     7
370
     0
100
AcDbLine
 10
24.39748501956556
 20
-348.3333333333333
 30
0.0
 11
29.2820758431161
 21
-356.7936928139076
 31
0.0
  0
LINE
  5
103
330
1F
100
AcDbEntity
  8
1
  6
________________
 62
     7
370
     0
100
AcDbLine
 10
29.2820758431161
 20
-356.7936928139076
 30
0.0
 11
39.0512574902172
 21
-356.7936928139076
 31
0.0
  0
LINE
  5
104
330
1F
100
AcDbEntity
  8
1
  6
________________
 62
     7
370
     0
100
AcDbLine
 10
29.20145435163587
 20
-339.7333333333333
 30
0.0
 11
29.2820758431161
 21
-339.8729738527591
 31
0.0
  0
LINE
  5
105
330
1F
100
AcDbEntity
  8
1
  6
________________
 62
     7
370
     0
100
AcDbLine
 10
39.0512574902172
 20
-339.8729738527591
 30
0.0
 11
29.28207584311611
 21
-339.8729738527591
 31
0.0
  0
LINE
  5
106
330
1F
100
AcDbEntity
  8
1
  6
________________
 62
     7
370
     0
100
AcDbLine
 10
29.28207584311611
 20
-339.8729738527591
 30
0.0
 11
24.39748501956556
 21
-348.3333333333333
 31
0.0
  0
CIRCLE
  5
107
330
1F
100
AcDbEntity
  8
1
  6
________________
 62
     7
370
     0
100
AcDbCircle
 10
34.16666666666665
 20
-348.3333333333333
 30
0.0
 40
48.99999999999999
  0
ARC
  5
108
330
1F
100
AcDbEntity
  8
1
  6
________________
 62
     7
370
     0
100
AcDbCircle
 10
34.16666666666666
 20
-348.3333333333333
 30
0.0
 40
8.400000000000018
100
AcDbArc
 50
270.0
 51
287.7527901619466
  0
ARC
  5
109
330
1F
100
AcDbEntity
  8
1
  6
________________
 62
     7
370
     0
100
AcDbCircle
 10
34.16666666666666
 20
-348.3333333333333
 30
0.0
 40
8.399999999999993
100
AcDbArc
 50
312.2472098380534
 51
347.7527901619466
  0
ARC
  5
10A
330
1F
100
AcDbEntity
  8
1
  6
________________
 62
     7
370
     0
100
AcDbCircle
 10
34.16666666666666
 20
-348.3333333333333
 30
0.0
 40
8.400000000000002
100
AcDbArc
 50
12.24720983805311
 51
47.75279016194685
  0
ARC
  5
10B
330
1F
100
AcDbEntity
  8
1
  6
________________
 62
     7
370
     0
100
AcDbCircle
 10
34.16666666666666
 20
-348.3333333333333
 30
0.0
 40
8.400000000000023
100
AcDbArc
 50
72.24720983805291
 51
107.7527901619471
  0
ARC
  5
10C
330
1F
100
AcDbEntity
  8
1
  6
________________
 62
     7
370
     0
100
AcDbCircle
 10
34.16666666666666
 20
-348.3333333333333
 30
0.0
 40
8.400000000000038
100
AcDbArc
 50
132.2472098380529
 51
167.7527901619472
  0
ARC
  5
10D
330
1F
100
AcDbEntity
  8
1
  6
________________
 62
     7
370
     0
100
AcDbCircle
 10
34.16666666666666
 20
-348.3333333333333
 30
0.0
 40
8.400000000000006
100
AcDbArc
 50
192.2472098380532
 51
227.7527901619468
  0
ARC
  5
10E
330
1F
100
AcDbEntity
  8
1
  6
________________
 62
     7
370
     0
100
AcDbCircle
 10
34.16666666666666
 20
-348.3333333333333
 30
0.0
 40
8.400000000000006
100
AcDbArc
 50
252.2472098380533
 51
270.0
  0
MTEXT
  5
10F
330
1F
100
AcDbEntity
  8
1
 62
     7
100
AcDbMText
 10
179.9334545454546
 20
-434.4287878787879
 30
0.0
 40
6.0
 41
0.0
 46
0.0
 71
     1
 72
     1
  1
{\FＭＳ ゴシック;MWP-100M}
 73
     1
 44
1.0
  0
LINE
  5
110
330
1F
100
AcDbEntity
  8
1
  6
______....__....
 62
     1
420
 16711680
370
     0
100
AcDbLine
 10
296.3333333333333
 20
-348.3333333333333
 30
0.0
 11
420.3333333333333
 21
-348.3333333333333
 31
0.0
  0
LINE
  5
112
330
1F
100
AcDbEntity
  8
1
  6
______....__....
 62
     1
420
 16711680
370
     0
100
AcDbLine
 10
358.3333333333333
 20
-410.3333333333333
 30
0.0
 11
358.3333333333333
 21
-286.3333333333333
 31
0.0
  0
LINE
  5
113
330
1F
100
AcDbEntity
  8
1
  6
______....__....
 62
     1
420
 16711680
370
     0
100
AcDbLine
 10
-27.83333333333332
 20
-348.3333333333333
 30
0.0
 11
96.16666666666667
 21
-348.3333333333333
 31
0.0
  0
LINE
  5
114
330
1F
100
AcDbEntity
  8
1
  6
______....__....
 62
     1
420
 16711680
370
     0
100
AcDbLine
 10
34.16666666666668
 20
-410.3333333333333
 30
0.0
 11
34.16666666666668
 21
-286.3333333333333
 31
0.0
  0
ENDSEC
  0
SECTION
  2
OBJECTS
  0
DICTIONARY
  5
C
330
0
100
AcDbDictionary
281
     1
  3
ACAD_GROUP
350
D
  3
ACAD_LAYOUT
350
1A
  3
ACAD_MLEADERSTYLE
350
116
  3
ACAD_MLINESTYLE
350
17
  3
ACAD_PLOTSETTINGS
350
19
  3
ACAD_PLOTSTYLENAME
350
E
  3
ACAD_TABLESTYLE
350
115
  3
ACAD_VISUALSTYLE
350
2A
  0
DICTIONARY
  5
D
102
{ACAD_REACTORS
330
C
102
}
330
C
100
AcDbDictionary
281
     1
  0
DICTIONARY
  5
1A
102
{ACAD_REACTORS
330
C
102
}
330
C
100
AcDbDictionary
281
     1
  3
Layout1
350
1E
  3
Layout2
350
26
  3
Model
350
22
  0
DICTIONARY
  5
116
102
{ACAD_REACTORS
330
C
102
}
330
C
100
AcDbDictionary
281
     1
  0
DICTIONARY
  5
17
102
{ACAD_REACTORS
330
C
102
}
330
C
100
AcDbDictionary
281
     1
  3
Standard
350
18
  0
DICTIONARY
  5
19
102
{ACAD_REACTORS
330
C
102
}
330
C
100
AcDbDictionary
281
     1
  0
ACDBDICTIONARYWDFLT
  5
E
102
{ACAD_REACTORS
330
C
102
}
330
C
100
AcDbDictionary
281
     1
  3
Normal
350
F
100
AcDbDictionaryWithDefault
340
F
  0
DICTIONARY
  5
115
102
{ACAD_REACTORS
330
C
102
}
330
C
100
AcDbDictionary
281
     1
  0
DICTIONARY
  5
2A
102
{ACAD_REACTORS
330
C
102
}
330
C
100
AcDbDictionary
281
     1
  3
2dWireframe
350
2F
  3
3D Hidden
350
31
  3
3dWireframe
350
30
  3
Basic
350
32
  3
Brighten
350
36
  3
ColorChange
350
3A
  3
Conceptual
350
34
  3
Dim
350
35
  3
Facepattern
350
39
  3
Flat
350
2B
  3
FlatWithEdges
350
2C
  3
Gouraud
350
2D
  3
GouraudWithEdges
350
2E
  3
Linepattern
350
38
  3
Realistic
350
33
  3
Thicken
350
37
  0
LAYOUT
  5
1E
102
{ACAD_REACTORS
330
1A
102
}
330
1A
100
AcDbPlotSettings
  1

  2
none_device
  4

  6

 40
0.0
 41
0.0
 42
0.0
 43
0.0
 44
0.0
 45
0.0
 46
0.0
 47
0.0
 48
0.0
 49
0.0
140
0.0
141
0.0
142
1.0
143
1.0
 70
   688
 72
     0
 73
     0
 74
     5
  7

 75
    16
 76
     0
 77
     2
 78
   300
147
1.0
148
0.0
149
0.0
100
AcDbLayout
  1
Layout1
 70
     1
 71
     1
 10
0.0
 20
0.0
 11
12.0
 21
9.0
 12
0.0
 22
0.0
 32
0.0
 14
1.000000000000000E+20
 24
1.000000000000000E+20
 34
1.000000000000000E+20
 15
-1.000000000000000E+20
 25
-1.000000000000000E+20
 35
-1.000000000000000E+20
146
0.0
 13
0.0
 23
0.0
 33
0.0
 16
1.0
 26
0.0
 36
0.0
 17
0.0
 27
1.0
 37
0.0
 76
     0
330
1B
  0
LAYOUT
  5
26
102
{ACAD_REACTORS
330
1A
102
}
330
1A
100
AcDbPlotSettings
  1

  2
none_device
  4

  6

 40
0.0
 41
0.0
 42
0.0
 43
0.0
 44
0.0
 45
0.0
 46
0.0
 47
0.0
 48
0.0
 49
0.0
140
0.0
141
0.0
142
1.0
143
1.0
 70
   688
 72
     0
 73
     0
 74
     5
  7

 75
    16
 76
     0
 77
     2
 78
   300
147
1.0
148
0.0
149
0.0
100
AcDbLayout
  1
Layout2
 70
     1
 71
     2
 10
0.0
 20
0.0
 11
0.0
 21
0.0
 12
0.0
 22
0.0
 32
0.0
 14
0.0
 24
0.0
 34
0.0
 15
0.0
 25
0.0
 35
0.0
146
0.0
 13
0.0
 23
0.0
 33
0.0
 16
1.0
 26
0.0
 36
0.0
 17
0.0
 27
1.0
 37
0.0
 76
     0
330
23
  0
LAYOUT
  5
22
102
{ACAD_REACTORS
330
1A
102
}
330
1A
100
AcDbPlotSettings
  1

  2
none_device
  4

  6

 40
0.0
 41
0.0
 42
0.0
 43
0.0
 44
0.0
 45
0.0
 46
0.0
 47
0.0
 48
0.0
 49
0.0
140
0.0
141
0.0
142
1.0
143
1.0
 70
  1712
 72
     0
 73
     0
 74
     0
  7

 75
     0
 76
     0
 77
     2
 78
   300
147
1.0
148
0.0
149
0.0
100
AcDbLayout
  1
Model
 70
     1
 71
     0
 10
0.0
 20
0.0
 11
12.0
 21
9.0
 12
0.0
 22
0.0
 32
0.0
 14
-27.83333333333332
 24
-439.7469696969698
 34
0.0
 15
420.3333333333333
 25
10.0
 35
10.0
146
0.0
 13
0.0
 23
0.0
 33
0.0
 16
1.0
 26
0.0
 36
0.0
 17
0.0
 27
1.0
 37
0.0
 76
     0
330
1F
331
29
  0
MLINESTYLE
  5
18
102
{ACAD_REACTORS
330
17
102
}
330
17
100
AcDbMlineStyle
  2
Standard
 70
     0
  3

 62
   256
 51
90.0
 52
90.0
 71
     2
 49
0.5
 62
   256
  6
BYLAYER
 49
-0.5
 62
   256
  6
BYLAYER
  0
ACDBPLACEHOLDER
  5
F
102
{ACAD_REACTORS
330
E
102
}
330
E
  0
VISUALSTYLE
  5
2F
102
{ACAD_REACTORS
330
2A
102
}
330
2A
100
AcDbVisualStyle
  2
2dWireframe
 70
     4
 71
     0
 72
     2
 73
     0
 90
        0
 40
-0.6
 41
-30.0
 62
     5
 63
     7
421
 16777215
 74
     1
 91
        4
 64
     7
 65
   257
 75
     1
175
     1
 42
1.0
 92
        0
 66
   257
 43
1.0
 76
     1
 77
     6
 78
     2
 67
     7
 79
     5
170
     0
171
     0
290
     0
174
     0
 93
        1
 44
0.0
173
     0
291
     0
 45
0.0
  0
VISUALSTYLE
  5
31
102
{ACAD_REACTORS
330
2A
102
}
330
2A
100
AcDbVisualStyle
  2
3D Hidden
 70
     6
 71
     1
 72
     2
 73
     2
 90
        0
 40
-0.6
 41
-30.0
 62
     5
 63
     7
421
 16777215
 74
     2
 91
        2
 64
     7
 65
   257
 75
     2
175
     1
 42
40.0
 92
        0
 66
   257
 43
1.0
 76
     1
 77
     6
 78
     2
 67
     7
 79
     3
170
     0
171
     0
290
     0
174
     0
 93
        1
 44
0.0
173
     0
291
     0
 45
0.0
  0
VISUALSTYLE
  5
30
102
{ACAD_REACTORS
330
2A
102
}
330
2A
100
AcDbVisualStyle
  2
3dWireframe
 70
     5
 71
     0
 72
     2
 73
     0
 90
        0
 40
-0.6
 41
-30.0
 62
     5
 63
     7
421
 16777215
 74
     1
 91
        4
 64
     7
 65
   257
 75
     1
175
     1
 42
1.0
 92
        0
 66
   257
 43
1.0
 76
     1
 77
     6
 78
     2
 67
     7
 79
     5
170
     0
171
     0
290
     0
174
     0
 93
        1
 44
0.0
173
     0
291
     0
 45
0.0
  0
VISUALSTYLE
  5
32
102
{ACAD_REACTORS
330
2A
102
}
330
2A
100
AcDbVisualStyle
  2
Basic
 70
     7
 71
     1
 72
     0
 73
     1
 90
        0
 40
-0.6
 41
-30.0
 62
     5
 63
     7
421
 16777215
 74
     0
 91
        4
 64
     7
 65
   257
 75
     1
175
     1
 42
1.0
 92
        8
 66
     7
 43
1.0
 76
     1
 77
     6
 78
     2
 67
     7
 79
     5
170
     0
171
     0
290
     0
174
     0
 93
        1
 44
0.0
173
     0
291
     1
 45
0.0
  0
VISUALSTYLE
  5
36
102
{ACAD_REACTORS
330
2A
102
}
330
2A
100
AcDbVisualStyle
  2
Brighten
 70
    12
 71
     2
 72
     2
 73
     0
 90
        0
 40
-0.6
 41
-30.0
 62
     5
 63
     7
421
 16777215
 74
     1
 91
        4
 64
     7
 65
   257
 75
     1
175
     1
 42
1.0
 92
        8
 66
     7
 43
1.0
 76
     1
 77
     6
 78
     2
 67
     7
 79
     5
170
     0
171
     0
290
     0
174
     0
 93
        1
 44
50.0
173
     0
291
     1
 45
0.0
  0
VISUALSTYLE
  5
3A
102
{ACAD_REACTORS
330
2A
102
}
330
2A
100
AcDbVisualStyle
  2
ColorChange
 70
    16
 71
     2
 72
     2
 73
     3
 90
        0
 40
-0.6
 41
-30.0
 62
     5
 63
     8
421
  8421504
 74
     1
 91
        4
 64
     7
 65
   257
 75
     1
175
     1
 42
1.0
 92
        8
 66
     8
424
  8421504
 43
1.0
 76
     1
 77
     6
 78
     2
 67
     7
 79
     5
170
     0
171
     0
290
     0
174
     0
 93
        1
 44
0.0
173
     0
291
     1
 45
0.0
  0
VISUALSTYLE
  5
34
102
{ACAD_REACTORS
330
2A
102
}
330
2A
100
AcDbVisualStyle
  2
Conceptual
 70
     9
 71
     3
 72
     2
 73
     0
 90
        0
 40
-0.6
 41
-30.0
 62
     5
 63
     7
421
 16777215
 74
     2
 91
        2
 64
     7
 65
   257
 75
     1
175
     1
 42
40.0
 92
        8
 66
     7
 43
1.0
 76
     1
 77
     6
 78
     2
 67
     7
 79
     3
170
     0
171
     0
290
     0
174
     0
 93
        1
 44
0.0
173
     0
291
     0
 45
0.0
  0
VISUALSTYLE
  5
35
102
{ACAD_REACTORS
330
2A
102
}
330
2A
100
AcDbVisualStyle
  2
Dim
 70
    11
 71
     2
 72
     2
 73
     0
 90
        0
 40
-0.6
 41
-30.0
 62
     5
 63
     7
421
 16777215
 74
     1
 91
        4
 64
     7
 65
   257
 75
     1
175
     1
 42
1.0
 92
        8
 66
     7
 43
1.0
 76
     1
 77
     6
 78
     2
 67
     7
 79
     5
170
     0
171
     0
290
     0
174
     0
 93
        1
 44
-50.0
173
     0
291
     1
 45
0.0
  0
VISUALSTYLE
  5
39
102
{ACAD_REACTORS
330
2A
102
}
330
2A
100
AcDbVisualStyle
  2
Facepattern
 70
    15
 71
     2
 72
     2
 73
     0
 90
        0
 40
-0.6
 41
-30.0
 62
     5
 63
     7
421
 16777215
 74
     1
 91
        4
 64
     7
 65
   257
 75
     1
175
     1
 42
1.0
 92
        8
 66
     7
 43
1.0
 76
     1
 77
     6
 78
     2
 67
     7
 79
     5
170
     0
171
     0
290
     0
174
     0
 93
        1
 44
0.0
173
     0
291
     1
 45
0.0
  0
VISUALSTYLE
  5
2B
102
{ACAD_REACTORS
330
2A
102
}
330
2A
100
AcDbVisualStyle
  2
Flat
 70
     0
 71
     2
 72
     1
 73
     1
 90
        2
 40
-0.6
 41
30.0
 62
     5
 63
     7
421
 16777215
 74
     0
 91
        4
 64
     7
 65
   257
 75
     1
175
     1
 42
1.0
 92
        8
 66
     7
 43
1.0
 76
     1
 77
     6
 78
     2
 67
     7
 79
     5
170
     0
171
     0
290
     0
174
     0
 93
       13
 44
0.0
173
     0
291
     1
 45
0.0
  0
VISUALSTYLE
  5
2C
102
{ACAD_REACTORS
330
2A
102
}
330
2A
100
AcDbVisualStyle
  2
FlatWithEdges
 70
     1
 71
     2
 72
     1
 73
     1
 90
        2
 40
-0.6
 41
30.0
 62
     5
 63
     7
421
 16777215
 74
     1
 91
        4
 64
     7
 65
   257
 75
     1
175
     1
 42
1.0
 92
        0
 66
   257
 43
1.0
 76
     1
 77
     6
 78
     2
 67
     7
 79
     5
170
     0
171
     0
290
     0
174
     0
 93
       13
 44
0.0
173
     0
291
     1
 45
0.0
  0
VISUALSTYLE
  5
2D
102
{ACAD_REACTORS
330
2A
102
}
330
2A
100
AcDbVisualStyle
  2
Gouraud
 70
     2
 71
     2
 72
     2
 73
     1
 90
        2
 40
-0.6
 41
30.0
 62
     5
 63
     7
421
 16777215
 74
     0
 91
        4
 64
     7
 65
   257
 75
     1
175
     1
 42
1.0
 92
        0
 66
     7
 43
1.0
 76
     1
 77
     6
 78
     2
 67
     7
 79
     5
170
     0
171
     0
290
     0
174
     0
 93
       13
 44
0.0
173
     0
291
     1
 45
0.0
  0
VISUALSTYLE
  5
2E
102
{ACAD_REACTORS
330
2A
102
}
330
2A
100
AcDbVisualStyle
  2
GouraudWithEdges
 70
     3
 71
     2
 72
     2
 73
     1
 90
        2
 40
-0.6
 41
30.0
 62
     5
 63
     7
421
 16777215
 74
     1
 91
        4
 64
     7
 65
   257
 75
     1
175
     1
 42
1.0
 92
        0
 66
   257
 43
1.0
 76
     1
 77
     6
 78
     2
 67
     7
 79
     5
170
     0
171
     0
290
     0
174
     0
 93
       13
 44
0.0
173
     0
291
     1
 45
0.0
  0
VISUALSTYLE
  5
38
102
{ACAD_REACTORS
330
2A
102
}
330
2A
100
AcDbVisualStyle
  2
Linepattern
 70
    14
 71
     2
 72
     2
 73
     0
 90
        0
 40
-0.6
 41
-30.0
 62
     5
 63
     7
421
 16777215
 74
     1
 91
        4
 64
     7
 65
   257
 75
     7
175
     7
 42
1.0
 92
        8
 66
     7
 43
1.0
 76
     1
 77
     6
 78
     2
 67
     7
 79
     5
170
     0
171
     0
290
     0
174
     0
 93
        1
 44
0.0
173
     0
291
     1
 45
0.0
  0
VISUALSTYLE
  5
33
102
{ACAD_REACTORS
330
2A
102
}
330
2A
100
AcDbVisualStyle
  2
Realistic
 70
     8
 71
     2
 72
     2
 73
     0
 90
        0
 40
-0.6
 41
-30.0
 62
     5
 63
     7
421
 16777215
 74
     1
 91
        0
 64
     7
 65
   257
 75
     1
175
     1
 42
1.0
 92
        8
 66
     8
424
  7895160
 43
1.0
 76
     1
 77
     6
 78
     2
 67
     7
 79
     5
170
     0
171
     0
290
     0
174
     0
 93
       13
 44
0.0
173
     0
291
     0
 45
0.0
  0
VISUALSTYLE
  5
37
102
{ACAD_REACTORS
330
2A
102
}
330
2A
100
AcDbVisualStyle
  2
Thicken
 70
    13
 71
     2
 72
     2
 73
     0
 90
        0
 40
-0.6
 41
-30.0
 62
     5
 63
     7
421
 16777215
 74
     1
 91
        4
 64
     7
 65
   257
 75
     1
175
     1
 42
1.0
 92
       12
 66
     7
 43
1.0
 76
     1
 77
     6
 78
     2
 67
     7
 79
     5
170
     0
171
     0
290
     0
174
     0
 93
        1
 44
0.0
173
     0
291
     1
 45
0.0
  0
ENDSEC
  0
EOF
