  0
SECTION
  2
HEADER
  9
$ACADVER
  1
AC1021
  9
$ACADMAINTVER
 70
    25
  9
$DWGCODEPAGE
  3
ANSI_932
  9
$INSBASE
 10
0.0
 20
0.0
 30
0.0
  9
$EXTMIN
 10
0.0
 20
0.0
 30
0.0
  9
$EXTMAX
 10
310.5000000000001
 20
369.1666666666666
 30
10.0
  9
$LIMMIN
 10
0.0
 20
0.0
  9
$LIMMAX
 10
12.0
 20
9.0
  9
$ORTHOMODE
 70
     0
  9
$REGENMODE
 70
     1
  9
$FILLMODE
 70
     1
  9
$QTEXTMODE
 70
     0
  9
$MIRRTEXT
 70
     1
  9
$LTSCALE
 40
1.0
  9
$ATTMODE
 70
     1
  9
$TEXTSIZE
 40
0.2
  9
$TRACEWID
 40
0.05
  9
$TEXTSTYLE
  7
Standard
  9
$CLAYER
  8
0
  9
$CELTYPE
  6
ByLayer
  9
$CECOLOR
 62
   256
  9
$CELTSCALE
 40
1.0
  9
$DISPSILH
 70
     0
  9
$DIMSCALE
 40
1.0
  9
$DIMASZ
 40
3.0
  9
$DIMEXO
 40
0.0625
  9
$DIMDLI
 40
0.38
  9
$DIMRND
 40
0.0
  9
$DIMDLE
 40
0.0
  9
$DIMEXE
 40
0.18
  9
$DIMTP
 40
0.0
  9
$DIMTM
 40
0.0
  9
$DIMTXT
 40
3.0
  9
$DIMCEN
 40
0.09
  9
$DIMTSZ
 40
0.0
  9
$DIMTOL
 70
     0
  9
$DIMLIM
 70
     0
  9
$DIMTIH
 70
     1
  9
$DIMTOH
 70
     1
  9
$DIMSE1
 70
     0
  9
$DIMSE2
 70
     0
  9
$DIMTAD
 70
     1
  9
$DIMZIN
 70
     0
  9
$DIMBLK
  1

  9
$DIMASO
 70
     1
  9
$DIMSHO
 70
     1
  9
$DIMPOST
  1

  9
$DIMAPOST
  1

  9
$DIMALT
 70
     0
  9
$DIMALTD
 70
     2
  9
$DIMALTF
 40
25.4
  9
$DIMLFAC
 40
1.0
  9
$DIMTOFL
 70
     0
  9
$DIMTVP
 40
0.0
  9
$DIMTIX
 70
     0
  9
$DIMSOXD
 70
     0
  9
$DIMSAH
 70
     0
  9
$DIMBLK1
  1

  9
$DIMBLK2
  1

  9
$DIMSTYLE
  2
Standard
  9
$DIMCLRD
 70
     0
  9
$DIMCLRE
 70
     0
  9
$DIMCLRT
 70
     0
  9
$DIMTFAC
 40
1.0
  9
$DIMGAP
 40
0.09
  9
$DIMJUST
 70
     0
  9
$DIMSD1
 70
     0
  9
$DIMSD2
 70
     0
  9
$DIMTOLJ
 70
     1
  9
$DIMTZIN
 70
     0
  9
$DIMALTZ
 70
     0
  9
$DIMALTTZ
 70
     0
  9
$DIMUPT
 70
     0
  9
$DIMDEC
 70
     2
  9
$DIMTDEC
 70
     4
  9
$DIMALTU
 70
     2
  9
$DIMALTTD
 70
     2
  9
$DIMTXSTY
  7
Standard
  9
$DIMAUNIT
 70
     0
  9
$DIMADEC
 70
     2
  9
$DIMALTRND
 40
0.0
  9
$DIMAZIN
 70
     0
  9
$DIMDSEP
 70
    46
  9
$DIMATFIT
 70
     3
  9
$DIMFRAC
 70
     0
  9
$DIMLDRBLK
  1

  9
$DIMLUNIT
 70
     2
  9
$DIMLWD
 70
    -2
  9
$DIMLWE
 70
    -2
  9
$DIMTMOVE
 70
     0
  9
$DIMFXL
 40
1.0
  9
$DIMFXLON
 70
     0
  9
$DIMJOGANG
 40
0.7853981633974483
  9
$DIMTFILL
 70
     0
  9
$DIMTFILLCLR
 70
     0
  9
$DIMARCSYM
 70
     0
  9
$DIMLTYPE
  6

  9
$DIMLTEX1
  6

  9
$DIMLTEX2
  6

  9
$LUNITS
 70
     2
  9
$LUPREC
 70
     4
  9
$SKETCHINC
 40
0.1
  9
$FILLETRAD
 40
0.5
  9
$AUNITS
 70
     0
  9
$AUPREC
 70
     0
  9
$MENU
  1
.
  9
$ELEVATION
 40
0.0
  9
$PELEVATION
 40
0.0
  9
$THICKNESS
 40
0.0
  9
$LIMCHECK
 70
     0
  9
$CHAMFERA
 40
0.5
  9
$CHAMFERB
 40
0.5
  9
$CHAMFERC
 40
1.0
  9
$CHAMFERD
 40
0.0
  9
$SKPOLY
 70
     0
  9
$TDCREATE
 40
2459545.428426157
  9
$TDUCREATE
 40
2459545.053426157
  9
$TDUPDATE
 40
2459545.428426169
  9
$TDUUPDATE
 40
2459545.053426169
  9
$TDINDWG
 40
0.0000000116
  9
$TDUSRTIMER
 40
0.0000000116
  9
$USRTIMER
 70
     1
  9
$ANGBASE
 50
0.0
  9
$ANGDIR
 70
     0
  9
$PDMODE
 70
     0
  9
$PDSIZE
 40
0.0
  9
$PLINEWID
 40
0.0
  9
$SPLFRAME
 70
     0
  9
$SPLINETYPE
 70
     6
  9
$SPLINESEGS
 70
     8
  9
$HANDSEED
  5
114
  9
$SURFTAB1
 70
     6
  9
$SURFTAB2
 70
     6
  9
$SURFTYPE
 70
     6
  9
$SURFU
 70
     6
  9
$SURFV
 70
     6
  9
$UCSBASE
  2

  9
$UCSNAME
  2

  9
$UCSORG
 10
0.0
 20
0.0
 30
0.0
  9
$UCSXDIR
 10
1.0
 20
0.0
 30
0.0
  9
$UCSYDIR
 10
0.0
 20
1.0
 30
0.0
  9
$UCSORTHOREF
  2

  9
$UCSORTHOVIEW
 70
     0
  9
$UCSORGTOP
 10
0.0
 20
0.0
 30
0.0
  9
$UCSORGBOTTOM
 10
0.0
 20
0.0
 30
0.0
  9
$UCSORGLEFT
 10
0.0
 20
0.0
 30
0.0
  9
$UCSORGRIGHT
 10
0.0
 20
0.0
 30
0.0
  9
$UCSORGFRONT
 10
0.0
 20
0.0
 30
0.0
  9
$UCSORGBACK
 10
0.0
 20
0.0
 30
0.0
  9
$PUCSBASE
  2

  9
$PUCSNAME
  2

  9
$PUCSORG
 10
0.0
 20
0.0
 30
0.0
  9
$PUCSXDIR
 10
1.0
 20
0.0
 30
0.0
  9
$PUCSYDIR
 10
0.0
 20
1.0
 30
0.0
  9
$PUCSORTHOREF
  2

  9
$PUCSORTHOVIEW
 70
     0
  9
$PUCSORGTOP
 10
0.0
 20
0.0
 30
0.0
  9
$PUCSORGBOTTOM
 10
0.0
 20
0.0
 30
0.0
  9
$PUCSORGLEFT
 10
0.0
 20
0.0
 30
0.0
  9
$PUCSORGRIGHT
 10
0.0
 20
0.0
 30
0.0
  9
$PUCSORGFRONT
 10
0.0
 20
0.0
 30
0.0
  9
$PUCSORGBACK
 10
0.0
 20
0.0
 30
0.0
  9
$USERI1
 70
     0
  9
$USERI2
 70
     0
  9
$USERI3
 70
     0
  9
$USERI4
 70
     0
  9
$USERI5
 70
     0
  9
$USERR1
 40
0.0
  9
$USERR2
 40
0.0
  9
$USERR3
 40
0.0
  9
$USERR4
 40
0.0
  9
$USERR5
 40
0.0
  9
$WORLDVIEW
 70
     1
  9
$SHADEDGE
 70
     3
  9
$SHADEDIF
 70
    70
  9
$TILEMODE
 70
     1
  9
$MAXACTVP
 70
    64
  9
$PINSBASE
 10
0.0
 20
0.0
 30
0.0
  9
$PLIMCHECK
 70
     0
  9
$PEXTMIN
 10
1.000000000000000E+20
 20
1.000000000000000E+20
 30
1.000000000000000E+20
  9
$PEXTMAX
 10
-1.000000000000000E+20
 20
-1.000000000000000E+20
 30
-1.000000000000000E+20
  9
$PLIMMIN
 10
0.0
 20
0.0
  9
$PLIMMAX
 10
12.0
 20
9.0
  9
$UNITMODE
 70
     0
  9
$VISRETAIN
 70
     1
  9
$PLINEGEN
 70
     0
  9
$PSLTSCALE
 70
     1
  9
$TREEDEPTH
 70
  3020
  9
$CMLSTYLE
  2
Standard
  9
$CMLJUST
 70
     0
  9
$CMLSCALE
 40
1.0
  9
$PROXYGRAPHICS
 70
     1
  9
$MEASUREMENT
 70
     1
  9
$CELWEIGHT
370
    -1
  9
$ENDCAPS
280
     0
  9
$JOINSTYLE
280
     0
  9
$LWDISPLAY
290
     1
  9
$INSUNITS
 70
     4
  9
$HYPERLINKBASE
  1

  9
$STYLESHEET
  1

  9
$XEDIT
290
     1
  9
$CEPSNTYPE
380
     0
  9
$PSTYLEMODE
290
     1
  9
$FINGERPRINTGUID
  2
{207A3FA0-6CD6-4706-8DE8-921A524D39F3}
  9
$VERSIONGUID
  2
{FAEB1C32-E019-11D5-929B-00C0DF256EC4}
  9
$EXTNAMES
290
     1
  9
$PSVPSCALE
 40
0.0
  9
$OLESTARTUP
290
     0
  9
$SORTENTS
280
   127
  9
$INDEXCTL
280
     0
  9
$HIDETEXT
280
     1
  9
$XCLIPFRAME
290
     0
  9
$HALOGAP
280
     0
  9
$OBSCOLOR
 70
   257
  9
$OBSLTYPE
280
     0
  9
$INTERSECTIONDISPLAY
280
     0
  9
$INTERSECTIONCOLOR
 70
   257
  9
$DIMASSOC
280
     2
  9
$PROJECTNAME
  1

  9
$CAMERADISPLAY
290
     0
  9
$LENSLENGTH
 40
50.0
  9
$CAMERAHEIGHT
 40
0.0
  9
$STEPSPERSEC
 40
2.0
  9
$STEPSIZE
 40
6.0
  9
$3DDWFPREC
 40
2.0
  9
$PSOLWIDTH
 40
0.25
  9
$PSOLHEIGHT
 40
4.0
  9
$LOFTANG1
 40
1.570796326794897
  9
$LOFTANG2
 40
1.570796326794897
  9
$LOFTMAG1
 40
0.0
  9
$LOFTMAG2
 40
0.0
  9
$LOFTPARAM
 70
     7
  9
$LOFTNORMALS
280
     1
  9
$LATITUDE
 40
37.795
  9
$LONGITUDE
 40
-122.394
  9
$NORTHDIRECTION
 40
0.0
  9
$TIMEZONE
 70
 -8000
  9
$LIGHTGLYPHDISPLAY
280
     1
  9
$TILEMODELIGHTSYNCH
280
     1
  9
$SOLIDHIST
280
     1
  9
$SHOWHIST
280
     1
  9
$DWFFRAME
280
     2
  9
$DGNFRAME
280
     2
  9
$REALWORLDSCALE
290
     1
  9
$INTERFERECOLOR
 62
   256
  9
$CSHADOW
280
     0
  9
$SHADOWPLANELOCATION
 40
0.0
  0
ENDSEC
  0
SECTION
  2
CLASSES
  0
CLASS
  1
ACDBDICTIONARYWDFLT
  2
AcDbDictionaryWithDefault
  3
ObjectDBX Classes
 90
        0
 91
        4
280
     0
281
     0
  0
CLASS
  1
VISUALSTYLE
  2
AcDbVisualStyle
  3
ObjectDBX Classes
 90
     4095
 91
        4
280
     0
281
     0
  0
ENDSEC
  0
SECTION
  2
TABLES
  0
TABLE
  2
VPORT
  5
8
330
0
100
AcDbSymbolTable
 70
     1
  0
VPORT
  5
29
330
8
100
AcDbSymbolTableRecord
100
AcDbViewportTableRecord
  2
*Active
 70
     0
 10
0.0
 20
0.0
 11
1.0
 21
1.0
 12
155.2500000000001
 22
184.5833333333333
 13
0.0
 23
0.0
 14
0.5
 24
0.5
 15
0.5
 25
0.5
 16
0.0
 26
0.0
 36
1.0
 17
0.0
 27
0.0
 37
0.0
 40
369.1666666666666
 41
1.6
 42
50.0
 43
0.0
 44
0.0
 50
0.0
 51
0.0
 71
     0
 72
   100
 73
     1
 74
     3
 75
     0
 76
     0
 77
     0
 78
     0
281
     0
 65
     1
110
0.0
120
0.0
130
0.0
111
1.0
121
0.0
131
0.0
112
0.0
122
1.0
132
0.0
 79
     0
146
0.0
 60
     3
 61
     5
292
     1
282
     1
141
0.0
142
0.0
 63
   250
  0
ENDTAB
  0
TABLE
  2
LTYPE
  5
5
330
0
100
AcDbSymbolTable
 70
     3
  0
LTYPE
  5
14
330
5
100
AcDbSymbolTableRecord
100
AcDbLinetypeTableRecord
  2
ByBlock
 70
     0
  3

 72
    65
 73
     0
 40
0.0
  0
LTYPE
  5
15
330
5
100
AcDbSymbolTableRecord
100
AcDbLinetypeTableRecord
  2
ByLayer
 70
     0
  3

 72
    65
 73
     0
 40
0.0
  0
LTYPE
  5
16
330
5
100
AcDbSymbolTableRecord
100
AcDbLinetypeTableRecord
  2
Continuous
 70
     0
  3
Solid line
 72
    65
 73
     0
 40
0.0
  0
LTYPE
  5
3D
330
5
100
AcDbSymbolTableRecord
100
AcDbLinetypeTableRecord
  2
________________
 70
     0
  3

 72
    65
 73
     0
 40
0.0
  0
LTYPE
  5
10D
330
5
100
AcDbSymbolTableRecord
100
AcDbLinetypeTableRecord
  2
______....__....
 70
     0
  3

 72
    65
 73
     4
 40
6.0
 49
2.25
 74
     0
 49
-1.5
 74
     0
 49
0.7499999999999999
 74
     0
 49
-1.5
 74
     0
  0
ENDTAB
  0
TABLE
  2
LAYER
  5
2
330
0
100
AcDbSymbolTable
 70
     2
  0
LAYER
  5
10
330
2
100
AcDbSymbolTableRecord
100
AcDbLayerTableRecord
  2
0
 70
     0
 62
     7
  6
Continuous
370
    -3
390
F
347
0
  0
LAYER
  5
3B
330
2
100
AcDbSymbolTableRecord
100
AcDbLayerTableRecord
  2
1
 70
     0
 62
     7
  6
Continuous
370
    -3
390
F
347
0
  0
ENDTAB
  0
TABLE
  2
STYLE
  5
3
330
0
100
AcDbSymbolTable
 70
     1
  0
STYLE
  5
11
330
3
100
AcDbSymbolTableRecord
100
AcDbTextStyleTableRecord
  2
Standard
 70
     0
 40
0.0
 41
1.0
 50
0.0
 71
     0
 42
0.2
  3
txt
  4

  0
ENDTAB
  0
TABLE
  2
VIEW
  5
6
330
0
100
AcDbSymbolTable
 70
     0
  0
ENDTAB
  0
TABLE
  2
UCS
  5
7
330
0
100
AcDbSymbolTable
 70
     0
  0
ENDTAB
  0
TABLE
  2
APPID
  5
9
330
0
100
AcDbSymbolTable
 70
     1
  0
APPID
  5
12
330
9
100
AcDbSymbolTableRecord
100
AcDbRegAppTableRecord
  2
ACAD
 70
     0
  0
ENDTAB
  0
TABLE
  2
DIMSTYLE
  5
A
330
0
100
AcDbSymbolTable
 70
     1
100
AcDbDimStyleTable
  0
DIMSTYLE
105
27
330
A
100
AcDbSymbolTableRecord
100
AcDbDimStyleTableRecord
  2
Standard
 70
     0
340
11
  0
ENDTAB
  0
TABLE
  2
BLOCK_RECORD
  5
1
330
0
100
AcDbSymbolTable
 70
     1
  0
BLOCK_RECORD
  5
1F
330
1
100
AcDbSymbolTableRecord
100
AcDbBlockTableRecord
  2
*Model_Space
340
22
 70
     0
280
     1
281
     0
  0
BLOCK_RECORD
  5
1B
330
1
100
AcDbSymbolTableRecord
100
AcDbBlockTableRecord
  2
*Paper_Space
340
1E
 70
     0
280
     1
281
     0
  0
BLOCK_RECORD
  5
23
330
1
100
AcDbSymbolTableRecord
100
AcDbBlockTableRecord
  2
*Paper_Space0
340
26
 70
     0
280
     1
281
     0
  0
ENDTAB
  0
ENDSEC
  0
SECTION
  2
BLOCKS
  0
BLOCK
  5
20
330
1F
100
AcDbEntity
  8
0
100
AcDbBlockBegin
  2
*Model_Space
 70
     0
 10
0.0
 20
0.0
 30
0.0
  3
*Model_Space
  1

  0
ENDBLK
  5
21
330
1F
100
AcDbEntity
  8
0
100
AcDbBlockEnd
  0
BLOCK
  5
1C
330
1B
100
AcDbEntity
 67
     1
  8
0
100
AcDbBlockBegin
  2
*Paper_Space
 70
     0
 10
0.0
 20
0.0
 30
0.0
  3
*Paper_Space
  1

  0
ENDBLK
  5
1D
330
1B
100
AcDbEntity
 67
     1
  8
0
100
AcDbBlockEnd
  0
BLOCK
  5
24
330
23
100
AcDbEntity
  8
0
100
AcDbBlockBegin
  2
*Paper_Space0
 70
     0
 10
0.0
 20
0.0
 30
0.0
  3
*Paper_Space0
  1

  0
ENDBLK
  5
25
330
23
100
AcDbEntity
  8
0
100
AcDbBlockEnd
  0
ENDSEC
  0
SECTION
  2
ENTITIES
  0
LINE
  5
3C
330
1F
100
AcDbEntity
  8
1
  6
________________
 62
     7
370
     0
100
AcDbLine
 10
208.2496124446011
 20
329.1666666666666
 30
0.0
 11
208.2496124446011
 21
339.1666666666667
 31
0.0
  0
LINE
  5
3E
330
1F
100
AcDbEntity
  8
1
  6
________________
 62
     7
370
     0
100
AcDbLine
 10
209.7496124446011
 20
337.6666666666667
 30
0.0
 11
209.7496124446011
 21
330.6666666666667
 31
0.0
  0
LINE
  5
3F
330
1F
100
AcDbEntity
  8
1
  6
________________
 62
     7
370
     0
100
AcDbLine
 10
200.7496124446011
 20
334.1666666666667
 30
0.0
 11
199.1170604404663
 21
334.1666666666667
 31
0.0
  0
ARC
  5
40
330
1F
100
AcDbEntity
  8
1
  6
________________
 62
     7
370
     0
100
AcDbCircle
 10
214.6721124446011
 20
334.1666666666667
 30
0.0
 40
13.9225
100
AcDbArc
 50
179.9999999999999
 51
260.0711336379798
  0
LINE
  5
41
330
1F
100
AcDbEntity
  8
1
  6
________________
 62
     7
370
     0
100
AcDbLine
 10
200.7496124446011
 20
325.4407363019791
 30
0.0
 11
200.7280501434192
 21
325.5878697371242
 31
0.0
  0
ARC
  5
42
330
1F
100
AcDbEntity
  8
1
  6
________________
 62
     7
370
     0
100
AcDbCircle
 10
-218.508905036302
 20
333.3675499161684
 30
0.0
 40
19.40830297604532
210
0.0
220
0.0
230
-1.0
100
AcDbArc
 50
336.3691180625562
 51
2.359761380493751
  0
ARC
  5
43
330
1F
100
AcDbEntity
  8
1
  6
________________
 62
     7
370
     0
100
AcDbCircle
 10
214.6721124446011
 20
334.1666666666667
 30
0.0
 40
13.92249999999998
100
AcDbArc
 50
99.92886636202016
 51
179.9999999999999
  0
ARC
  5
44
330
1F
100
AcDbEntity
  8
1
  6
________________
 62
     7
370
     0
100
AcDbCircle
 10
-218.5253927319906
 20
334.9650744058893
 30
0.0
 40
19.42474754678364
210
0.0
220
0.0
230
-1.0
100
AcDbArc
 50
357.6443305611806
 51
23.62701453103483
  0
LINE
  5
45
330
1F
100
AcDbEntity
  8
1
  6
________________
 62
     7
370
     0
100
AcDbLine
 10
200.7289466732229
 20
342.7501450499907
 30
0.0
 11
200.7496124446003
 21
342.8925970313544
 31
0.0
  0
LINE
  5
46
330
1F
100
AcDbEntity
  8
1
  6
________________
 62
     7
370
     0
100
AcDbLine
 10
200.3953301410358
 20
321.5728506872783
 30
0.0
 11
200.7496124446003
 21
321.5491556219087
 31
0.0
  0
LINE
  5
47
330
1F
100
AcDbEntity
  8
1
  6
________________
 62
     7
370
     0
100
AcDbLine
 10
200.3953301410358
 20
321.5728506872783
 30
0.0
 11
186.2496124446011
 21
321.8197651081257
 31
0.0
  0
LINE
  5
48
330
1F
100
AcDbEntity
  8
1
  6
________________
 62
     7
370
     0
100
AcDbLine
 10
199.1170604404663
 20
334.1666666666667
 30
0.0
 11
187.7496124446011
 21
334.1666666666667
 31
0.0
  0
LINE
  5
49
330
1F
100
AcDbEntity
  8
1
  6
________________
 62
     7
370
     0
100
AcDbLine
 10
200.7496124446011
 20
321.5491556219087
 30
0.0
 11
200.7496124446011
 21
325.4407363019791
 31
0.0
  0
LINE
  5
4A
330
1F
100
AcDbEntity
  8
1
  6
________________
 62
     7
370
     0
100
AcDbLine
 10
200.3953301410357
 20
346.760482646055
 30
0.0
 11
186.2496124446011
 21
346.5135682252076
 31
0.0
  0
LINE
  5
4B
330
1F
100
AcDbEntity
  8
1
  6
________________
 62
     7
370
     0
100
AcDbLine
 10
200.7496124446002
 20
346.7841777114245
 30
0.0
 11
200.3953301410357
 21
346.760482646055
 31
0.0
  0
LINE
  5
4C
330
1F
100
AcDbEntity
  8
1
  6
________________
 62
     7
370
     0
100
AcDbLine
 10
200.7496124446011
 20
346.7841777114245
 30
0.0
 11
200.7496124446011
 21
342.8925970313541
 31
0.0
  0
ARC
  5
4D
330
1F
100
AcDbEntity
  8
1
  6
________________
 62
     7
370
     0
100
AcDbCircle
 10
-200.0908794878099
 20
316.9957106578052
 30
0.0
 40
4.600846677458637
210
0.0
220
0.0
230
-1.0
100
AcDbArc
 50
98.23169646081598
 51
129.8796367924999
  0
ARC
  5
4E
330
1F
100
AcDbEntity
  8
1
  6
________________
 62
     7
370
     0
100
AcDbCircle
 10
-200.1055639045383
 20
351.304726986536
 30
0.0
 40
4.566198010453132
210
0.0
220
0.0
230
-1.0
100
AcDbArc
 50
229.9971030084895
 51
261.8915637381959
  0
ARC
  5
4F
330
1F
100
AcDbEntity
  8
1
  6
________________
 62
     7
370
     0
100
AcDbCircle
 10
199.5417583416712
 20
319.5874451823693
 30
0.0
 40
2.000000000000002
100
AcDbArc
 50
28.21129889989129
 51
88.99999999999994
  0
ARC
  5
50
330
1F
100
AcDbEntity
  8
1
  6
________________
 62
     7
370
     0
100
AcDbCircle
 10
199.5417583416712
 20
348.745888150964
 30
0.0
 40
2.000000000000002
100
AcDbArc
 50
271.0000000000002
 51
331.7887011001089
  0
LINE
  5
51
330
1F
100
AcDbEntity
  8
1
  6
________________
 62
     7
370
     0
100
AcDbLine
 10
203.4575079613329
 20
316.518853370566
 30
0.0
 11
201.3041788346677
 21
320.5328942851062
 31
0.0
  0
LINE
  5
52
330
1F
100
AcDbEntity
  8
1
  6
________________
 62
     7
370
     0
100
AcDbLine
 10
201.3041788346677
 20
347.8004390482271
 30
0.0
 11
203.4575079613329
 21
351.8144799627673
 31
0.0
  0
LINE
  5
53
330
1F
100
AcDbEntity
  8
1
  6
________________
 62
     7
370
     0
100
AcDbLine
 10
212.2715199609218
 20
320.4526897825785
 30
0.0
 11
218.0890507424056
 21
319.4343476353195
 31
0.0
  0
LINE
  5
54
330
1F
100
AcDbEntity
  8
1
  6
________________
 62
     7
370
     0
100
AcDbLine
 10
218.0890507424056
 20
348.8989856980138
 30
0.0
 11
212.2715199609218
 21
347.8806435507548
 31
0.0
  0
LINE
  5
55
330
1F
100
AcDbEntity
  8
1
  6
________________
 62
     7
370
     0
100
AcDbLine
 10
220.4738663384271
 20
319.0168924767497
 30
0.0
 11
218.0890507424056
 21
319.4343476353195
 31
0.0
  0
LINE
  5
56
330
1F
100
AcDbEntity
  8
1
  6
________________
 62
     7
370
     0
100
AcDbLine
 10
218.0890507424057
 20
348.8989856980138
 30
0.0
 11
220.4738663384271
 21
349.3164408565837
 31
0.0
  0
ARC
  5
57
330
1F
100
AcDbEntity
  8
1
  6
________________
 62
     7
370
     0
100
AcDbCircle
 10
-218.7496124446011
 20
359.1666666666666
 30
0.0
 40
9.99999999999998
210
0.0
220
0.0
230
-1.0
100
AcDbArc
 50
212.3677211014582
 51
260.0711336379798
  0
ARC
  5
58
330
1F
100
AcDbEntity
  8
1
  6
________________
 62
     7
370
     0
100
AcDbCircle
 10
-218.749612444601
 20
309.1666666666667
 30
0.0
 40
9.99999999999998
210
0.0
220
0.0
230
-1.0
100
AcDbArc
 50
99.9288663620202
 51
147.6322788985418
  0
LINE
  5
59
330
1F
100
AcDbEntity
  8
1
  6
________________
 62
     7
370
     0
100
AcDbLine
 10
203.4575079613329
 20
316.518853370566
 30
0.0
 11
205.6112590510015
 21
312.5040258708545
 31
0.0
  0
LINE
  5
5A
330
1F
100
AcDbEntity
  8
1
  6
________________
 62
     7
370
     0
100
AcDbLine
 10
205.6112590510015
 20
355.8293074624788
 30
0.0
 11
203.4575079613329
 21
351.8144799627673
 31
0.0
  0
ARC
  5
5B
330
1F
100
AcDbEntity
  8
1
  6
________________
 62
     7
370
     0
100
AcDbCircle
 10
-218.7496124446008
 20
309.1666666666666
 30
0.0
 40
10.00000000000023
210
0.0
220
0.0
230
-1.0
100
AcDbArc
 50
147.632278898542
 51
179.9999999999995
  0
ARC
  5
5C
330
1F
100
AcDbEntity
  8
1
  6
________________
 62
     7
370
     0
100
AcDbCircle
 10
-218.7496124446009
 20
359.1666666666667
 30
0.0
 40
10.00000000000015
210
0.0
220
0.0
230
-1.0
100
AcDbArc
 50
180.0000000000003
 51
212.3677211014581
  0
ARC
  5
5D
330
1F
100
AcDbEntity
  8
1
  6
________________
 62
     7
370
     0
100
AcDbCircle
 10
-218.7497321484727
 20
309.1668667220239
 30
0.0
 40
10.00020005607366
210
0.0
220
0.0
230
-1.0
100
AcDbArc
 50
270.000685838943
 51
331.7880152611658
  0
ARC
  5
5E
330
1F
100
AcDbEntity
  8
1
  6
________________
 62
     7
370
     0
100
AcDbCircle
 10
-218.7497465673243
 20
359.1664425137722
 30
0.0
 40
10.00022415379384
210
0.0
220
0.0
230
-1.0
100
AcDbArc
 50
28.21206734926379
 51
89.99923155062753
  0
ARC
  5
5F
330
1F
100
AcDbEntity
  8
1
  6
________________
 62
     7
370
     0
100
AcDbCircle
 10
-224.7495792463514
 20
303.1666998649163
 30
0.0
 40
4.000033198387431
210
0.0
220
0.0
230
-1.0
100
AcDbArc
 50
180.0004755259515
 51
269.9995244740481
  0
ARC
  5
60
330
1F
100
AcDbEntity
  8
1
  6
________________
 62
     7
370
     0
100
AcDbCircle
 10
-224.7495751395338
 20
365.1666293615994
 30
0.0
 40
4.00003730524115
210
0.0
220
0.0
230
-1.0
100
AcDbArc
 50
90.00053435074287
 51
179.9994656492572
  0
LINE
  5
61
330
1F
100
AcDbEntity
  8
1
  6
________________
 62
     7
370
     0
100
AcDbLine
 10
205.6112590510015
 20
312.5040258708546
 30
0.0
 11
209.9375099796186
 21
304.4394211529824
 31
0.0
  0
LINE
  5
62
330
1F
100
AcDbEntity
  8
1
  6
________________
 62
     7
370
     0
100
AcDbLine
 10
209.9375099796185
 20
363.8939121803509
 30
0.0
 11
205.6112590510015
 21
355.8293074624788
 31
0.0
  0
LINE
  5
63
330
1F
100
AcDbEntity
  8
1
  6
________________
 62
     7
370
     0
100
AcDbLine
 10
224.7496124446011
 20
299.1666666666667
 30
0.0
 11
218.7496124446011
 21
299.1666666666667
 31
0.0
  0
LINE
  5
64
330
1F
100
AcDbEntity
  8
1
  6
________________
 62
     7
370
     0
100
AcDbLine
 10
218.7496124446011
 20
369.1666666666666
 30
0.0
 11
224.7496124446011
 21
369.1666666666666
 31
0.0
  0
LINE
  5
65
330
1F
100
AcDbEntity
  8
1
  6
________________
 62
     7
370
     0
100
AcDbLine
 10
228.7496124446011
 20
303.1666666666667
 30
0.0
 11
228.7496124446011
 21
309.1666666666667
 31
0.0
  0
LINE
  5
66
330
1F
100
AcDbEntity
  8
1
  6
________________
 62
     7
370
     0
100
AcDbLine
 10
228.7496124446011
 20
359.1666666666666
 30
0.0
 11
228.7496124446011
 21
365.1666666666666
 31
0.0
  0
LINE
  5
67
330
1F
100
AcDbEntity
  8
1
  6
________________
 62
     7
370
     0
100
AcDbLine
 10
179.7496124446011
 20
357.6666666666666
 30
0.0
 11
179.7496124446011
 21
310.6666666666667
 31
0.0
  0
LINE
  5
68
330
1F
100
AcDbEntity
  8
1
  6
________________
 62
     7
370
     0
100
AcDbLine
 10
186.2496124446011
 20
354.6051169552862
 30
0.0
 11
186.2496124446011
 21
313.7282163780472
 31
0.0
  0
LINE
  5
69
330
1F
100
AcDbEntity
  8
1
  6
________________
 62
     7
370
     0
100
AcDbLine
 10
144.7496124446011
 20
350.6666666666667
 30
0.0
 11
144.7496124446011
 21
317.6666666666666
 31
0.0
  0
LINE
  5
6A
330
1F
100
AcDbEntity
  8
1
  6
________________
 62
     7
370
     0
100
AcDbLine
 10
144.7496124446011
 20
317.6666666666666
 30
0.0
 11
144.7496124446011
 21
350.6666666666667
 31
0.0
  0
LINE
  5
6B
330
1F
100
AcDbEntity
  8
1
  6
________________
 62
     7
370
     0
100
AcDbLine
 10
138.7496124446011
 20
319.7367915824674
 30
0.0
 11
138.7496124446011
 21
348.596541750866
 31
0.0
  0
LINE
  5
6C
330
1F
100
AcDbEntity
  8
1
  6
________________
 62
     7
370
     0
100
AcDbLine
 10
138.7496124446011
 20
347.1666666666667
 30
0.0
 11
133.6623504124147
 21
347.077868177588
 31
0.0
  0
LINE
  5
6D
330
1F
100
AcDbEntity
  8
1
  6
________________
 62
     7
370
     0
100
AcDbLine
 10
138.7496124446011
 20
344.1666666666667
 30
0.0
 11
133.6623504124147
 21
344.2554651557454
 31
0.0
  0
LINE
  5
6E
330
1F
100
AcDbEntity
  8
1
  6
________________
 62
     7
370
     0
100
AcDbLine
 10
128.7503875553989
 20
344.3412037863395
 30
0.0
 11
128.7503875553989
 21
346.9921295469937
 31
0.0
  0
LINE
  5
6F
330
1F
100
AcDbEntity
  8
1
  6
________________
 62
     7
370
     0
100
AcDbLine
 10
128.7503875553993
 20
346.9921295469938
 30
0.0
 11
133.6623504124147
 21
347.077868177588
 31
0.0
  0
LINE
  5
70
330
1F
100
AcDbEntity
  8
1
  6
________________
 62
     7
370
     0
100
AcDbLine
 10
133.6623504124147
 20
344.2554651557454
 30
0.0
 11
128.7503875553993
 21
344.3412037863395
 31
0.0
  0
LINE
  5
71
330
1F
100
AcDbEntity
  8
1
  6
________________
 62
     7
370
     0
100
AcDbLine
 10
208.2496124446011
 20
339.1666666666667
 30
0.0
 11
201.6784214274189
 21
339.1666666666667
 31
0.0
  0
LINE
  5
72
330
1F
100
AcDbEntity
  8
1
  6
________________
 62
     7
370
     0
100
AcDbLine
 10
201.6784214274189
 20
329.1666666666666
 30
0.0
 11
208.2496124446011
 21
329.1666666666666
 31
0.0
  0
LINE
  5
73
330
1F
100
AcDbEntity
  8
1
  6
________________
 62
     7
370
     0
100
AcDbLine
 10
208.2496124446011
 20
329.1666666666666
 30
0.0
 11
208.9996124446011
 21
329.9166666666666
 31
0.0
  0
LINE
  5
74
330
1F
100
AcDbEntity
  8
1
  6
________________
 62
     7
370
     0
100
AcDbLine
 10
208.9996124446011
 20
329.9166666666667
 30
0.0
 11
209.7496124446011
 21
330.6666666666667
 31
0.0
  0
LINE
  5
75
330
1F
100
AcDbEntity
  8
1
  6
________________
 62
     7
370
     0
100
AcDbLine
 10
209.7496124446011
 20
337.6666666666667
 30
0.0
 11
208.9996124446011
 21
338.4166666666666
 31
0.0
  0
LINE
  5
76
330
1F
100
AcDbEntity
  8
1
  6
________________
 62
     7
370
     0
100
AcDbLine
 10
208.9996124446011
 20
338.4166666666667
 30
0.0
 11
208.2496124446011
 21
339.1666666666667
 31
0.0
  0
LINE
  5
77
330
1F
100
AcDbEntity
  8
1
  6
________________
 62
     7
370
     0
100
AcDbLine
 10
179.7496124446011
 20
310.6666666666667
 30
0.0
 11
183.3019696639129
 21
310.728673292578
 31
0.0
  0
LINE
  5
78
330
1F
100
AcDbEntity
  8
1
  6
________________
 62
     7
370
     0
100
AcDbLine
 10
183.3019696639129
 20
357.6046600407553
 30
0.0
 11
179.7496124446011
 21
357.6666666666667
 31
0.0
  0
ARC
  5
79
330
1F
100
AcDbEntity
  8
1
  6
________________
 62
     7
370
     0
100
AcDbCircle
 10
183.2496124446011
 20
354.6051169552862
 30
0.0
 40
2.999999999999999
100
AcDbArc
 50
0.0
 51
89.00000000000003
  0
ARC
  5
7A
330
1F
100
AcDbEntity
  8
1
  6
________________
 62
     7
370
     0
100
AcDbCircle
 10
183.2496124446011
 20
313.7282163780471
 30
0.0
 40
3.0
100
AcDbArc
 50
271.0
 51
0.0
  0
LINE
  5
7B
330
1F
100
AcDbEntity
  8
1
  6
________________
 62
     7
370
     0
100
AcDbLine
 10
144.7496124446011
 20
317.6666666666666
 30
0.0
 11
179.7496124446011
 21
317.6666666666666
 31
0.0
  0
LINE
  5
7C
330
1F
100
AcDbEntity
  8
1
  6
________________
 62
     7
370
     0
100
AcDbLine
 10
179.7496124446011
 20
350.6666666666667
 30
0.0
 11
144.7496124446011
 21
350.6666666666667
 31
0.0
  0
LINE
  5
7D
330
1F
100
AcDbEntity
  8
1
  6
________________
 62
     7
370
     0
100
AcDbLine
 10
144.7496124446011
 20
350.6666666666667
 30
0.0
 11
140.7147076317265
 21
350.5962371411787
 31
0.0
  0
LINE
  5
7E
330
1F
100
AcDbEntity
  8
1
  6
________________
 62
     7
370
     0
100
AcDbLine
 10
140.7147076317265
 20
317.7370961921546
 30
0.0
 11
144.7496124446011
 21
317.6666666666666
 31
0.0
  0
ARC
  5
7F
330
1F
100
AcDbEntity
  8
1
  6
________________
 62
     7
370
     0
100
AcDbCircle
 10
140.7496124446011
 20
319.7367915824674
 30
0.0
 40
2.000000000000002
100
AcDbArc
 50
180.0
 51
269.0
  0
ARC
  5
80
330
1F
100
AcDbEntity
  8
1
  6
________________
 62
     7
370
     0
100
AcDbCircle
 10
140.7496124446011
 20
348.596541750866
 30
0.0
 40
2.000000000000024
100
AcDbArc
 50
91.00000000000024
 51
180.0000000000002
  0
CIRCLE
  5
81
330
1F
100
AcDbEntity
  8
1
  6
________________
 62
     9
420
 12632256
370
     0
100
AcDbCircle
 10
285.0
 20
334.1666666666667
 30
0.0
 40
4.249999999999976
  0
CIRCLE
  5
82
330
1F
100
AcDbEntity
  8
1
  6
________________
 62
     7
370
     0
100
AcDbCircle
 10
285.0
 20
334.1666666666667
 30
0.0
 40
3.500000000000003
  0
CIRCLE
  5
83
330
1F
100
AcDbEntity
  8
1
  6
________________
 62
     7
370
     0
100
AcDbCircle
 10
-285.0
 20
334.1666666666667
 30
0.0
 40
5.000000000000004
210
0.0
220
0.0
230
-1.0
  0
LINE
  5
84
330
1F
100
AcDbEntity
  8
1
  6
________________
 62
     7
370
     0
100
AcDbLine
 10
289.9074772881118
 20
342.6666666666667
 30
0.0
 11
280.0925227118882
 21
342.6666666666667
 31
0.0
  0
LINE
  5
85
330
1F
100
AcDbEntity
  8
1
  6
________________
 62
     7
370
     0
100
AcDbLine
 10
294.772961782434
 20
334.239400319062
 30
0.0
 11
289.9074772881118
 21
342.6666666666667
 31
0.0
  0
LINE
  5
86
330
1F
100
AcDbEntity
  8
1
  6
________________
 62
     7
370
     0
100
AcDbLine
 10
289.9074772881118
 20
325.6666666666666
 30
0.0
 11
294.7729164228649
 21
334.0938544491928
 31
0.0
  0
LINE
  5
87
330
1F
100
AcDbEntity
  8
1
  6
________________
 62
     7
370
     0
100
AcDbLine
 10
280.0925227118882
 20
325.6666666666666
 30
0.0
 11
289.9074772881118
 21
325.6666666666666
 31
0.0
  0
LINE
  5
88
330
1F
100
AcDbEntity
  8
1
  6
________________
 62
     7
370
     0
100
AcDbLine
 10
275.227016958292
 20
334.093969836414
 30
0.0
 11
280.0925227118882
 21
325.6666666666666
 31
0.0
  0
LINE
  5
89
330
1F
100
AcDbEntity
  8
1
  6
________________
 62
     7
370
     0
100
AcDbLine
 10
280.0925227118882
 20
342.6666666666667
 30
0.0
 11
275.2270835771353
 21
334.2394788841406
 31
0.0
  0
CIRCLE
  5
8A
330
1F
100
AcDbEntity
  8
1
  6
________________
 62
     7
370
     0
100
AcDbCircle
 10
285.0
 20
334.1666666666667
 30
0.0
 40
8.075
  0
LINE
  5
8B
330
1F
100
AcDbEntity
  8
1
  6
________________
 62
     7
370
     0
100
AcDbLine
 10
281.9378069593859
 20
301.4756180407638
 30
0.0
 11
282.1834075945901
 21
303.3714377195391
 31
0.0
  0
ARC
  5
8C
330
1F
100
AcDbEntity
  8
1
  6
________________
 62
     7
370
     0
100
AcDbCircle
 10
283.9138001396482
 20
301.1666666666666
 30
0.0
 40
1.999999999999986
100
AcDbArc
 50
171.1136109036468
 51
270.0000000000002
  0
ARC
  5
8D
330
1F
100
AcDbEntity
  8
1
  6
________________
 62
     7
370
     0
100
AcDbCircle
 10
245.9797036225
 20
361.2355777534227
 30
0.0
 40
36.3949670434702
100
AcDbArc
 50
350.4777245353981
 51
356.9111234403214
  0
LINE
  5
8E
330
1F
100
AcDbEntity
  8
1
  6
________________
 62
     7
370
     0
100
AcDbLine
 10
283.9138001396482
 20
299.1666666666667
 30
0.0
 11
286.0861998603518
 21
299.1666666666667
 31
0.0
  0
LINE
  5
8F
330
1F
100
AcDbEntity
  8
1
  6
________________
 62
     7
370
     0
100
AcDbLine
 10
288.0621930406143
 20
366.8577152925695
 30
0.0
 11
287.8165924054099
 21
364.9618956137942
 31
0.0
  0
ARC
  5
90
330
1F
100
AcDbEntity
  8
1
  6
________________
 62
     7
370
     0
100
AcDbCircle
 10
286.0861998603518
 20
367.1666666666666
 30
0.0
 40
2.000000000000024
100
AcDbArc
 50
351.1136109036498
 51
89.99999999999982
  0
ARC
  5
91
330
1F
100
AcDbEntity
  8
1
  6
________________
 62
     7
370
     0
100
AcDbCircle
 10
245.979703622515
 20
361.2355777534211
 30
0.0
 40
36.39496704345513
100
AcDbArc
 50
356.9111234403226
 51
5.876556331633594
  0
ARC
  5
92
330
1F
100
AcDbEntity
  8
1
  6
________________
 62
     7
370
     0
100
AcDbCircle
 10
324.0202963774752
 20
361.2355777534204
 30
0.0
 40
36.39496704344523
100
AcDbArc
 50
183.0888765596773
 51
189.522275464605
  0
LINE
  5
93
330
1F
100
AcDbEntity
  8
1
  6
________________
 62
     7
370
     0
100
AcDbLine
 10
287.8165924054099
 20
303.3714377195391
 30
0.0
 11
288.0621930406143
 21
301.4756180407638
 31
0.0
  0
ARC
  5
94
330
1F
100
AcDbEntity
  8
1
  6
________________
 62
     7
370
     0
100
AcDbCircle
 10
286.0861998603518
 20
301.1666666666667
 30
0.0
 40
2.000000000000002
100
AcDbArc
 50
270.0000000000002
 51
8.886389096351422
  0
ARC
  5
95
330
1F
100
AcDbEntity
  8
1
  6
________________
 62
     7
370
     0
100
AcDbCircle
 10
245.979703622515
 20
307.0977555799122
 30
0.0
 40
36.39496704345515
100
AcDbArc
 50
354.1234436683664
 51
3.088876559677431
  0
LINE
  5
96
330
1F
100
AcDbEntity
  8
1
  6
________________
 62
     7
370
     0
100
AcDbLine
 10
282.1834075945902
 20
364.9618956137942
 30
0.0
 11
281.9378069593859
 21
366.8577152925695
 31
0.0
  0
ARC
  5
97
330
1F
100
AcDbEntity
  8
1
  6
________________
 62
     7
370
     0
100
AcDbCircle
 10
283.9138001396482
 20
367.1666666666666
 30
0.0
 40
2.000000000000002
100
AcDbArc
 50
89.99999999999982
 51
188.8863890963516
  0
ARC
  5
98
330
1F
100
AcDbEntity
  8
1
  6
________________
 62
     7
370
     0
100
AcDbCircle
 10
245.9797036225
 20
307.0977555799107
 30
0.0
 40
36.3949670434702
100
AcDbArc
 50
3.088876559678738
 51
9.52227546460206
  0
ARC
  5
99
330
1F
100
AcDbEntity
  8
1
  6
________________
 62
     7
370
     0
100
AcDbCircle
 10
324.0202963774851
 20
307.0977555799122
 30
0.0
 40
36.39496704345518
100
AcDbArc
 50
180.0
 51
185.8765563316336
  0
ARC
  5
9A
330
1F
100
AcDbEntity
  8
1
  6
________________
 62
     7
370
     0
100
AcDbCircle
 10
324.0202963774851
 20
307.0977555799122
 30
0.0
 40
36.39496704345518
100
AcDbArc
 50
176.9111234403225
 51
180.0
  0
LINE
  5
9B
330
1F
100
AcDbEntity
  8
1
  6
________________
 62
     7
370
     0
100
AcDbLine
 10
283.9138001396482
 20
369.1666666666666
 30
0.0
 11
286.0861998603518
 21
369.1666666666666
 31
0.0
  0
ARC
  5
9C
330
1F
100
AcDbEntity
  8
1
  6
________________
 62
     7
370
     0
100
AcDbCircle
 10
324.0202963774751
 20
307.0977555799129
 30
0.0
 40
36.39496704344516
100
AcDbArc
 50
170.4777245353951
 51
176.9111234403227
  0
ARC
  5
9D
330
1F
100
AcDbEntity
  8
1
  6
________________
 62
     7
370
     0
100
AcDbCircle
 10
324.0202963774851
 20
361.2355777534211
 30
0.0
 40
36.39496704345518
100
AcDbArc
 50
180.0
 51
183.0888765596775
  0
ARC
  5
9E
330
1F
100
AcDbEntity
  8
1
  6
________________
 62
     7
370
     0
100
AcDbCircle
 10
324.0202963774851
 20
361.2355777534211
 30
0.0
 40
36.39496704345515
100
AcDbArc
 50
174.1234436683663
 51
180.0
  0
ARC
  5
9F
330
1F
100
AcDbEntity
  8
1
  6
________________
 62
     7
370
     0
100
AcDbCircle
 10
297.9889825286256
 20
356.869019550613
 30
0.0
 40
9.999965031024397
100
AcDbArc
 50
189.5222433694231
 51
207.7239798202468
  0
ARC
  5
A0
330
1F
100
AcDbEntity
  8
1
  6
________________
 62
     7
370
     0
100
AcDbCircle
 10
272.011022775808
 20
311.4643155702416
 30
0.0
 40
9.999959503967782
100
AcDbArc
 50
9.522238296567336
 51
27.7239848931048
  0
ARC
  5
A1
330
1F
100
AcDbEntity
  8
1
  6
________________
 62
     7
370
     0
100
AcDbCircle
 10
297.9889843337583
 20
311.4643131744153
 30
0.0
 40
9.999966911917133
100
AcDbArc
 50
152.2760219060776
 51
170.4777549042527
  0
ARC
  5
A2
330
1F
100
AcDbEntity
  8
1
  6
________________
 62
     7
370
     0
100
AcDbCircle
 10
272.0110279205129
 20
356.8690160293967
 30
0.0
 40
9.999954143343576
100
AcDbArc
 50
332.2760101867885
 51
350.4777666235396
  0
ARC
  5
A3
330
1F
100
AcDbEntity
  8
1
  6
________________
 62
     7
370
     0
100
AcDbCircle
 10
272.0109839109085
 20
356.8690308600304
 30
0.0
 40
9.999999999999998
100
AcDbArc
 50
330.0
 51
332.2760522749326
  0
ARC
  5
A4
330
1F
100
AcDbEntity
  8
1
  6
________________
 62
     7
370
     0
100
AcDbCircle
 10
272.0109839109085
 20
311.4643024733029
 30
0.0
 40
9.999999999999996
100
AcDbArc
 50
27.72394772506746
 51
30.00000000000005
  0
ARC
  5
A5
330
1F
100
AcDbEntity
  8
1
  6
________________
 62
     7
370
     0
100
AcDbCircle
 10
297.9890160890916
 20
311.4643024733029
 30
0.0
 40
9.999999999999996
100
AcDbArc
 50
149.9999999999999
 51
152.2760522749325
  0
ARC
  5
A6
330
1F
100
AcDbEntity
  8
1
  6
________________
 62
     7
370
     0
100
AcDbCircle
 10
297.9890160890916
 20
356.8690308600304
 30
0.0
 40
9.999999999999998
100
AcDbArc
 50
207.7239477250675
 51
210.0000000000001
  0
LINE
  5
A7
330
1F
100
AcDbEntity
  8
1
  6
________________
 62
     7
370
     0
100
AcDbLine
 10
280.6712379487528
 20
316.4643024733029
 30
0.0
 11
280.0832978359057
 21
317.482644620562
 31
0.0
  0
LINE
  5
A8
330
1F
100
AcDbEntity
  8
1
  6
________________
 62
     7
370
     0
100
AcDbLine
 10
280.0832978359057
 20
350.8506887127713
 30
0.0
 11
280.6712379487528
 21
351.8690308600304
 31
0.0
  0
LINE
  5
A9
330
1F
100
AcDbEntity
  8
1
  6
________________
 62
     7
370
     0
100
AcDbLine
 10
289.9167021640944
 20
317.482644620562
 30
0.0
 11
289.3287620512472
 21
316.4643024733029
 31
0.0
  0
LINE
  5
AA
330
1F
100
AcDbEntity
  8
1
  6
________________
 62
     7
370
     0
100
AcDbLine
 10
289.3287620512472
 20
351.8690308600304
 30
0.0
 11
289.9167021640944
 21
350.8506887127713
 31
0.0
  0
LINE
  5
AB
330
1F
100
AcDbEntity
  8
1
  6
________________
 62
     7
370
     0
100
AcDbLine
 10
297.2398257068201
 20
334.1666666666667
 30
0.0
 11
299.5163220892055
 21
334.1666666666667
 31
0.0
  0
LINE
  5
AC
330
1F
100
AcDbEntity
  8
1
  6
________________
 62
     7
370
     0
100
AcDbLine
 10
299.5163220892055
 20
334.1666666666667
 30
0.0
 11
294.5113085385963
 21
325.440736301979
 31
0.0
  0
LINE
  5
AD
330
1F
100
AcDbEntity
  8
1
  6
________________
 62
     7
370
     0
100
AcDbLine
 10
289.9167021640944
 20
317.482644620562
 30
0.0
 11
294.5113085385963
 21
325.4407363019791
 31
0.0
  0
LINE
  5
AE
330
1F
100
AcDbEntity
  8
1
  6
________________
 62
     7
370
     0
100
AcDbLine
 10
270.4836779107945
 20
334.1666666666667
 30
0.0
 11
275.4886914614038
 21
342.8925970313544
 31
0.0
  0
LINE
  5
AF
330
1F
100
AcDbEntity
  8
1
  6
________________
 62
     7
370
     0
100
AcDbLine
 10
280.0832978359057
 20
350.8506887127713
 30
0.0
 11
275.4886914614037
 21
342.8925970313542
 31
0.0
  0
LINE
  5
B0
330
1F
100
AcDbEntity
  8
1
  6
________________
 62
     7
370
     0
100
AcDbLine
 10
294.5113085385964
 20
342.8925970313541
 30
0.0
 11
299.5163220892055
 21
334.1666666666667
 31
0.0
  0
LINE
  5
B1
330
1F
100
AcDbEntity
  8
1
  6
________________
 62
     7
370
     0
100
AcDbLine
 10
294.5113085385964
 20
342.8925970313542
 30
0.0
 11
289.9167021640944
 21
350.8506887127713
 31
0.0
  0
LINE
  5
B2
330
1F
100
AcDbEntity
  8
1
  6
________________
 62
     7
370
     0
100
AcDbLine
 10
275.4886914614037
 20
325.4407363019791
 30
0.0
 11
270.4836779107945
 21
334.1666666666667
 31
0.0
  0
LINE
  5
B3
330
1F
100
AcDbEntity
  8
1
  6
________________
 62
     7
370
     0
100
AcDbLine
 10
275.4886914614037
 20
325.4407363019791
 30
0.0
 11
280.0832978359057
 21
317.482644620562
 31
0.0
  0
LWPOLYLINE
  5
B4
330
1F
100
AcDbEntity
  8
1
  6
________________
 62
     7
370
     0
100
AcDbPolyline
 90
       26
 70
     0
 43
0.0
 10
-289.4183367822212
 20
342.8192981535805
 10
-289.4531070413306
 20
342.8186809332107
 10
-289.4878416749802
 20
342.8168374038833
 10
-289.5224371768552
 20
342.813779763271
 10
-289.5567900406409
 20
342.8095202090469
 10
-289.5919896024889
 20
342.8038650190358
 10
-289.6268626937295
 20
342.7969597393968
 10
-289.6613127730308
 20
342.7888425214987
 10
-289.6952432990607
 20
342.7795515167101
 10
-289.7386163855493
 20
342.7657149307999
 10
-289.7810639974579
 20
342.7499697646225
 10
-289.8224601454163
 20
342.7324326661229
 10
-289.8626788400546
 20
342.7132202832462
 10
-289.9015940920027
 20
342.6924492639374
 10
-289.9390799118903
 20
342.6702362561417
 10
-289.9745891710779
 20
342.647025508223
 10
-290.0087930872533
 20
342.6225221943298
 10
-290.0416409117375
 20
342.5968266355193
 10
-290.0730818958519
 20
342.5700391528486
 10
-290.1039713702968
 20
342.5413930737078
 10
-290.1334072575085
 20
342.5116913529282
 10
-290.1613638485336
 20
342.4810239111757
 10
-290.1878154344186
 20
342.4494806691165
 10
-290.2213971803217
 20
342.4052566646895
 10
-290.2522584123323
 20
342.3595954745117
 10
-290.280366593855
 20
342.3126821946557
210
0.0
220
0.0
230
-1.0
  0
LINE
  5
B5
330
1F
100
AcDbEntity
  8
1
  6
________________
 62
     7
370
     0
100
AcDbLine
 10
289.4183367822212
 20
342.8192981535805
 30
0.0
 11
280.5816632177789
 21
342.8192981535805
 31
0.0
  0
LWPOLYLINE
  5
B6
330
1F
100
AcDbEntity
  8
1
  6
________________
 62
     7
370
     0
100
AcDbPolyline
 90
       26
 70
     0
 43
0.0
 10
-279.7196334061458
 20
342.3126821946554
 10
-279.7490211887324
 20
342.3615995655585
 10
-279.7814067801861
 20
342.4091492191015
 10
-279.8167527286549
 20
342.4551200782058
 10
-279.8459926232296
 20
342.4893439101681
 10
-279.8770293241972
 20
342.5225064647653
 10
-279.9098268748073
 20
342.5544884851766
 10
-279.9443493183095
 20
342.5851707145815
 10
-279.9819950200661
 20
342.6155416523275
 10
-280.0215145789658
 20
342.6443447933393
 10
-280.0628234314501
 20
342.6714197107062
 10
-280.0958328604043
 20
342.6910106201604
 10
-280.129896063378
 20
342.7094674572494
 10
-280.1649419357867
 20
342.7267097693809
 10
-280.2008993730459
 20
342.7426571039628
 10
-280.2312621727261
 20
342.7548088124563
 10
-280.2622274162568
 20
342.7660191234511
 10
-280.2937317527595
 20
342.7762456200317
 10
-280.3257118313556
 20
342.7854458852821
 10
-280.3590648393862
 20
342.793804009053
 10
-280.3928778317964
 20
342.8010282422284
 10
-280.4270583659729
 20
342.8070859785456
 10
-280.4615139993025
 20
342.8119446117415
 10
-280.5013752993106
 20
342.8160191171181
 10
-280.5414786038078
 20
342.8184756955536
 10
-280.5816632177789
 20
342.8192981535805
210
0.0
220
0.0
230
-1.0
  0
LWPOLYLINE
  5
B7
330
1F
100
AcDbEntity
  8
1
  6
________________
 62
     7
370
     0
100
AcDbPolyline
 90
        4
 70
     0
 43
0.0
 10
-279.7196334061458
 20
342.3126821946553
 10
-278.2987264920355
 20
339.8013042347772
 10
-276.7260362900103
 20
337.0462507049804
 10
-275.0695753699385
 20
334.1666666666667
210
0.0
220
0.0
230
-1.0
  0
LWPOLYLINE
  5
B8
330
1F
100
AcDbEntity
  8
1
  6
________________
 62
     7
370
     0
100
AcDbPolyline
 90
        4
 70
     0
 43
0.0
 10
279.7196334061458
 20
326.020651138678
 10
278.2987264920355
 20
328.5320290985562
 10
276.7260362900104
 20
331.287082628353
 10
275.0695753699385
 20
334.1666666666666
  0
LWPOLYLINE
  5
B9
330
1F
100
AcDbEntity
  8
1
  6
________________
 62
     7
370
     0
100
AcDbPolyline
 90
       26
 70
     0
 43
0.0
 10
279.7196334061457
 20
326.0206511386779
 10
279.7490211887323
 20
325.9717337677748
 10
279.7814067801861
 20
325.9241841142319
 10
279.8167527286549
 20
325.8782132551275
 10
279.8459926232296
 20
325.8439894231652
 10
279.8770293241972
 20
325.810826868568
 10
279.9098268748073
 20
325.7788448481567
 10
279.9443493183095
 20
325.7481626187518
 10
279.9819950200661
 20
325.7177916810058
 10
280.0215145789657
 20
325.6889885399941
 10
280.0628234314501
 20
325.6619136226271
 10
280.0958328604043
 20
325.6423227131729
 10
280.129896063378
 20
325.623865876084
 10
280.1649419357867
 20
325.6066235639524
 10
280.2008993730459
 20
325.5906762293705
 10
280.2312621727261
 20
325.578524520877
 10
280.2622274162568
 20
325.5673142098822
 10
280.2937317527595
 20
325.5570877133017
 10
280.3257118313556
 20
325.5478874480512
 10
280.3590648393862
 20
325.5395293242804
 10
280.3928778317964
 20
325.5323050911049
 10
280.4270583659729
 20
325.5262473547878
 10
280.4615139993025
 20
325.5213887215918
 10
280.5013752993105
 20
325.5173142162153
 10
280.5414786038078
 20
325.5148576377797
 10
280.5816632177789
 20
325.5140351797529
  0
LINE
  5
BA
330
1F
100
AcDbEntity
  8
1
  6
________________
 62
     7
370
     0
100
AcDbLine
 10
289.4183367822212
 20
325.5140351797529
 30
0.0
 11
280.5816632177789
 21
325.5140351797529
 31
0.0
  0
LWPOLYLINE
  5
BB
330
1F
100
AcDbEntity
  8
1
  6
________________
 62
     7
370
     0
100
AcDbPolyline
 90
       26
 70
     0
 43
0.0
 10
289.4183367822212
 20
325.5140351797529
 10
289.4531070413306
 20
325.5146524001226
 10
289.4878416749802
 20
325.51649592945
 10
289.5224371768552
 20
325.5195535700623
 10
289.5567900406409
 20
325.5238131242864
 10
289.5919896024888
 20
325.5294683142975
 10
289.6268626937295
 20
325.5363735939365
 10
289.6613127730308
 20
325.5444908118347
 10
289.6952432990607
 20
325.5537818166232
 10
289.7386163855493
 20
325.5676184025334
 10
289.7810639974579
 20
325.5833635687108
 10
289.8224601454163
 20
325.6009006672104
 10
289.8626788400546
 20
325.6201130500871
 10
289.9015940920026
 20
325.6408840693959
 10
289.9390799118903
 20
325.6630970771917
 10
289.9745891710779
 20
325.6863078251103
 10
290.0087930872533
 20
325.7108111390035
 10
290.0416409117375
 20
325.736506697814
 10
290.0730818958519
 20
325.7632941804848
 10
290.1039713702968
 20
325.7919402596256
 10
290.1334072575085
 20
325.8216419804052
 10
290.1613638485336
 20
325.8523094221576
 10
290.1878154344186
 20
325.8838526642168
 10
290.2213971803217
 20
325.9280766686438
 10
290.2522584123323
 20
325.9737378588217
 10
290.280366593855
 20
326.0206511386777
  0
LWPOLYLINE
  5
BC
330
1F
100
AcDbEntity
  8
1
  6
________________
 62
     7
370
     0
100
AcDbPolyline
 90
        4
 70
     0
 43
0.0
 10
294.9304246300616
 20
334.1666666666666
 10
293.2739637099897
 20
331.287082628353
 10
291.7012735079646
 20
328.5320290985561
 10
290.2803665938544
 20
326.020651138678
  0
LWPOLYLINE
  5
BD
330
1F
100
AcDbEntity
  8
1
  6
________________
 62
     7
370
     0
100
AcDbPolyline
 90
        4
 70
     0
 43
0.0
 10
-294.9304246300616
 20
334.1666666666667
 10
-293.2739637099897
 20
337.0462507049804
 10
-291.7012735079646
 20
339.8013042347773
 10
-290.2803665938544
 20
342.3126821946554
210
0.0
220
0.0
230
-1.0
  0
LINE
  5
BE
330
1F
100
AcDbEntity
  8
1
  6
________________
 62
     7
370
     0
100
AcDbLine
 10
275.0695753699385
 20
334.1666666666667
 30
0.0
 11
275.3582065379121
 21
334.6665905142448
 31
0.0
  0
LINE
  5
BF
330
1F
100
AcDbEntity
  8
1
  6
________________
 62
     7
370
     0
100
AcDbLine
 10
275.0695753699385
 20
334.1666666666667
 30
0.0
 11
275.3582065379121
 21
333.6667428190885
 31
0.0
  0
LINE
  5
C0
330
1F
100
AcDbEntity
  8
1
  6
________________
 62
     7
370
     0
100
AcDbLine
 10
294.641793462088
 20
334.6665905142448
 30
0.0
 11
294.9304246300616
 21
334.1666666666667
 31
0.0
  0
LINE
  5
C1
330
1F
100
AcDbEntity
  8
1
  6
________________
 62
     7
370
     0
100
AcDbLine
 10
294.641793462088
 20
333.6667428190885
 30
0.0
 11
294.9304246300616
 21
334.1666666666667
 31
0.0
  0
LWPOLYLINE
  5
C2
330
1F
100
AcDbEntity
  8
1
  6
________________
 62
     7
370
     0
100
AcDbPolyline
 90
        6
 70
     0
 43
0.0
 10
-275.3582065379121
 20
333.6667428190885
 10
-275.2731858214683
 20
333.8576998491382
 10
-275.2297260814394
 20
334.0621556932783
 10
-275.2297260814394
 20
334.2711776400551
 10
-275.2731858214683
 20
334.4756334841952
 10
-275.3582065379121
 20
334.6665905142449
210
0.0
220
0.0
230
-1.0
  0
LWPOLYLINE
  5
C3
330
1F
100
AcDbEntity
  8
1
  6
________________
 62
     7
370
     0
100
AcDbPolyline
 90
        6
 70
     0
 43
0.0
 10
-294.6417934620881
 20
334.6665905142449
 10
-294.7268141785318
 20
334.4756334841952
 10
-294.7702739185607
 20
334.2711776400551
 10
-294.7702739185607
 20
334.0621556932783
 10
-294.7268141785318
 20
333.8576998491382
 10
-294.6417934620881
 20
333.6667428190885
210
0.0
220
0.0
230
-1.0
  0
ARC
  5
C4
330
1F
100
AcDbEntity
  8
1
  6
________________
 62
     7
370
     0
100
AcDbCircle
 10
285.0
 20
334.1666666666667
 30
0.0
 40
23.50000000000002
100
AcDbArc
 50
0.0
 51
83.10889284941993
  0
ARC
  5
C5
330
1F
100
AcDbEntity
  8
1
  6
________________
 62
     7
370
     0
100
AcDbCircle
 10
285.0
 20
334.1666666666667
 30
0.0
 40
23.50000000000002
100
AcDbArc
 50
96.89142182589991
 51
263.1086291990231
  0
ARC
  5
C6
330
1F
100
AcDbEntity
  8
1
  6
________________
 62
     7
370
     0
100
AcDbCircle
 10
285.0
 20
334.1666666666667
 30
0.0
 40
23.50000000000002
100
AcDbArc
 50
276.8911286077821
 51
0.0
  0
ARC
  5
C7
330
1F
100
AcDbEntity
  8
1
  6
________________
 62
     7
370
     0
100
AcDbCircle
 10
68.33333333333334
 20
334.1666666666667
 30
0.0
 40
8.500000000000062
100
AcDbArc
 50
270.0
 51
330.0
  0
LINE
  5
C8
330
1F
100
AcDbEntity
  8
1
  6
________________
 62
     7
370
     0
100
AcDbLine
 10
75.69454926550108
 20
329.9166666666667
 30
0.0
 11
73.28271742383149
 21
325.7392513775825
 31
0.0
  0
LINE
  5
C9
330
1F
100
AcDbEntity
  8
1
  6
________________
 62
     7
370
     0
100
AcDbLine
 10
73.15674668579966
 20
325.6666666666666
 30
0.0
 11
68.33333333333333
 21
325.6666666666666
 31
0.0
  0
ARC
  5
CA
330
1F
100
AcDbEntity
  8
1
  6
________________
 62
     7
370
     0
100
AcDbCircle
 10
68.33333333333334
 20
334.1666666666667
 30
0.0
 40
8.500000000000053
100
AcDbArc
 50
210.0
 51
270.0
  0
LINE
  5
CB
330
1F
100
AcDbEntity
  8
1
  6
________________
 62
     7
370
     0
100
AcDbLine
 10
68.33333333333334
 20
325.6666666666666
 30
0.0
 11
63.50962869913394
 21
325.6666666666666
 31
0.0
  0
LINE
  5
CC
330
1F
100
AcDbEntity
  8
1
  6
________________
 62
     7
370
     0
100
AcDbLine
 10
63.38384676128101
 20
325.7394288808412
 30
0.0
 11
60.97211740116561
 21
329.9166666666667
 31
0.0
  0
ARC
  5
CD
330
1F
100
AcDbEntity
  8
1
  6
________________
 62
     7
370
     0
100
AcDbCircle
 10
68.33333333333334
 20
334.1666666666667
 30
0.0
 40
8.500000000000062
100
AcDbArc
 50
90.0
 51
150.0
  0
LINE
  5
CE
330
1F
100
AcDbEntity
  8
1
  6
________________
 62
     7
370
     0
100
AcDbLine
 10
60.9721174011656
 20
338.4166666666667
 30
0.0
 11
63.38394924283519
 21
342.5940819557508
 31
0.0
  0
LINE
  5
CF
330
1F
100
AcDbEntity
  8
1
  6
________________
 62
     7
370
     0
100
AcDbLine
 10
63.50962869914253
 20
342.6666666666667
 30
0.0
 11
68.33333333333334
 21
342.6666666666667
 31
0.0
  0
ARC
  5
D0
330
1F
100
AcDbEntity
  8
1
  6
________________
 62
     7
370
     0
100
AcDbCircle
 10
68.33333333333334
 20
334.1666666666667
 30
0.0
 40
8.500000000000053
100
AcDbArc
 50
29.99999999999998
 51
89.99999999999999
  0
LINE
  5
D1
330
1F
100
AcDbEntity
  8
1
  6
________________
 62
     7
370
     0
100
AcDbLine
 10
68.33333333333334
 20
342.6666666666667
 30
0.0
 11
73.15674668580053
 21
342.6666666666667
 31
0.0
  0
LINE
  5
D2
330
1F
100
AcDbEntity
  8
1
  6
________________
 62
     7
370
     0
100
AcDbLine
 10
73.28281990538575
 20
342.593904452492
 30
0.0
 11
75.6945492655011
 21
338.4166666666667
 31
0.0
  0
ARC
  5
D3
330
1F
100
AcDbEntity
  8
1
  6
________________
 62
     7
370
     0
100
AcDbCircle
 10
68.33333333333334
 20
334.1666666666667
 30
0.0
 40
8.500000000000053
100
AcDbArc
 50
150.0
 51
210.0
  0
LINE
  5
D4
330
1F
100
AcDbEntity
  8
1
  6
________________
 62
     7
370
     0
100
AcDbLine
 10
58.56038804105024
 20
334.2394288808413
 30
0.0
 11
60.9721174011656
 21
338.4166666666667
 31
0.0
  0
LINE
  5
D5
330
1F
100
AcDbEntity
  8
1
  6
________________
 62
     7
370
     0
100
AcDbLine
 10
60.97211740116561
 20
329.9166666666667
 30
0.0
 11
58.56028555949602
 21
334.0940819557508
 31
0.0
  0
ARC
  5
D6
330
1F
100
AcDbEntity
  8
1
  6
________________
 62
     7
370
     0
100
AcDbCircle
 10
68.33333333333334
 20
334.1666666666667
 30
0.0
 40
8.500000000000053
100
AcDbArc
 50
330.0
 51
30.0
  0
LINE
  5
D7
330
1F
100
AcDbEntity
  8
1
  6
________________
 62
     7
370
     0
100
AcDbLine
 10
75.6945492655011
 20
338.4166666666667
 30
0.0
 11
78.10638110717066
 21
334.2392513775826
 31
0.0
  0
LINE
  5
D8
330
1F
100
AcDbEntity
  8
1
  6
________________
 62
     7
370
     0
100
AcDbLine
 10
78.10627862561644
 20
334.093904452492
 30
0.0
 11
75.6945492655011
 21
329.9166666666667
 31
0.0
  0
ARC
  5
D9
330
1F
100
AcDbEntity
  8
1
  6
________________
 62
     7
370
     0
100
AcDbCircle
 10
107.3536297108184
 20
307.0977555799122
 30
0.0
 40
36.39496704345516
100
AcDbArc
 50
174.1042205940923
 51
182.5569414655894
  0
ARC
  5
DA
330
1F
100
AcDbEntity
  8
1
  6
________________
 62
     7
370
     0
100
AcDbCircle
 10
29.31303695584825
 20
361.2355777534211
 30
0.0
 40
36.39496704345516
100
AcDbArc
 50
354.1042205940923
 51
2.556941465589489
  0
ARC
  5
DB
330
1F
100
AcDbEntity
  8
1
  6
________________
 62
     7
370
     0
100
AcDbCircle
 10
107.3536297108184
 20
361.2355777534211
 30
0.0
 40
36.39496704345516
100
AcDbArc
 50
177.4430585344105
 51
185.8957794059076
  0
ARC
  5
DC
330
1F
100
AcDbEntity
  8
1
  6
________________
 62
     7
370
     0
100
AcDbCircle
 10
29.31303695584825
 20
307.0977555799122
 30
0.0
 40
36.39496704345516
100
AcDbArc
 50
357.4430585344105
 51
5.895779405907547
  0
ARC
  5
DD
330
1F
100
AcDbEntity
  8
1
  6
________________
 62
     7
370
     0
100
AcDbCircle
 10
-69.41953319368515
 20
301.1666666666667
 30
0.0
 40
1.999999999999996
210
0.0
220
0.0
230
-1.0
100
AcDbArc
 50
171.1136109036497
 51
269.9999999999999
  0
ARC
  5
DE
330
1F
100
AcDbEntity
  8
1
  6
________________
 62
     7
370
     0
100
AcDbCircle
 10
107.3534589535158
 20
307.0977384708531
 30
0.0
 40
36.39479569289003
100
AcDbArc
 50
182.5569265505621
 51
188.8864040113787
  0
ARC
  5
DF
330
1F
100
AcDbEntity
  8
1
  6
________________
 62
     7
370
     0
100
AcDbCircle
 10
-67.24713347298153
 20
367.1666666666666
 30
0.0
 40
1.999999999999999
210
0.0
220
0.0
230
-1.0
100
AcDbArc
 50
351.113610903647
 51
90.0000000000003
  0
ARC
  5
E0
330
1F
100
AcDbEntity
  8
1
  6
________________
 62
     7
370
     0
100
AcDbCircle
 10
29.3137537814994
 20
361.2356495758974
 30
0.0
 40
36.39424772735146
100
AcDbArc
 50
2.556878852542331
 51
8.886451709399179
  0
ARC
  5
E1
330
1F
100
AcDbEntity
  8
1
  6
________________
 62
     7
370
     0
100
AcDbCircle
 10
-67.24713347298155
 20
301.1666666666667
 30
0.0
 40
2.000000000000002
210
0.0
220
0.0
230
-1.0
100
AcDbArc
 50
269.9999999999998
 51
8.886389096352957
  0
ARC
  5
E2
330
1F
100
AcDbEntity
  8
1
  6
________________
 62
     7
370
     0
100
AcDbCircle
 10
29.31385585783448
 20
307.0976735298789
 30
0.0
 40
36.39414529637822
100
AcDbArc
 50
351.11353937427
 51
357.4431300637888
  0
ARC
  5
E3
330
1F
100
AcDbEntity
  8
1
  6
________________
 62
     7
370
     0
100
AcDbCircle
 10
-69.41953319368515
 20
367.1666666666666
 30
0.0
 40
2.000000000000002
210
0.0
220
0.0
230
-1.0
100
AcDbArc
 50
90.00000000000004
 51
188.8863890963504
  0
ARC
  5
E4
330
1F
100
AcDbEntity
  8
1
  6
________________
 62
     7
370
     0
100
AcDbCircle
 10
107.3533941847895
 20
361.2356013519943
 30
0.0
 40
36.3947306991382
100
AcDbArc
 50
171.1135903312724
 51
177.4430791067863
  0
LINE
  5
E5
330
1F
100
AcDbEntity
  8
1
  6
________________
 62
     7
370
     0
100
AcDbLine
 10
69.41953319368515
 20
299.1666666666667
 30
0.0
 11
67.24713347298155
 21
299.1666666666667
 31
0.0
  0
LINE
  5
E6
330
1F
100
AcDbEntity
  8
1
  6
________________
 62
     7
370
     0
100
AcDbLine
 10
69.41953319368515
 20
369.1666666666666
 30
0.0
 11
67.24713347298155
 21
369.1666666666666
 31
0.0
  0
CIRCLE
  5
E7
330
1F
100
AcDbEntity
  8
1
  6
________________
 62
     7
370
     0
100
AcDbCircle
 10
-68.33333333333334
 20
334.1666666666667
 30
0.0
 40
23.49999999999998
210
0.0
220
0.0
230
-1.0
  0
ARC
  5
E8
330
1F
100
AcDbEntity
  8
1
  6
________________
 62
     7
370
     0
100
AcDbCircle
 10
-68.33333333333334
 20
334.1666666666667
 30
0.0
 40
16.50000000000001
210
0.0
220
0.0
230
-1.0
100
AcDbArc
 50
90.0
 51
270.0
  0
ARC
  5
E9
330
1F
100
AcDbEntity
  8
1
  6
________________
 62
     7
370
     0
100
AcDbCircle
 10
-68.33333333333334
 20
334.1666666666667
 30
0.0
 40
16.50000000000001
210
0.0
220
0.0
230
-1.0
100
AcDbArc
 50
270.0
 51
90.0
  0
LINE
  5
EA
330
1F
100
AcDbEntity
  8
1
  6
________________
 62
     7
370
     0
100
AcDbLine
 10
68.33333333333334
 20
344.2888893598878
 30
0.0
 11
66.33180993687509
 21
344.2539419913078
 31
0.0
  0
LINE
  5
EB
330
1F
100
AcDbEntity
  8
1
  6
________________
 62
     7
370
     0
100
AcDbLine
 10
73.33333333333333
 20
344.1666666666667
 30
0.0
 11
73.24453484425466
 21
344.2554651557454
 31
0.0
  0
LINE
  5
EC
330
1F
100
AcDbEntity
  8
1
  6
________________
 62
     7
370
     0
100
AcDbLine
 10
63.33333333333334
 20
344.1666666666667
 30
0.0
 11
73.33333333333333
 21
344.1666666666667
 31
0.0
  0
LINE
  5
ED
330
1F
100
AcDbEntity
  8
1
  6
________________
 62
     7
370
     0
100
AcDbLine
 10
63.42213182241202
 20
344.2554651557454
 30
0.0
 11
63.33333333333335
 21
344.1666666666667
 31
0.0
  0
LINE
  5
EE
330
1F
100
AcDbEntity
  8
1
  6
________________
 62
     7
370
     0
100
AcDbLine
 10
68.33333333335334
 20
344.3412037863395
 30
0.0
 11
63.42213182241202
 21
344.2554651557454
 31
0.0
  0
LINE
  5
EF
330
1F
100
AcDbEntity
  8
1
  6
________________
 62
     7
370
     0
100
AcDbLine
 10
73.24453484425466
 20
344.2554651557454
 30
0.0
 11
68.33333333335331
 21
344.3412037863395
 31
0.0
  0
LINE
  5
F0
330
1F
100
AcDbEntity
  8
1
  6
________________
 62
     7
370
     0
100
AcDbLine
 10
68.33333333335334
 20
344.3412037863395
 30
0.0
 11
68.33333333335334
 21
346.9921295469938
 31
0.0
  0
LINE
  5
F1
330
1F
100
AcDbEntity
  8
1
  6
________________
 62
     7
370
     0
100
AcDbLine
 10
68.33333333335334
 20
346.9921295469938
 30
0.0
 11
73.24453484425466
 21
347.077868177588
 31
0.0
  0
LINE
  5
F2
330
1F
100
AcDbEntity
  8
1
  6
________________
 62
     7
370
     0
100
AcDbLine
 10
63.42213182241202
 20
347.077868177588
 30
0.0
 11
68.33333333335328
 21
346.9921295469937
 31
0.0
  0
LINE
  5
F3
330
1F
100
AcDbEntity
  8
1
  6
________________
 62
     7
370
     0
100
AcDbLine
 10
68.33333333333334
 20
347.1151998288773
 30
0.0
 11
70.38417513165976
 21
347.0793913420256
 31
0.0
  0
LINE
  5
F4
330
1F
100
AcDbEntity
  8
1
  6
________________
 62
     7
370
     0
100
AcDbLine
 10
63.33333333333334
 20
347.1666666666667
 30
0.0
 11
73.33333333333333
 21
347.1666666666667
 31
0.0
  0
LINE
  5
F5
330
1F
100
AcDbEntity
  8
1
  6
________________
 62
     7
370
     0
100
AcDbLine
 10
73.33333333333333
 20
347.1666666666667
 30
0.0
 11
73.24453484425466
 21
347.077868177588
 31
0.0
  0
LINE
  5
F6
330
1F
100
AcDbEntity
  8
1
  6
________________
 62
     7
370
     0
100
AcDbLine
 10
63.42213182241202
 20
347.077868177588
 30
0.0
 11
63.33333333333335
 21
347.1666666666667
 31
0.0
  0
LINE
  5
F7
330
1F
100
AcDbEntity
  8
1
  6
________________
 62
     7
370
     0
100
AcDbLine
 10
70.33485672979158
 20
344.2539419913078
 30
0.0
 11
68.33333333333336
 21
344.2888893598878
 31
0.0
  0
LINE
  5
F8
330
1F
100
AcDbEntity
  8
1
  6
________________
 62
     7
370
     0
100
AcDbLine
 10
66.33180993687509
 20
344.2539419913078
 30
0.0
 11
70.33485672979158
 21
344.2539419913078
 31
0.0
  0
LINE
  5
F9
330
1F
100
AcDbEntity
  8
1
  6
________________
 62
     7
370
     0
100
AcDbLine
 10
66.28249153500693
 20
347.0793913420256
 30
0.0
 11
68.33333333333333
 21
347.1151998288773
 31
0.0
  0
LINE
  5
FA
330
1F
100
AcDbEntity
  8
1
  6
________________
 62
     7
370
     0
100
AcDbLine
 10
70.38417513165976
 20
347.0793913420256
 30
0.0
 11
66.28249153500693
 21
347.0793913420256
 31
0.0
  0
LINE
  5
FB
330
1F
100
AcDbEntity
  8
1
  6
________________
 62
     7
370
     0
100
AcDbLine
 10
63.33333333333334
 20
347.1666666666667
 30
0.0
 11
63.33333333333334
 21
344.1666666666667
 31
0.0
  0
LINE
  5
FC
330
1F
100
AcDbEntity
  8
1
  6
________________
 62
     7
370
     0
100
AcDbLine
 10
73.33333333333333
 20
347.1666666666667
 30
0.0
 11
73.33333333333333
 21
344.1666666666667
 31
0.0
  0
LWPOLYLINE
  5
FD
330
1F
100
AcDbEntity
  8
1
  6
________________
 62
     7
370
     0
100
AcDbPolyline
 90
        6
 70
     0
 43
0.0
 10
-73.58717681633773
 20
326.0665905142449
 10
-73.46431353550535
 20
325.8974818989318
 10
-73.30897945054228
 20
325.7576167379548
 10
-73.12796113468504
 20
325.6531057645664
 10
-72.92916730969306
 20
325.5885150814032
 10
-72.72128331241697
 20
325.5666666666667
210
0.0
220
0.0
230
-1.0
  0
LWPOLYLINE
  5
FE
330
1F
100
AcDbEntity
  8
1
  6
________________
 62
     7
370
     0
100
AcDbPolyline
 90
        6
 70
     0
 43
0.0
 10
-72.72128331241697
 20
342.7666666666667
 10
-72.92916730969306
 20
342.7448182519301
 10
-73.12796113468504
 20
342.6802275687669
 10
-73.30897945054228
 20
342.5757165953785
 10
-73.46431353550535
 20
342.4358514344015
 10
-73.58717681633772
 20
342.2667428190884
210
0.0
220
0.0
230
-1.0
  0
LINE
  5
FF
330
1F
100
AcDbEntity
  8
1
  6
________________
 62
     7
370
     0
100
AcDbLine
 10
63.94538335424973
 20
342.7666666666667
 30
0.0
 11
72.72128331241694
 21
342.7666666666667
 31
0.0
  0
LWPOLYLINE
  5
100
330
1F
100
AcDbEntity
  8
1
  6
________________
 62
     7
370
     0
100
AcDbPolyline
 90
        6
 70
     0
 43
0.0
 10
-63.07948985032899
 20
342.2667428190884
 10
-63.20235313116132
 20
342.4358514344015
 10
-63.35768721612439
 20
342.5757165953785
 10
-63.53870553198167
 20
342.6802275687669
 10
-63.73749935697365
 20
342.7448182519301
 10
-63.94538335424973
 20
342.7666666666667
210
0.0
220
0.0
230
-1.0
  0
LINE
  5
101
330
1F
100
AcDbEntity
  8
1
  6
________________
 62
     7
370
     0
100
AcDbLine
 10
58.69153987124536
 20
334.6665905142448
 30
0.0
 11
63.07948985032899
 21
342.2667428190884
 31
0.0
  0
LWPOLYLINE
  5
102
330
1F
100
AcDbEntity
  8
1
  6
________________
 62
     7
370
     0
100
AcDbPolyline
 90
        6
 70
     0
 43
0.0
 10
-58.69153987124536
 20
333.6667428190885
 10
-58.60651915480161
 20
333.8576998491382
 10
-58.56305941477272
 20
334.0621556932783
 10
-58.56305941477272
 20
334.2711776400551
 10
-58.60651915480162
 20
334.4756334841952
 10
-58.69153987124536
 20
334.6665905142449
210
0.0
220
0.0
230
-1.0
  0
LINE
  5
103
330
1F
100
AcDbEntity
  8
1
  6
________________
 62
     7
370
     0
100
AcDbLine
 10
63.07948985032899
 20
326.0665905142449
 30
0.0
 11
58.69153987124536
 21
333.6667428190885
 31
0.0
  0
LWPOLYLINE
  5
104
330
1F
100
AcDbEntity
  8
1
  6
________________
 62
     7
370
     0
100
AcDbPolyline
 90
        6
 70
     0
 43
0.0
 10
-63.94538335424973
 20
325.5666666666667
 10
-63.73749935697365
 20
325.5885150814032
 10
-63.53870553198167
 20
325.6531057645664
 10
-63.35768721612439
 20
325.7576167379548
 10
-63.20235313116133
 20
325.8974818989318
 10
-63.07948985032899
 20
326.0665905142449
210
0.0
220
0.0
230
-1.0
  0
LINE
  5
105
330
1F
100
AcDbEntity
  8
1
  6
________________
 62
     7
370
     0
100
AcDbLine
 10
72.72128331241694
 20
325.5666666666667
 30
0.0
 11
63.94538335424973
 21
325.5666666666667
 31
0.0
  0
LINE
  5
106
330
1F
100
AcDbEntity
  8
1
  6
________________
 62
     7
370
     0
100
AcDbLine
 10
77.97512679542132
 20
333.6667428190885
 30
0.0
 11
73.5871768163377
 21
326.0665905142449
 31
0.0
  0
LWPOLYLINE
  5
107
330
1F
100
AcDbEntity
  8
1
  6
________________
 62
     7
370
     0
100
AcDbPolyline
 90
        6
 70
     0
 43
0.0
 10
-77.9751267954213
 20
334.6665905142449
 10
-78.06014751186505
 20
334.4756334841952
 10
-78.10360725189395
 20
334.2711776400551
 10
-78.10360725189395
 20
334.0621556932783
 10
-78.06014751186505
 20
333.8576998491382
 10
-77.9751267954213
 20
333.6667428190885
210
0.0
220
0.0
230
-1.0
  0
LINE
  5
108
330
1F
100
AcDbEntity
  8
1
  6
________________
 62
     7
370
     0
100
AcDbLine
 10
73.58717681633769
 20
342.2667428190884
 30
0.0
 11
77.97512679542132
 21
334.6665905142448
 31
0.0
  0
ARC
  5
109
330
1F
100
AcDbEntity
  8
1
  6
________________
 62
     7
370
     0
100
AcDbCircle
 10
68.33333333333334
 20
334.1666666666667
 30
0.0
 40
16.50000000000001
100
AcDbArc
 50
270.0
 51
90.0
  0
ARC
  5
10A
330
1F
100
AcDbEntity
  8
1
  6
________________
 62
     7
370
     0
100
AcDbCircle
 10
68.33333333333334
 20
334.1666666666667
 30
0.0
 40
16.50000000000001
100
AcDbArc
 50
90.00000000000001
 51
270.0
  0
MTEXT
  5
10B
330
1F
100
AcDbEntity
  8
1
 62
     7
100
AcDbMText
 10
154.9334545454546
 20
290.5712121212122
 30
0.0
 40
6.0
 41
0.0
 46
0.0
 71
     1
 72
     1
  1
{\FＭＳ ゴシック;MWP-30M}
 73
     1
 44
1.0
  0
LINE
  5
10C
330
1F
100
AcDbEntity
  8
1
  6
______....__....
 62
     1
420
 16711680
370
     0
100
AcDbLine
 10
259.5
 20
334.1666666666667
 30
0.0
 11
310.5000000000001
 21
334.1666666666667
 31
0.0
  0
LINE
  5
10E
330
1F
100
AcDbEntity
  8
1
  6
______....__....
 62
     1
420
 16711680
370
     0
100
AcDbLine
 10
285.0
 20
308.6666666666666
 30
0.0
 11
285.0
 21
359.6666666666667
 31
0.0
  0
LINE
  5
10F
330
1F
100
AcDbEntity
  8
1
  6
______....__....
 62
     1
420
 16711680
370
     0
100
AcDbLine
 10
42.83333333333336
 20
334.1666666666667
 30
0.0
 11
93.83333333333333
 21
334.1666666666667
 31
0.0
  0
LINE
  5
110
330
1F
100
AcDbEntity
  8
1
  6
______....__....
 62
     1
420
 16711680
370
     0
100
AcDbLine
 10
68.33333333333334
 20
308.6666666666667
 30
0.0
 11
68.33333333333334
 21
359.6666666666666
 31
0.0
  0
LINE
  5
111
330
1F
100
AcDbEntity
  8
0
  6
________________
 62
     7
370
     9
100
AcDbLine
 10
187.7496124446011
 20
321.7935825107334
 30
0.0
 11
187.7496124446011
 21
346.5397508225998
 31
0.0
  0
ENDSEC
  0
SECTION
  2
OBJECTS
  0
DICTIONARY
  5
C
330
0
100
AcDbDictionary
281
     1
  3
ACAD_GROUP
350
D
  3
ACAD_LAYOUT
350
1A
  3
ACAD_MLEADERSTYLE
350
113
  3
ACAD_MLINESTYLE
350
17
  3
ACAD_PLOTSETTINGS
350
19
  3
ACAD_PLOTSTYLENAME
350
E
  3
ACAD_TABLESTYLE
350
112
  3
ACAD_VISUALSTYLE
350
2A
  0
DICTIONARY
  5
D
102
{ACAD_REACTORS
330
C
102
}
330
C
100
AcDbDictionary
281
     1
  0
DICTIONARY
  5
1A
102
{ACAD_REACTORS
330
C
102
}
330
C
100
AcDbDictionary
281
     1
  3
Layout1
350
1E
  3
Layout2
350
26
  3
Model
350
22
  0
DICTIONARY
  5
113
102
{ACAD_REACTORS
330
C
102
}
330
C
100
AcDbDictionary
281
     1
  0
DICTIONARY
  5
17
102
{ACAD_REACTORS
330
C
102
}
330
C
100
AcDbDictionary
281
     1
  3
Standard
350
18
  0
DICTIONARY
  5
19
102
{ACAD_REACTORS
330
C
102
}
330
C
100
AcDbDictionary
281
     1
  0
ACDBDICTIONARYWDFLT
  5
E
102
{ACAD_REACTORS
330
C
102
}
330
C
100
AcDbDictionary
281
     1
  3
Normal
350
F
100
AcDbDictionaryWithDefault
340
F
  0
DICTIONARY
  5
112
102
{ACAD_REACTORS
330
C
102
}
330
C
100
AcDbDictionary
281
     1
  0
DICTIONARY
  5
2A
102
{ACAD_REACTORS
330
C
102
}
330
C
100
AcDbDictionary
281
     1
  3
2dWireframe
350
2F
  3
3D Hidden
350
31
  3
3dWireframe
350
30
  3
Basic
350
32
  3
Brighten
350
36
  3
ColorChange
350
3A
  3
Conceptual
350
34
  3
Dim
350
35
  3
Facepattern
350
39
  3
Flat
350
2B
  3
FlatWithEdges
350
2C
  3
Gouraud
350
2D
  3
GouraudWithEdges
350
2E
  3
Linepattern
350
38
  3
Realistic
350
33
  3
Thicken
350
37
  0
LAYOUT
  5
1E
102
{ACAD_REACTORS
330
1A
102
}
330
1A
100
AcDbPlotSettings
  1

  2
none_device
  4

  6

 40
0.0
 41
0.0
 42
0.0
 43
0.0
 44
0.0
 45
0.0
 46
0.0
 47
0.0
 48
0.0
 49
0.0
140
0.0
141
0.0
142
1.0
143
1.0
 70
   688
 72
     0
 73
     0
 74
     5
  7

 75
    16
 76
     0
 77
     2
 78
   300
147
1.0
148
0.0
149
0.0
100
AcDbLayout
  1
Layout1
 70
     1
 71
     1
 10
0.0
 20
0.0
 11
12.0
 21
9.0
 12
0.0
 22
0.0
 32
0.0
 14
1.000000000000000E+20
 24
1.000000000000000E+20
 34
1.000000000000000E+20
 15
-1.000000000000000E+20
 25
-1.000000000000000E+20
 35
-1.000000000000000E+20
146
0.0
 13
0.0
 23
0.0
 33
0.0
 16
1.0
 26
0.0
 36
0.0
 17
0.0
 27
1.0
 37
0.0
 76
     0
330
1B
  0
LAYOUT
  5
26
102
{ACAD_REACTORS
330
1A
102
}
330
1A
100
AcDbPlotSettings
  1

  2
none_device
  4

  6

 40
0.0
 41
0.0
 42
0.0
 43
0.0
 44
0.0
 45
0.0
 46
0.0
 47
0.0
 48
0.0
 49
0.0
140
0.0
141
0.0
142
1.0
143
1.0
 70
   688
 72
     0
 73
     0
 74
     5
  7

 75
    16
 76
     0
 77
     2
 78
   300
147
1.0
148
0.0
149
0.0
100
AcDbLayout
  1
Layout2
 70
     1
 71
     2
 10
0.0
 20
0.0
 11
0.0
 21
0.0
 12
0.0
 22
0.0
 32
0.0
 14
0.0
 24
0.0
 34
0.0
 15
0.0
 25
0.0
 35
0.0
146
0.0
 13
0.0
 23
0.0
 33
0.0
 16
1.0
 26
0.0
 36
0.0
 17
0.0
 27
1.0
 37
0.0
 76
     0
330
23
  0
LAYOUT
  5
22
102
{ACAD_REACTORS
330
1A
102
}
330
1A
100
AcDbPlotSettings
  1

  2
none_device
  4

  6

 40
0.0
 41
0.0
 42
0.0
 43
0.0
 44
0.0
 45
0.0
 46
0.0
 47
0.0
 48
0.0
 49
0.0
140
0.0
141
0.0
142
1.0
143
1.0
 70
  1712
 72
     0
 73
     0
 74
     0
  7

 75
     0
 76
     0
 77
     2
 78
   300
147
1.0
148
0.0
149
0.0
100
AcDbLayout
  1
Model
 70
     1
 71
     0
 10
0.0
 20
0.0
 11
12.0
 21
9.0
 12
0.0
 22
0.0
 32
0.0
 14
0.0
 24
0.0
 34
0.0
 15
310.5000000000001
 25
369.1666666666666
 35
10.0
146
0.0
 13
0.0
 23
0.0
 33
0.0
 16
1.0
 26
0.0
 36
0.0
 17
0.0
 27
1.0
 37
0.0
 76
     0
330
1F
331
29
  0
MLINESTYLE
  5
18
102
{ACAD_REACTORS
330
17
102
}
330
17
100
AcDbMlineStyle
  2
Standard
 70
     0
  3

 62
   256
 51
90.0
 52
90.0
 71
     2
 49
0.5
 62
   256
  6
BYLAYER
 49
-0.5
 62
   256
  6
BYLAYER
  0
ACDBPLACEHOLDER
  5
F
102
{ACAD_REACTORS
330
E
102
}
330
E
  0
VISUALSTYLE
  5
2F
102
{ACAD_REACTORS
330
2A
102
}
330
2A
100
AcDbVisualStyle
  2
2dWireframe
 70
     4
 71
     0
 72
     2
 73
     0
 90
        0
 40
-0.6
 41
-30.0
 62
     5
 63
     7
421
 16777215
 74
     1
 91
        4
 64
     7
 65
   257
 75
     1
175
     1
 42
1.0
 92
        0
 66
   257
 43
1.0
 76
     1
 77
     6
 78
     2
 67
     7
 79
     5
170
     0
171
     0
290
     0
174
     0
 93
        1
 44
0.0
173
     0
291
     0
 45
0.0
  0
VISUALSTYLE
  5
31
102
{ACAD_REACTORS
330
2A
102
}
330
2A
100
AcDbVisualStyle
  2
3D Hidden
 70
     6
 71
     1
 72
     2
 73
     2
 90
        0
 40
-0.6
 41
-30.0
 62
     5
 63
     7
421
 16777215
 74
     2
 91
        2
 64
     7
 65
   257
 75
     2
175
     1
 42
40.0
 92
        0
 66
   257
 43
1.0
 76
     1
 77
     6
 78
     2
 67
     7
 79
     3
170
     0
171
     0
290
     0
174
     0
 93
        1
 44
0.0
173
     0
291
     0
 45
0.0
  0
VISUALSTYLE
  5
30
102
{ACAD_REACTORS
330
2A
102
}
330
2A
100
AcDbVisualStyle
  2
3dWireframe
 70
     5
 71
     0
 72
     2
 73
     0
 90
        0
 40
-0.6
 41
-30.0
 62
     5
 63
     7
421
 16777215
 74
     1
 91
        4
 64
     7
 65
   257
 75
     1
175
     1
 42
1.0
 92
        0
 66
   257
 43
1.0
 76
     1
 77
     6
 78
     2
 67
     7
 79
     5
170
     0
171
     0
290
     0
174
     0
 93
        1
 44
0.0
173
     0
291
     0
 45
0.0
  0
VISUALSTYLE
  5
32
102
{ACAD_REACTORS
330
2A
102
}
330
2A
100
AcDbVisualStyle
  2
Basic
 70
     7
 71
     1
 72
     0
 73
     1
 90
        0
 40
-0.6
 41
-30.0
 62
     5
 63
     7
421
 16777215
 74
     0
 91
        4
 64
     7
 65
   257
 75
     1
175
     1
 42
1.0
 92
        8
 66
     7
 43
1.0
 76
     1
 77
     6
 78
     2
 67
     7
 79
     5
170
     0
171
     0
290
     0
174
     0
 93
        1
 44
0.0
173
     0
291
     1
 45
0.0
  0
VISUALSTYLE
  5
36
102
{ACAD_REACTORS
330
2A
102
}
330
2A
100
AcDbVisualStyle
  2
Brighten
 70
    12
 71
     2
 72
     2
 73
     0
 90
        0
 40
-0.6
 41
-30.0
 62
     5
 63
     7
421
 16777215
 74
     1
 91
        4
 64
     7
 65
   257
 75
     1
175
     1
 42
1.0
 92
        8
 66
     7
 43
1.0
 76
     1
 77
     6
 78
     2
 67
     7
 79
     5
170
     0
171
     0
290
     0
174
     0
 93
        1
 44
50.0
173
     0
291
     1
 45
0.0
  0
VISUALSTYLE
  5
3A
102
{ACAD_REACTORS
330
2A
102
}
330
2A
100
AcDbVisualStyle
  2
ColorChange
 70
    16
 71
     2
 72
     2
 73
     3
 90
        0
 40
-0.6
 41
-30.0
 62
     5
 63
     8
421
  8421504
 74
     1
 91
        4
 64
     7
 65
   257
 75
     1
175
     1
 42
1.0
 92
        8
 66
     8
424
  8421504
 43
1.0
 76
     1
 77
     6
 78
     2
 67
     7
 79
     5
170
     0
171
     0
290
     0
174
     0
 93
        1
 44
0.0
173
     0
291
     1
 45
0.0
  0
VISUALSTYLE
  5
34
102
{ACAD_REACTORS
330
2A
102
}
330
2A
100
AcDbVisualStyle
  2
Conceptual
 70
     9
 71
     3
 72
     2
 73
     0
 90
        0
 40
-0.6
 41
-30.0
 62
     5
 63
     7
421
 16777215
 74
     2
 91
        2
 64
     7
 65
   257
 75
     1
175
     1
 42
40.0
 92
        8
 66
     7
 43
1.0
 76
     1
 77
     6
 78
     2
 67
     7
 79
     3
170
     0
171
     0
290
     0
174
     0
 93
        1
 44
0.0
173
     0
291
     0
 45
0.0
  0
VISUALSTYLE
  5
35
102
{ACAD_REACTORS
330
2A
102
}
330
2A
100
AcDbVisualStyle
  2
Dim
 70
    11
 71
     2
 72
     2
 73
     0
 90
        0
 40
-0.6
 41
-30.0
 62
     5
 63
     7
421
 16777215
 74
     1
 91
        4
 64
     7
 65
   257
 75
     1
175
     1
 42
1.0
 92
        8
 66
     7
 43
1.0
 76
     1
 77
     6
 78
     2
 67
     7
 79
     5
170
     0
171
     0
290
     0
174
     0
 93
        1
 44
-50.0
173
     0
291
     1
 45
0.0
  0
VISUALSTYLE
  5
39
102
{ACAD_REACTORS
330
2A
102
}
330
2A
100
AcDbVisualStyle
  2
Facepattern
 70
    15
 71
     2
 72
     2
 73
     0
 90
        0
 40
-0.6
 41
-30.0
 62
     5
 63
     7
421
 16777215
 74
     1
 91
        4
 64
     7
 65
   257
 75
     1
175
     1
 42
1.0
 92
        8
 66
     7
 43
1.0
 76
     1
 77
     6
 78
     2
 67
     7
 79
     5
170
     0
171
     0
290
     0
174
     0
 93
        1
 44
0.0
173
     0
291
     1
 45
0.0
  0
VISUALSTYLE
  5
2B
102
{ACAD_REACTORS
330
2A
102
}
330
2A
100
AcDbVisualStyle
  2
Flat
 70
     0
 71
     2
 72
     1
 73
     1
 90
        2
 40
-0.6
 41
30.0
 62
     5
 63
     7
421
 16777215
 74
     0
 91
        4
 64
     7
 65
   257
 75
     1
175
     1
 42
1.0
 92
        8
 66
     7
 43
1.0
 76
     1
 77
     6
 78
     2
 67
     7
 79
     5
170
     0
171
     0
290
     0
174
     0
 93
       13
 44
0.0
173
     0
291
     1
 45
0.0
  0
VISUALSTYLE
  5
2C
102
{ACAD_REACTORS
330
2A
102
}
330
2A
100
AcDbVisualStyle
  2
FlatWithEdges
 70
     1
 71
     2
 72
     1
 73
     1
 90
        2
 40
-0.6
 41
30.0
 62
     5
 63
     7
421
 16777215
 74
     1
 91
        4
 64
     7
 65
   257
 75
     1
175
     1
 42
1.0
 92
        0
 66
   257
 43
1.0
 76
     1
 77
     6
 78
     2
 67
     7
 79
     5
170
     0
171
     0
290
     0
174
     0
 93
       13
 44
0.0
173
     0
291
     1
 45
0.0
  0
VISUALSTYLE
  5
2D
102
{ACAD_REACTORS
330
2A
102
}
330
2A
100
AcDbVisualStyle
  2
Gouraud
 70
     2
 71
     2
 72
     2
 73
     1
 90
        2
 40
-0.6
 41
30.0
 62
     5
 63
     7
421
 16777215
 74
     0
 91
        4
 64
     7
 65
   257
 75
     1
175
     1
 42
1.0
 92
        0
 66
     7
 43
1.0
 76
     1
 77
     6
 78
     2
 67
     7
 79
     5
170
     0
171
     0
290
     0
174
     0
 93
       13
 44
0.0
173
     0
291
     1
 45
0.0
  0
VISUALSTYLE
  5
2E
102
{ACAD_REACTORS
330
2A
102
}
330
2A
100
AcDbVisualStyle
  2
GouraudWithEdges
 70
     3
 71
     2
 72
     2
 73
     1
 90
        2
 40
-0.6
 41
30.0
 62
     5
 63
     7
421
 16777215
 74
     1
 91
        4
 64
     7
 65
   257
 75
     1
175
     1
 42
1.0
 92
        0
 66
   257
 43
1.0
 76
     1
 77
     6
 78
     2
 67
     7
 79
     5
170
     0
171
     0
290
     0
174
     0
 93
       13
 44
0.0
173
     0
291
     1
 45
0.0
  0
VISUALSTYLE
  5
38
102
{ACAD_REACTORS
330
2A
102
}
330
2A
100
AcDbVisualStyle
  2
Linepattern
 70
    14
 71
     2
 72
     2
 73
     0
 90
        0
 40
-0.6
 41
-30.0
 62
     5
 63
     7
421
 16777215
 74
     1
 91
        4
 64
     7
 65
   257
 75
     7
175
     7
 42
1.0
 92
        8
 66
     7
 43
1.0
 76
     1
 77
     6
 78
     2
 67
     7
 79
     5
170
     0
171
     0
290
     0
174
     0
 93
        1
 44
0.0
173
     0
291
     1
 45
0.0
  0
VISUALSTYLE
  5
33
102
{ACAD_REACTORS
330
2A
102
}
330
2A
100
AcDbVisualStyle
  2
Realistic
 70
     8
 71
     2
 72
     2
 73
     0
 90
        0
 40
-0.6
 41
-30.0
 62
     5
 63
     7
421
 16777215
 74
     1
 91
        0
 64
     7
 65
   257
 75
     1
175
     1
 42
1.0
 92
        8
 66
     8
424
  7895160
 43
1.0
 76
     1
 77
     6
 78
     2
 67
     7
 79
     5
170
     0
171
     0
290
     0
174
     0
 93
       13
 44
0.0
173
     0
291
     0
 45
0.0
  0
VISUALSTYLE
  5
37
102
{ACAD_REACTORS
330
2A
102
}
330
2A
100
AcDbVisualStyle
  2
Thicken
 70
    13
 71
     2
 72
     2
 73
     0
 90
        0
 40
-0.6
 41
-30.0
 62
     5
 63
     7
421
 16777215
 74
     1
 91
        4
 64
     7
 65
   257
 75
     1
175
     1
 42
1.0
 92
       12
 66
     7
 43
1.0
 76
     1
 77
     6
 78
     2
 67
     7
 79
     5
170
     0
171
     0
290
     0
174
     0
 93
        1
 44
0.0
173
     0
291
     1
 45
0.0
  0
ENDSEC
  0
EOF
