  0
SECTION
  2
HEADER
  9
$ACADVER
  1
AC1021
  9
$ACADMAINTVER
 70
    25
  9
$DWGCODEPAGE
  3
ANSI_932
  9
$INSBASE
 10
0.0
 20
0.0
 30
0.0
  9
$EXTMIN
 10
0.0
 20
0.0
 30
0.0
  9
$EXTMAX
 10
325.6666666666667
 20
216.6666666666667
 30
10.0
  9
$LIMMIN
 10
0.0
 20
0.0
  9
$LIMMAX
 10
12.0
 20
9.0
  9
$ORTHOMODE
 70
     0
  9
$REGENMODE
 70
     1
  9
$FILLMODE
 70
     1
  9
$QTEXTMODE
 70
     0
  9
$MIRRTEXT
 70
     1
  9
$LTSCALE
 40
1.0
  9
$ATTMODE
 70
     1
  9
$TEXTSIZE
 40
0.2
  9
$TRACEWID
 40
0.05
  9
$TEXTSTYLE
  7
Standard
  9
$CLAYER
  8
0
  9
$CELTYPE
  6
ByLayer
  9
$CECOLOR
 62
   256
  9
$CELTSCALE
 40
1.0
  9
$DISPSILH
 70
     0
  9
$DIMSCALE
 40
1.0
  9
$DIMASZ
 40
3.0
  9
$DIMEXO
 40
0.0625
  9
$DIMDLI
 40
0.38
  9
$DIMRND
 40
0.0
  9
$DIMDLE
 40
0.0
  9
$DIMEXE
 40
0.18
  9
$DIMTP
 40
0.0
  9
$DIMTM
 40
0.0
  9
$DIMTXT
 40
3.0
  9
$DIMCEN
 40
0.09
  9
$DIMTSZ
 40
0.0
  9
$DIMTOL
 70
     0
  9
$DIMLIM
 70
     0
  9
$DIMTIH
 70
     1
  9
$DIMTOH
 70
     1
  9
$DIMSE1
 70
     0
  9
$DIMSE2
 70
     0
  9
$DIMTAD
 70
     1
  9
$DIMZIN
 70
     0
  9
$DIMBLK
  1

  9
$DIMASO
 70
     1
  9
$DIMSHO
 70
     1
  9
$DIMPOST
  1

  9
$DIMAPOST
  1

  9
$DIMALT
 70
     0
  9
$DIMALTD
 70
     2
  9
$DIMALTF
 40
25.4
  9
$DIMLFAC
 40
1.0
  9
$DIMTOFL
 70
     0
  9
$DIMTVP
 40
0.0
  9
$DIMTIX
 70
     0
  9
$DIMSOXD
 70
     0
  9
$DIMSAH
 70
     0
  9
$DIMBLK1
  1

  9
$DIMBLK2
  1

  9
$DIMSTYLE
  2
Standard
  9
$DIMCLRD
 70
     0
  9
$DIMCLRE
 70
     0
  9
$DIMCLRT
 70
     0
  9
$DIMTFAC
 40
1.0
  9
$DIMGAP
 40
0.09
  9
$DIMJUST
 70
     0
  9
$DIMSD1
 70
     0
  9
$DIMSD2
 70
     0
  9
$DIMTOLJ
 70
     1
  9
$DIMTZIN
 70
     0
  9
$DIMALTZ
 70
     0
  9
$DIMALTTZ
 70
     0
  9
$DIMUPT
 70
     0
  9
$DIMDEC
 70
     2
  9
$DIMTDEC
 70
     4
  9
$DIMALTU
 70
     2
  9
$DIMALTTD
 70
     2
  9
$DIMTXSTY
  7
Standard
  9
$DIMAUNIT
 70
     0
  9
$DIMADEC
 70
     2
  9
$DIMALTRND
 40
0.0
  9
$DIMAZIN
 70
     0
  9
$DIMDSEP
 70
    46
  9
$DIMATFIT
 70
     3
  9
$DIMFRAC
 70
     0
  9
$DIMLDRBLK
  1

  9
$DIMLUNIT
 70
     2
  9
$DIMLWD
 70
    -2
  9
$DIMLWE
 70
    -2
  9
$DIMTMOVE
 70
     0
  9
$DIMFXL
 40
1.0
  9
$DIMFXLON
 70
     0
  9
$DIMJOGANG
 40
0.7853981633974483
  9
$DIMTFILL
 70
     0
  9
$DIMTFILLCLR
 70
     0
  9
$DIMARCSYM
 70
     0
  9
$DIMLTYPE
  6

  9
$DIMLTEX1
  6

  9
$DIMLTEX2
  6

  9
$LUNITS
 70
     2
  9
$LUPREC
 70
     4
  9
$SKETCHINC
 40
0.1
  9
$FILLETRAD
 40
0.5
  9
$AUNITS
 70
     0
  9
$AUPREC
 70
     0
  9
$MENU
  1
.
  9
$ELEVATION
 40
0.0
  9
$PELEVATION
 40
0.0
  9
$THICKNESS
 40
0.0
  9
$LIMCHECK
 70
     0
  9
$CHAMFERA
 40
0.5
  9
$CHAMFERB
 40
0.5
  9
$CHAMFERC
 40
1.0
  9
$CHAMFERD
 40
0.0
  9
$SKPOLY
 70
     0
  9
$TDCREATE
 40
2459545.429545139
  9
$TDUCREATE
 40
2459545.054545139
  9
$TDUPDATE
 40
2459545.429545151
  9
$TDUUPDATE
 40
2459545.054545151
  9
$TDINDWG
 40
0.0000000116
  9
$TDUSRTIMER
 40
0.0000000116
  9
$USRTIMER
 70
     1
  9
$ANGBASE
 50
0.0
  9
$ANGDIR
 70
     0
  9
$PDMODE
 70
     0
  9
$PDSIZE
 40
0.0
  9
$PLINEWID
 40
0.0
  9
$SPLFRAME
 70
     0
  9
$SPLINETYPE
 70
     6
  9
$SPLINESEGS
 70
     8
  9
$HANDSEED
  5
12E
  9
$SURFTAB1
 70
     6
  9
$SURFTAB2
 70
     6
  9
$SURFTYPE
 70
     6
  9
$SURFU
 70
     6
  9
$SURFV
 70
     6
  9
$UCSBASE
  2

  9
$UCSNAME
  2

  9
$UCSORG
 10
0.0
 20
0.0
 30
0.0
  9
$UCSXDIR
 10
1.0
 20
0.0
 30
0.0
  9
$UCSYDIR
 10
0.0
 20
1.0
 30
0.0
  9
$UCSORTHOREF
  2

  9
$UCSORTHOVIEW
 70
     0
  9
$UCSORGTOP
 10
0.0
 20
0.0
 30
0.0
  9
$UCSORGBOTTOM
 10
0.0
 20
0.0
 30
0.0
  9
$UCSORGLEFT
 10
0.0
 20
0.0
 30
0.0
  9
$UCSORGRIGHT
 10
0.0
 20
0.0
 30
0.0
  9
$UCSORGFRONT
 10
0.0
 20
0.0
 30
0.0
  9
$UCSORGBACK
 10
0.0
 20
0.0
 30
0.0
  9
$PUCSBASE
  2

  9
$PUCSNAME
  2

  9
$PUCSORG
 10
0.0
 20
0.0
 30
0.0
  9
$PUCSXDIR
 10
1.0
 20
0.0
 30
0.0
  9
$PUCSYDIR
 10
0.0
 20
1.0
 30
0.0
  9
$PUCSORTHOREF
  2

  9
$PUCSORTHOVIEW
 70
     0
  9
$PUCSORGTOP
 10
0.0
 20
0.0
 30
0.0
  9
$PUCSORGBOTTOM
 10
0.0
 20
0.0
 30
0.0
  9
$PUCSORGLEFT
 10
0.0
 20
0.0
 30
0.0
  9
$PUCSORGRIGHT
 10
0.0
 20
0.0
 30
0.0
  9
$PUCSORGFRONT
 10
0.0
 20
0.0
 30
0.0
  9
$PUCSORGBACK
 10
0.0
 20
0.0
 30
0.0
  9
$USERI1
 70
     0
  9
$USERI2
 70
     0
  9
$USERI3
 70
     0
  9
$USERI4
 70
     0
  9
$USERI5
 70
     0
  9
$USERR1
 40
0.0
  9
$USERR2
 40
0.0
  9
$USERR3
 40
0.0
  9
$USERR4
 40
0.0
  9
$USERR5
 40
0.0
  9
$WORLDVIEW
 70
     1
  9
$SHADEDGE
 70
     3
  9
$SHADEDIF
 70
    70
  9
$TILEMODE
 70
     1
  9
$MAXACTVP
 70
    64
  9
$PINSBASE
 10
0.0
 20
0.0
 30
0.0
  9
$PLIMCHECK
 70
     0
  9
$PEXTMIN
 10
1.000000000000000E+20
 20
1.000000000000000E+20
 30
1.000000000000000E+20
  9
$PEXTMAX
 10
-1.000000000000000E+20
 20
-1.000000000000000E+20
 30
-1.000000000000000E+20
  9
$PLIMMIN
 10
0.0
 20
0.0
  9
$PLIMMAX
 10
12.0
 20
9.0
  9
$UNITMODE
 70
     0
  9
$VISRETAIN
 70
     1
  9
$PLINEGEN
 70
     0
  9
$PSLTSCALE
 70
     1
  9
$TREEDEPTH
 70
  3020
  9
$CMLSTYLE
  2
Standard
  9
$CMLJUST
 70
     0
  9
$CMLSCALE
 40
1.0
  9
$PROXYGRAPHICS
 70
     1
  9
$MEASUREMENT
 70
     1
  9
$CELWEIGHT
370
    -1
  9
$ENDCAPS
280
     0
  9
$JOINSTYLE
280
     0
  9
$LWDISPLAY
290
     1
  9
$INSUNITS
 70
     4
  9
$HYPERLINKBASE
  1

  9
$STYLESHEET
  1

  9
$XEDIT
290
     1
  9
$CEPSNTYPE
380
     0
  9
$PSTYLEMODE
290
     1
  9
$FINGERPRINTGUID
  2
{38922D24-D078-482F-AD40-5017BDB9BF92}
  9
$VERSIONGUID
  2
{FAEB1C32-E019-11D5-929B-00C0DF256EC4}
  9
$EXTNAMES
290
     1
  9
$PSVPSCALE
 40
0.0
  9
$OLESTARTUP
290
     0
  9
$SORTENTS
280
   127
  9
$INDEXCTL
280
     0
  9
$HIDETEXT
280
     1
  9
$XCLIPFRAME
290
     0
  9
$HALOGAP
280
     0
  9
$OBSCOLOR
 70
   257
  9
$OBSLTYPE
280
     0
  9
$INTERSECTIONDISPLAY
280
     0
  9
$INTERSECTIONCOLOR
 70
   257
  9
$DIMASSOC
280
     2
  9
$PROJECTNAME
  1

  9
$CAMERADISPLAY
290
     0
  9
$LENSLENGTH
 40
50.0
  9
$CAMERAHEIGHT
 40
0.0
  9
$STEPSPERSEC
 40
2.0
  9
$STEPSIZE
 40
6.0
  9
$3DDWFPREC
 40
2.0
  9
$PSOLWIDTH
 40
0.25
  9
$PSOLHEIGHT
 40
4.0
  9
$LOFTANG1
 40
1.570796326794897
  9
$LOFTANG2
 40
1.570796326794897
  9
$LOFTMAG1
 40
0.0
  9
$LOFTMAG2
 40
0.0
  9
$LOFTPARAM
 70
     7
  9
$LOFTNORMALS
280
     1
  9
$LATITUDE
 40
37.795
  9
$LONGITUDE
 40
-122.394
  9
$NORTHDIRECTION
 40
0.0
  9
$TIMEZONE
 70
 -8000
  9
$LIGHTGLYPHDISPLAY
280
     1
  9
$TILEMODELIGHTSYNCH
280
     1
  9
$SOLIDHIST
280
     1
  9
$SHOWHIST
280
     1
  9
$DWFFRAME
280
     2
  9
$DGNFRAME
280
     2
  9
$REALWORLDSCALE
290
     1
  9
$INTERFERECOLOR
 62
   256
  9
$CSHADOW
280
     0
  9
$SHADOWPLANELOCATION
 40
0.0
  0
ENDSEC
  0
SECTION
  2
CLASSES
  0
CLASS
  1
ACDBDICTIONARYWDFLT
  2
AcDbDictionaryWithDefault
  3
ObjectDBX Classes
 90
        0
 91
        4
280
     0
281
     0
  0
CLASS
  1
VISUALSTYLE
  2
AcDbVisualStyle
  3
ObjectDBX Classes
 90
     4095
 91
        4
280
     0
281
     0
  0
ENDSEC
  0
SECTION
  2
TABLES
  0
TABLE
  2
VPORT
  5
8
330
0
100
AcDbSymbolTable
 70
     1
  0
VPORT
  5
29
330
8
100
AcDbSymbolTableRecord
100
AcDbViewportTableRecord
  2
*Active
 70
     0
 10
0.0
 20
0.0
 11
1.0
 21
1.0
 12
162.8333333333333
 22
108.3333333333334
 13
0.0
 23
0.0
 14
0.5
 24
0.5
 15
0.5
 25
0.5
 16
0.0
 26
0.0
 36
1.0
 17
0.0
 27
0.0
 37
0.0
 40
216.6666666666667
 41
1.6
 42
50.0
 43
0.0
 44
0.0
 50
0.0
 51
0.0
 71
     0
 72
   100
 73
     1
 74
     3
 75
     0
 76
     0
 77
     0
 78
     0
281
     0
 65
     1
110
0.0
120
0.0
130
0.0
111
1.0
121
0.0
131
0.0
112
0.0
122
1.0
132
0.0
 79
     0
146
0.0
 60
     3
 61
     5
292
     1
282
     1
141
0.0
142
0.0
 63
   250
  0
ENDTAB
  0
TABLE
  2
LTYPE
  5
5
330
0
100
AcDbSymbolTable
 70
     3
  0
LTYPE
  5
14
330
5
100
AcDbSymbolTableRecord
100
AcDbLinetypeTableRecord
  2
ByBlock
 70
     0
  3

 72
    65
 73
     0
 40
0.0
  0
LTYPE
  5
15
330
5
100
AcDbSymbolTableRecord
100
AcDbLinetypeTableRecord
  2
ByLayer
 70
     0
  3

 72
    65
 73
     0
 40
0.0
  0
LTYPE
  5
16
330
5
100
AcDbSymbolTableRecord
100
AcDbLinetypeTableRecord
  2
Continuous
 70
     0
  3
Solid line
 72
    65
 73
     0
 40
0.0
  0
LTYPE
  5
3D
330
5
100
AcDbSymbolTableRecord
100
AcDbLinetypeTableRecord
  2
________________
 70
     0
  3

 72
    65
 73
     0
 40
0.0
  0
LTYPE
  5
128
330
5
100
AcDbSymbolTableRecord
100
AcDbLinetypeTableRecord
  2
______....__....
 70
     0
  3

 72
    65
 73
     4
 40
6.0
 49
2.25
 74
     0
 49
-1.5
 74
     0
 49
0.7499999999999999
 74
     0
 49
-1.5
 74
     0
  0
ENDTAB
  0
TABLE
  2
LAYER
  5
2
330
0
100
AcDbSymbolTable
 70
     2
  0
LAYER
  5
10
330
2
100
AcDbSymbolTableRecord
100
AcDbLayerTableRecord
  2
0
 70
     0
 62
     7
  6
Continuous
370
    -3
390
F
347
0
  0
LAYER
  5
3B
330
2
100
AcDbSymbolTableRecord
100
AcDbLayerTableRecord
  2
1
 70
     0
 62
     7
  6
Continuous
370
    -3
390
F
347
0
  0
ENDTAB
  0
TABLE
  2
STYLE
  5
3
330
0
100
AcDbSymbolTable
 70
     1
  0
STYLE
  5
11
330
3
100
AcDbSymbolTableRecord
100
AcDbTextStyleTableRecord
  2
Standard
 70
     0
 40
0.0
 41
1.0
 50
0.0
 71
     0
 42
0.2
  3
txt
  4

  0
ENDTAB
  0
TABLE
  2
VIEW
  5
6
330
0
100
AcDbSymbolTable
 70
     0
  0
ENDTAB
  0
TABLE
  2
UCS
  5
7
330
0
100
AcDbSymbolTable
 70
     0
  0
ENDTAB
  0
TABLE
  2
APPID
  5
9
330
0
100
AcDbSymbolTable
 70
     1
  0
APPID
  5
12
330
9
100
AcDbSymbolTableRecord
100
AcDbRegAppTableRecord
  2
ACAD
 70
     0
  0
ENDTAB
  0
TABLE
  2
DIMSTYLE
  5
A
330
0
100
AcDbSymbolTable
 70
     1
100
AcDbDimStyleTable
  0
DIMSTYLE
105
27
330
A
100
AcDbSymbolTableRecord
100
AcDbDimStyleTableRecord
  2
Standard
 70
     0
340
11
  0
ENDTAB
  0
TABLE
  2
BLOCK_RECORD
  5
1
330
0
100
AcDbSymbolTable
 70
     1
  0
BLOCK_RECORD
  5
1F
330
1
100
AcDbSymbolTableRecord
100
AcDbBlockTableRecord
  2
*Model_Space
340
22
 70
     0
280
     1
281
     0
  0
BLOCK_RECORD
  5
1B
330
1
100
AcDbSymbolTableRecord
100
AcDbBlockTableRecord
  2
*Paper_Space
340
1E
 70
     0
280
     1
281
     0
  0
BLOCK_RECORD
  5
23
330
1
100
AcDbSymbolTableRecord
100
AcDbBlockTableRecord
  2
*Paper_Space0
340
26
 70
     0
280
     1
281
     0
  0
ENDTAB
  0
ENDSEC
  0
SECTION
  2
BLOCKS
  0
BLOCK
  5
20
330
1F
100
AcDbEntity
  8
0
100
AcDbBlockBegin
  2
*Model_Space
 70
     0
 10
0.0
 20
0.0
 30
0.0
  3
*Model_Space
  1

  0
ENDBLK
  5
21
330
1F
100
AcDbEntity
  8
0
100
AcDbBlockEnd
  0
BLOCK
  5
1C
330
1B
100
AcDbEntity
 67
     1
  8
0
100
AcDbBlockBegin
  2
*Paper_Space
 70
     0
 10
0.0
 20
0.0
 30
0.0
  3
*Paper_Space
  1

  0
ENDBLK
  5
1D
330
1B
100
AcDbEntity
 67
     1
  8
0
100
AcDbBlockEnd
  0
BLOCK
  5
24
330
23
100
AcDbEntity
  8
0
100
AcDbBlockBegin
  2
*Paper_Space0
 70
     0
 10
0.0
 20
0.0
 30
0.0
  3
*Paper_Space0
  1

  0
ENDBLK
  5
25
330
23
100
AcDbEntity
  8
0
100
AcDbBlockEnd
  0
ENDSEC
  0
SECTION
  2
ENTITIES
  0
LINE
  5
3C
330
1F
100
AcDbEntity
  8
1
  6
________________
 62
     7
370
     0
100
AcDbLine
 10
197.8833333333333
 20
171.6666666666667
 30
0.0
 11
197.8833333333333
 21
191.6666666666667
 31
0.0
  0
LINE
  5
3E
330
1F
100
AcDbEntity
  8
1
  6
________________
 62
     7
370
     0
100
AcDbLine
 10
195.8833333333334
 20
171.6666666666667
 30
0.0
 11
195.8833333333334
 21
191.6666666666667
 31
0.0
  0
LINE
  5
3F
330
1F
100
AcDbEntity
  8
1
  6
________________
 62
     7
370
     0
100
AcDbLine
 10
210.7007857397706
 20
185.0504065718022
 30
0.0
 11
210.7007857397706
 21
178.2829267615312
 31
0.0
  0
ARC
  5
40
330
1F
100
AcDbEntity
  8
1
  6
________________
 62
     7
370
     0
100
AcDbCircle
 10
224.2058333333333
 20
181.6666666666667
 30
0.0
 40
13.9225
100
AcDbArc
 50
99.92886636202016
 51
179.9999999999999
  0
LINE
  5
41
330
1F
100
AcDbEntity
  8
1
  6
________________
 62
     7
370
     0
100
AcDbLine
 10
210.2833333333333
 20
181.6666666666667
 30
0.0
 11
208.6507813291986
 21
181.6666666666667
 31
0.0
  0
ARC
  5
42
330
1F
100
AcDbEntity
  8
1
  6
________________
 62
     7
370
     0
100
AcDbCircle
 10
-228.0591136207226
 20
182.4650744058893
 30
0.0
 40
19.42474754678333
210
0.0
220
0.0
230
-1.0
100
AcDbArc
 50
357.6443305611805
 51
23.62701453103506
  0
LINE
  5
43
330
1F
100
AcDbEntity
  8
1
  6
________________
 62
     7
370
     0
100
AcDbLine
 10
210.2626675619552
 20
190.2501450499907
 30
0.0
 11
210.2833333333326
 21
190.3925970313544
 31
0.0
  0
ARC
  5
44
330
1F
100
AcDbEntity
  8
1
  6
________________
 62
     7
370
     0
100
AcDbCircle
 10
224.2058333333333
 20
181.6666666666667
 30
0.0
 40
13.9225
100
AcDbArc
 50
179.9999999999999
 51
260.0711336379798
  0
LINE
  5
45
330
1F
100
AcDbEntity
  8
1
  6
________________
 62
     7
370
     0
100
AcDbLine
 10
210.2833333333333
 20
172.9407363019792
 30
0.0
 11
210.2617710321514
 21
173.0878697371242
 31
0.0
  0
ARC
  5
46
330
1F
100
AcDbEntity
  8
1
  6
________________
 62
     7
370
     0
100
AcDbCircle
 10
-228.0426259250343
 20
180.8675499161684
 30
0.0
 40
19.4083029760454
210
0.0
220
0.0
230
-1.0
100
AcDbArc
 50
336.3691180625562
 51
2.359761380493751
  0
LINE
  5
47
330
1F
100
AcDbEntity
  8
1
  6
________________
 62
     7
370
     0
100
AcDbLine
 10
198.3833333333333
 20
181.6666666666667
 30
0.0
 11
198.3833333333333
 21
194.0572058875281
 31
0.0
  0
LINE
  5
48
330
1F
100
AcDbEntity
  8
1
  6
________________
 62
     7
370
     0
100
AcDbLine
 10
210.029051029768
 20
194.260482646055
 30
0.0
 11
198.3833333333333
 21
194.0572058875281
 31
0.0
  0
LINE
  5
49
330
1F
100
AcDbEntity
  8
1
  6
________________
 62
     7
370
     0
100
AcDbLine
 10
210.2833333333325
 20
194.2841777114246
 30
0.0
 11
209.929051029768
 21
194.260482646055
 31
0.0
  0
LINE
  5
4A
330
1F
100
AcDbEntity
  8
1
  6
________________
 62
     7
370
     0
100
AcDbLine
 10
210.2833333333334
 20
194.2841777114246
 30
0.0
 11
210.2833333333334
 21
190.3925970313542
 31
0.0
  0
LINE
  5
4B
330
1F
100
AcDbEntity
  8
1
  6
________________
 62
     7
370
     0
100
AcDbLine
 10
208.7507813291986
 20
181.6666666666667
 30
0.0
 11
198.3833333333333
 21
181.6666666666667
 31
0.0
  0
LINE
  5
4C
330
1F
100
AcDbEntity
  8
1
  6
________________
 62
     7
370
     0
100
AcDbLine
 10
209.929051029768
 20
169.0728506872783
 30
0.0
 11
210.2833333333326
 21
169.0491556219087
 31
0.0
  0
LINE
  5
4D
330
1F
100
AcDbEntity
  8
1
  6
________________
 62
     7
370
     0
100
AcDbLine
 10
210.029051029768
 20
169.0728506872783
 30
0.0
 11
198.3833333333333
 21
169.2761274458053
 31
0.0
  0
LINE
  5
4E
330
1F
100
AcDbEntity
  8
1
  6
________________
 62
     7
370
     0
100
AcDbLine
 10
198.3833333333333
 20
169.2761274458053
 30
0.0
 11
198.3833333333333
 21
181.6666666666667
 31
0.0
  0
LINE
  5
4F
330
1F
100
AcDbEntity
  8
1
  6
________________
 62
     7
370
     0
100
AcDbLine
 10
210.2833333333333
 20
169.0491556219088
 30
0.0
 11
210.2833333333333
 21
172.9407363019792
 31
0.0
  0
ARC
  5
50
330
1F
100
AcDbEntity
  8
1
  6
________________
 62
     7
370
     0
100
AcDbCircle
 10
-209.6246003765422
 20
164.4957106578052
 30
0.0
 40
4.600846677458637
210
0.0
220
0.0
230
-1.0
100
AcDbArc
 50
98.23169646081601
 51
129.8796367925
  0
ARC
  5
51
330
1F
100
AcDbEntity
  8
1
  6
________________
 62
     7
370
     0
100
AcDbCircle
 10
-209.6392847932705
 20
198.804726986536
 30
0.0
 40
4.566198010453104
210
0.0
220
0.0
230
-1.0
100
AcDbArc
 50
229.9971030084893
 51
261.8915637381959
  0
ARC
  5
52
330
1F
100
AcDbEntity
  8
1
  6
________________
 62
     7
370
     0
100
AcDbCircle
 10
209.0754792304035
 20
167.0874451823694
 30
0.0
 40
2.000000000000002
100
AcDbArc
 50
28.21129889989129
 51
88.99999999999994
  0
ARC
  5
53
330
1F
100
AcDbEntity
  8
1
  6
________________
 62
     7
370
     0
100
AcDbCircle
 10
209.0754792304035
 20
196.245888150964
 30
0.0
 40
2.000000000000002
100
AcDbArc
 50
271.0000000000002
 51
331.7887011001089
  0
LINE
  5
54
330
1F
100
AcDbEntity
  8
1
  6
________________
 62
     7
370
     0
100
AcDbLine
 10
212.9912288500651
 20
164.0188533705661
 30
0.0
 11
210.8378997234
 21
168.0328942851062
 31
0.0
  0
LINE
  5
55
330
1F
100
AcDbEntity
  8
1
  6
________________
 62
     7
370
     0
100
AcDbLine
 10
210.8378997234
 20
195.3004390482272
 30
0.0
 11
212.9912288500652
 21
199.3144799627673
 31
0.0
  0
LINE
  5
56
330
1F
100
AcDbEntity
  8
1
  6
________________
 62
     7
370
     0
100
AcDbLine
 10
221.805240849654
 20
167.9526897825786
 30
0.0
 11
227.6227716311379
 21
166.9343476353196
 31
0.0
  0
LINE
  5
57
330
1F
100
AcDbEntity
  8
1
  6
________________
 62
     7
370
     0
100
AcDbLine
 10
227.6227716311379
 20
196.3989856980138
 30
0.0
 11
221.8052408496541
 21
195.3806435507548
 31
0.0
  0
LINE
  5
58
330
1F
100
AcDbEntity
  8
1
  6
________________
 62
     7
370
     0
100
AcDbLine
 10
227.6227716311378
 20
196.3989856980138
 30
0.0
 11
230.0075872271593
 21
196.8164408565837
 31
0.0
  0
LINE
  5
59
330
1F
100
AcDbEntity
  8
1
  6
________________
 62
     7
370
     0
100
AcDbLine
 10
230.0075872271593
 20
166.5168924767497
 30
0.0
 11
227.6227716311378
 21
166.9343476353196
 31
0.0
  0
ARC
  5
5A
330
1F
100
AcDbEntity
  8
1
  6
________________
 62
     7
370
     0
100
AcDbCircle
 10
-228.2833333333334
 20
206.6666666666666
 30
0.0
 40
9.999999999999954
210
0.0
220
0.0
230
-1.0
100
AcDbArc
 50
212.3677211014582
 51
260.0711336379798
  0
ARC
  5
5B
330
1F
100
AcDbEntity
  8
1
  6
________________
 62
     7
370
     0
100
AcDbCircle
 10
-228.2833333333333
 20
156.6666666666667
 30
0.0
 40
10.00000000000004
210
0.0
220
0.0
230
-1.0
100
AcDbArc
 50
99.92886636202026
 51
147.6322788985416
  0
LINE
  5
5C
330
1F
100
AcDbEntity
  8
1
  6
________________
 62
     7
370
     0
100
AcDbLine
 10
215.1449799397338
 20
203.3293074624788
 30
0.0
 11
212.9912288500651
 21
199.3144799627673
 31
0.0
  0
LINE
  5
5D
330
1F
100
AcDbEntity
  8
1
  6
________________
 62
     7
370
     0
100
AcDbLine
 10
212.9912288500651
 20
164.0188533705661
 30
0.0
 11
215.1449799397338
 21
160.0040258708546
 31
0.0
  0
ARC
  5
5E
330
1F
100
AcDbEntity
  8
1
  6
________________
 62
     7
370
     0
100
AcDbCircle
 10
-228.2833333333332
 20
206.6666666666667
 30
0.0
 40
10.00000000000015
210
0.0
220
0.0
230
-1.0
100
AcDbArc
 50
180.0000000000003
 51
212.3677211014581
  0
ARC
  5
5F
330
1F
100
AcDbEntity
  8
1
  6
________________
 62
     7
370
     0
100
AcDbCircle
 10
-228.2833333333331
 20
156.6666666666666
 30
0.0
 40
10.00000000000023
210
0.0
220
0.0
230
-1.0
100
AcDbArc
 50
147.632278898542
 51
179.9999999999995
  0
ARC
  5
60
330
1F
100
AcDbEntity
  8
1
  6
________________
 62
     7
370
     0
100
AcDbCircle
 10
-228.2834674560565
 20
206.6664425137723
 30
0.0
 40
10.00022415379384
210
0.0
220
0.0
230
-1.0
100
AcDbArc
 50
28.21206734926376
 51
89.99923155062757
  0
ARC
  5
61
330
1F
100
AcDbEntity
  8
1
  6
________________
 62
     7
370
     0
100
AcDbCircle
 10
-228.283453037205
 20
156.6668667220239
 30
0.0
 40
10.00020005607366
210
0.0
220
0.0
230
-1.0
100
AcDbArc
 50
270.000685838943
 51
331.7880152611658
  0
ARC
  5
62
330
1F
100
AcDbEntity
  8
1
  6
________________
 62
     7
370
     0
100
AcDbCircle
 10
-234.2832960282662
 20
212.6666293615995
 30
0.0
 40
4.00003730524115
210
0.0
220
0.0
230
-1.0
100
AcDbArc
 50
90.00053435074277
 51
179.9994656492572
  0
ARC
  5
63
330
1F
100
AcDbEntity
  8
1
  6
________________
 62
     7
370
     0
100
AcDbCircle
 10
-234.2833001350836
 20
150.6666998649164
 30
0.0
 40
4.00003319838746
210
0.0
220
0.0
230
-1.0
100
AcDbArc
 50
180.0004755259518
 51
269.999524474048
  0
LINE
  5
64
330
1F
100
AcDbEntity
  8
1
  6
________________
 62
     7
370
     0
100
AcDbLine
 10
219.4712308683508
 20
211.393912180351
 30
0.0
 11
215.1449799397338
 21
203.3293074624788
 31
0.0
  0
LINE
  5
65
330
1F
100
AcDbEntity
  8
1
  6
________________
 62
     7
370
     0
100
AcDbLine
 10
215.1449799397338
 20
160.0040258708547
 30
0.0
 11
219.4712308683508
 21
151.9394211529824
 31
0.0
  0
LINE
  5
66
330
1F
100
AcDbEntity
  8
1
  6
________________
 62
     7
370
     0
100
AcDbLine
 10
228.2833333333334
 20
216.6666666666667
 30
0.0
 11
234.2833333333334
 21
216.6666666666667
 31
0.0
  0
LINE
  5
67
330
1F
100
AcDbEntity
  8
1
  6
________________
 62
     7
370
     0
100
AcDbLine
 10
234.2833333333333
 20
146.6666666666667
 30
0.0
 11
228.2833333333333
 21
146.6666666666667
 31
0.0
  0
LINE
  5
68
330
1F
100
AcDbEntity
  8
1
  6
________________
 62
     7
370
     0
100
AcDbLine
 10
238.2833333333333
 20
206.6666666666667
 30
0.0
 11
238.2833333333333
 21
212.6666666666667
 31
0.0
  0
LINE
  5
69
330
1F
100
AcDbEntity
  8
1
  6
________________
 62
     7
370
     0
100
AcDbLine
 10
238.2833333333333
 20
150.6666666666667
 30
0.0
 11
238.2833333333333
 21
156.6666666666667
 31
0.0
  0
LINE
  5
6A
330
1F
100
AcDbEntity
  8
1
  6
________________
 62
     7
370
     0
100
AcDbLine
 10
144.2833333333333
 20
158.1666666666667
 30
0.0
 11
144.2833333333333
 21
205.1666666666667
 31
0.0
  0
LINE
  5
6B
330
1F
100
AcDbEntity
  8
1
  6
________________
 62
     7
370
     0
100
AcDbLine
 10
144.2833333333333
 20
158.1666666666667
 30
0.0
 11
144.2833333333333
 21
205.1666666666667
 31
0.0
  0
LINE
  5
6C
330
1F
100
AcDbEntity
  8
1
  6
________________
 62
     7
370
     0
100
AcDbLine
 10
138.2833333333333
 20
160.2367915824674
 30
0.0
 11
138.2833333333333
 21
203.096541750866
 31
0.0
  0
LINE
  5
6D
330
1F
100
AcDbEntity
  8
1
  6
________________
 62
     7
370
     0
100
AcDbLine
 10
138.2833333333333
 20
197.1666666666667
 30
0.0
 11
133.1960713011469
 21
197.077868177588
 31
0.0
  0
LINE
  5
6E
330
1F
100
AcDbEntity
  8
1
  6
________________
 62
     7
370
     0
100
AcDbLine
 10
138.2833333333333
 20
193.1666666666667
 30
0.0
 11
133.1960713011469
 21
193.2554651557454
 31
0.0
  0
LINE
  5
6F
330
1F
100
AcDbEntity
  8
1
  6
________________
 62
     7
370
     0
100
AcDbLine
 10
128.2833333333333
 20
193.3412173159489
 30
0.0
 11
128.2833333333333
 21
196.9921160173845
 31
0.0
  0
LINE
  5
70
330
1F
100
AcDbEntity
  8
1
  6
________________
 62
     7
370
     0
100
AcDbLine
 10
128.2833333333333
 20
196.9921160173845
 30
0.0
 11
133.1960713011469
 21
197.077868177588
 31
0.0
  0
LINE
  5
71
330
1F
100
AcDbEntity
  8
1
  6
________________
 62
     7
370
     0
100
AcDbLine
 10
133.1960713011469
 20
193.2554651557454
 30
0.0
 11
128.2833333333333
 21
193.3412173159489
 31
0.0
  0
LINE
  5
72
330
1F
100
AcDbEntity
  8
1
  6
________________
 62
     7
370
     0
100
AcDbLine
 10
189.2833333333333
 20
149.6666666666667
 30
0.0
 11
189.2833333333333
 21
213.6666666666667
 31
0.0
  0
LINE
  5
73
330
1F
100
AcDbEntity
  8
1
  6
________________
 62
     7
370
     0
100
AcDbLine
 10
195.2833333333333
 20
211.596541750866
 30
0.0
 11
195.2833333333333
 21
151.7367915824674
 31
0.0
  0
LINE
  5
74
330
1F
100
AcDbEntity
  8
1
  6
________________
 62
     7
370
     0
100
AcDbLine
 10
195.7833333333333
 20
190.6666666666667
 30
0.0
 11
195.7833333333333
 21
172.6666666666667
 31
0.0
  0
LINE
  5
75
330
1F
100
AcDbEntity
  8
1
  6
________________
 62
     7
370
     0
100
AcDbLine
 10
197.8833333333333
 20
191.6666666666667
 30
0.0
 11
195.8833333333333
 21
191.6666666666667
 31
0.0
  0
LINE
  5
76
330
1F
100
AcDbEntity
  8
1
  6
________________
 62
     7
370
     0
100
AcDbLine
 10
195.8833333333334
 20
171.6666666666667
 30
0.0
 11
197.8833333333334
 21
171.6666666666667
 31
0.0
  0
LINE
  5
77
330
1F
100
AcDbEntity
  8
1
  6
________________
 62
     7
370
     0
100
AcDbLine
 10
197.8833333333334
 20
172.6666666666667
 30
0.0
 11
198.3833333333334
 21
172.6666666666667
 31
0.0
  0
LINE
  5
78
330
1F
100
AcDbEntity
  8
1
  6
________________
 62
     7
370
     0
100
AcDbLine
 10
198.3833333333333
 20
190.6666666666667
 30
0.0
 11
197.8833333333334
 21
190.6666666666667
 31
0.0
  0
LINE
  5
79
330
1F
100
AcDbEntity
  8
1
  6
________________
 62
     7
370
     0
100
AcDbLine
 10
189.2833333333333
 20
205.1666666666667
 30
0.0
 11
144.2833333333333
 21
205.1666666666667
 31
0.0
  0
LINE
  5
7A
330
1F
100
AcDbEntity
  8
1
  6
________________
 62
     7
370
     0
100
AcDbLine
 10
144.2833333333333
 20
158.1666666666667
 30
0.0
 11
189.2833333333333
 21
158.1666666666667
 31
0.0
  0
LINE
  5
7B
330
1F
100
AcDbEntity
  8
1
  6
________________
 62
     7
370
     0
100
AcDbLine
 10
144.2833333333333
 20
205.1666666666667
 30
0.0
 11
140.2484285204588
 21
205.0962371411788
 31
0.0
  0
LINE
  5
7C
330
1F
100
AcDbEntity
  8
1
  6
________________
 62
     7
370
     0
100
AcDbLine
 10
140.2484285204588
 20
158.2370961921546
 30
0.0
 11
144.2833333333333
 21
158.1666666666667
 31
0.0
  0
ARC
  5
7D
330
1F
100
AcDbEntity
  8
1
  6
________________
 62
     7
370
     0
100
AcDbCircle
 10
140.2833333333333
 20
160.2367915824674
 30
0.0
 40
2.000000000000002
100
AcDbArc
 50
180.0
 51
268.9999999999998
  0
ARC
  5
7E
330
1F
100
AcDbEntity
  8
1
  6
________________
 62
     7
370
     0
100
AcDbCircle
 10
140.2833333333333
 20
203.096541750866
 30
0.0
 40
1.999999999999999
100
AcDbArc
 50
91.00000000000004
 51
180.0
  0
LINE
  5
7F
330
1F
100
AcDbEntity
  8
1
  6
________________
 62
     7
370
     0
100
AcDbLine
 10
189.2833333333333
 20
149.6666666666667
 30
0.0
 11
193.3182381462079
 21
149.7370961921546
 31
0.0
  0
LINE
  5
80
330
1F
100
AcDbEntity
  8
1
  6
________________
 62
     7
370
     0
100
AcDbLine
 10
193.3182381462079
 20
213.5962371411788
 30
0.0
 11
189.2833333333333
 21
213.6666666666667
 31
0.0
  0
ARC
  5
81
330
1F
100
AcDbEntity
  8
1
  6
________________
 62
     7
370
     0
100
AcDbCircle
 10
193.2833333333333
 20
151.7367915824674
 30
0.0
 40
2.000000000000006
100
AcDbArc
 50
271.0
 51
0.0
  0
ARC
  5
82
330
1F
100
AcDbEntity
  8
1
  6
________________
 62
     7
370
     0
100
AcDbCircle
 10
193.2833333333333
 20
211.596541750866
 30
0.0
 40
2.0
100
AcDbArc
 50
0.0
 51
89.00000000000001
  0
CIRCLE
  5
83
330
1F
100
AcDbEntity
  8
1
  6
________________
 62
     9
420
 12632256
370
     0
100
AcDbCircle
 10
-291.6666666666667
 20
181.6666666666667
 30
0.0
 40
5.000000000000004
210
0.0
220
0.0
230
-1.0
  0
ARC
  5
84
330
1F
100
AcDbEntity
  8
1
  6
________________
 62
     7
370
     0
100
AcDbCircle
 10
291.6666666666667
 20
181.6666666666667
 30
0.0
 40
7.999999999999982
100
AcDbArc
 50
150.0
 51
210.0
  0
ARC
  5
85
330
1F
100
AcDbEntity
  8
1
  6
________________
 62
     7
370
     0
100
AcDbCircle
 10
291.6666666666667
 20
181.6666666666667
 30
0.0
 40
8.000000000000007
100
AcDbArc
 50
90.0
 51
150.0
  0
ARC
  5
86
330
1F
100
AcDbEntity
  8
1
  6
________________
 62
     7
370
     0
100
AcDbCircle
 10
291.6666666666667
 20
181.6666666666667
 30
0.0
 40
8.000000000000032
100
AcDbArc
 50
29.99999999999999
 51
89.99999999999996
  0
ARC
  5
87
330
1F
100
AcDbEntity
  8
1
  6
________________
 62
     7
370
     0
100
AcDbCircle
 10
291.6666666666667
 20
181.6666666666667
 30
0.0
 40
8.000000000000032
100
AcDbArc
 50
330.0
 51
30.0
  0
ARC
  5
88
330
1F
100
AcDbEntity
  8
1
  6
________________
 62
     7
370
     0
100
AcDbCircle
 10
291.6666666666667
 20
181.6666666666667
 30
0.0
 40
8.000000000000007
100
AcDbArc
 50
270.0
 51
330.0
  0
ARC
  5
89
330
1F
100
AcDbEntity
  8
1
  6
________________
 62
     7
370
     0
100
AcDbCircle
 10
-291.6666666666667
 20
181.6666666666667
 30
0.0
 40
8.000000000000007
210
0.0
220
0.0
230
-1.0
100
AcDbArc
 50
270.0
 51
330.0
  0
CIRCLE
  5
8A
330
1F
100
AcDbEntity
  8
1
  6
________________
 62
     7
370
     0
100
AcDbCircle
 10
-291.6666666666667
 20
181.6666666666667
 30
0.0
 40
4.250000000000004
210
0.0
220
0.0
230
-1.0
  0
LINE
  5
8B
330
1F
100
AcDbEntity
  8
1
  6
________________
 62
     7
370
     0
100
AcDbLine
 10
287.0478645131496
 20
189.6666666666667
 30
0.0
 11
291.6666666666667
 21
189.6666666666667
 31
0.0
  0
LINE
  5
8C
330
1F
100
AcDbEntity
  8
1
  6
________________
 62
     7
370
     0
100
AcDbLine
 10
284.7384634363912
 20
185.6666666666667
 30
0.0
 11
287.0478645131496
 21
189.6666666666667
 31
0.0
  0
LINE
  5
8D
330
1F
100
AcDbEntity
  8
1
  6
________________
 62
     7
370
     0
100
AcDbLine
 10
284.7384634363912
 20
177.6666666666667
 30
0.0
 11
282.4290623596327
 21
181.6666666666667
 31
0.0
  0
LINE
  5
8E
330
1F
100
AcDbEntity
  8
1
  6
________________
 62
     7
370
     0
100
AcDbLine
 10
282.4290623596327
 20
181.6666666666667
 30
0.0
 11
284.7384634363912
 21
185.6666666666667
 31
0.0
  0
LINE
  5
8F
330
1F
100
AcDbEntity
  8
1
  6
________________
 62
     7
370
     0
100
AcDbLine
 10
287.0478645131496
 20
173.6666666666667
 30
0.0
 11
284.7384634363912
 21
177.6666666666667
 31
0.0
  0
LINE
  5
90
330
1F
100
AcDbEntity
  8
1
  6
________________
 62
     7
370
     0
100
AcDbLine
 10
291.6666666666667
 20
173.6666666666667
 30
0.0
 11
287.0478645131496
 21
173.6666666666667
 31
0.0
  0
LINE
  5
91
330
1F
100
AcDbEntity
  8
1
  6
________________
 62
     7
370
     0
100
AcDbLine
 10
296.2854688201837
 20
189.6666666666667
 30
0.0
 11
298.5948698969422
 21
185.6666666666667
 31
0.0
  0
LINE
  5
92
330
1F
100
AcDbEntity
  8
1
  6
________________
 62
     7
370
     0
100
AcDbLine
 10
291.6666666666667
 20
189.6666666666667
 30
0.0
 11
296.2854688201837
 21
189.6666666666667
 31
0.0
  0
LINE
  5
93
330
1F
100
AcDbEntity
  8
1
  6
________________
 62
     7
370
     0
100
AcDbLine
 10
296.2854688201837
 20
173.6666666666667
 30
0.0
 11
291.6666666666667
 21
173.6666666666667
 31
0.0
  0
LINE
  5
94
330
1F
100
AcDbEntity
  8
1
  6
________________
 62
     7
370
     0
100
AcDbLine
 10
298.5948698969422
 20
177.6666666666667
 30
0.0
 11
296.2854688201837
 21
173.6666666666667
 31
0.0
  0
LINE
  5
95
330
1F
100
AcDbEntity
  8
1
  6
________________
 62
     7
370
     0
100
AcDbLine
 10
298.5948698969422
 20
185.6666666666667
 30
0.0
 11
300.9042709737007
 21
181.6666666666667
 31
0.0
  0
LINE
  5
96
330
1F
100
AcDbEntity
  8
1
  6
________________
 62
     7
370
     0
100
AcDbLine
 10
300.9042709737007
 20
181.6666666666667
 30
0.0
 11
298.5948698969422
 21
177.6666666666667
 31
0.0
  0
LINE
  5
97
330
1F
100
AcDbEntity
  8
1
  6
________________
 62
     7
370
     0
100
AcDbLine
 10
288.8500742612567
 20
212.4618956137942
 30
0.0
 11
288.6044736260525
 21
214.3577152925695
 31
0.0
  0
ARC
  5
98
330
1F
100
AcDbEntity
  8
1
  6
________________
 62
     7
370
     0
100
AcDbCircle
 10
290.5804668063149
 20
214.6666666666666
 30
0.0
 40
2.000000000000002
100
AcDbArc
 50
89.99999999999986
 51
188.8863890963516
  0
LINE
  5
99
330
1F
100
AcDbEntity
  8
1
  6
________________
 62
     7
370
     0
100
AcDbLine
 10
294.7288597072809
 20
214.3577152925695
 30
0.0
 11
294.4832590720766
 21
212.4618956137942
 31
0.0
  0
ARC
  5
9A
330
1F
100
AcDbEntity
  8
1
  6
________________
 62
     7
370
     0
100
AcDbCircle
 10
292.7528665270185
 20
214.6666666666666
 30
0.0
 40
2.000000000000032
100
AcDbArc
 50
351.1136109036498
 51
89.99999999999982
  0
ARC
  5
9B
330
1F
100
AcDbEntity
  8
1
  6
________________
 62
     7
370
     0
100
AcDbCircle
 10
252.6463702891816
 20
208.7355777534211
 30
0.0
 40
36.39496704345515
100
AcDbArc
 50
0.0000000000000035
 51
5.876556331633492
  0
ARC
  5
9C
330
1F
100
AcDbEntity
  8
1
  6
________________
 62
     7
370
     0
100
AcDbCircle
 10
252.6463702891816
 20
208.7355777534211
 30
0.0
 40
36.39496704345515
100
AcDbArc
 50
356.9111234403226
 51
0.0
  0
ARC
  5
9D
330
1F
100
AcDbEntity
  8
1
  6
________________
 62
     7
370
     0
100
AcDbCircle
 10
330.6869630441518
 20
208.7355777534211
 30
0.0
 40
36.39496704345515
100
AcDbArc
 50
174.1234436683665
 51
183.0888765596775
  0
LINE
  5
9E
330
1F
100
AcDbEntity
  8
1
  6
________________
 62
     7
370
     0
100
AcDbLine
 10
290.5804668063149
 20
216.6666666666666
 30
0.0
 11
292.7528665270185
 21
216.6666666666666
 31
0.0
  0
ARC
  5
9F
330
1F
100
AcDbEntity
  8
1
  6
________________
 62
     7
370
     0
100
AcDbCircle
 10
252.6463702891647
 20
208.7355777534229
 30
0.0
 40
36.39496704347213
100
AcDbArc
 50
350.4777245353981
 51
356.9111234403214
  0
ARC
  5
A0
330
1F
100
AcDbEntity
  8
1
  6
________________
 62
     7
370
     0
100
AcDbCircle
 10
252.6463702891816
 20
154.5977555799122
 30
0.0
 40
36.39496704345515
100
AcDbArc
 50
0.0000000000000035
 51
3.088876559677443
  0
ARC
  5
A1
330
1F
100
AcDbEntity
  8
1
  6
________________
 62
     7
370
     0
100
AcDbCircle
 10
252.6463702891816
 20
154.5977555799122
 30
0.0
 40
36.39496704345513
100
AcDbArc
 50
354.1234436683665
 51
0.0
  0
ARC
  5
A2
330
1F
100
AcDbEntity
  8
1
  6
________________
 62
     7
370
     0
100
AcDbCircle
 10
330.6869630441226
 20
154.5977555799156
 30
0.0
 40
36.39496704342579
100
AcDbArc
 50
170.4777245353941
 51
176.9111234403253
  0
LINE
  5
A3
330
1F
100
AcDbEntity
  8
1
  6
________________
 62
     7
370
     0
100
AcDbLine
 10
290.5804668063149
 20
146.6666666666667
 30
0.0
 11
292.7528665270185
 21
146.6666666666667
 31
0.0
  0
LINE
  5
A4
330
1F
100
AcDbEntity
  8
1
  6
________________
 62
     7
370
     0
100
AcDbLine
 10
288.6044736260525
 20
148.9756180407638
 30
0.0
 11
288.8500742612567
 21
150.8714377195391
 31
0.0
  0
ARC
  5
A5
330
1F
100
AcDbEntity
  8
1
  6
________________
 62
     7
370
     0
100
AcDbCircle
 10
290.5804668063149
 20
148.6666666666666
 30
0.0
 40
1.99999999999999
100
AcDbArc
 50
171.1136109036468
 51
270.0000000000002
  0
ARC
  5
A6
330
1F
100
AcDbEntity
  8
1
  6
________________
 62
     7
370
     0
100
AcDbCircle
 10
330.6869630441518
 20
154.5977555799122
 30
0.0
 40
36.39496704345518
100
AcDbArc
 50
176.9111234403226
 51
185.8765563316336
  0
LINE
  5
A7
330
1F
100
AcDbEntity
  8
1
  6
________________
 62
     7
370
     0
100
AcDbLine
 10
294.4832590720766
 20
150.8714377195391
 30
0.0
 11
294.7288597072809
 21
148.9756180407638
 31
0.0
  0
ARC
  5
A8
330
1F
100
AcDbEntity
  8
1
  6
________________
 62
     7
370
     0
100
AcDbCircle
 10
292.7528665270185
 20
148.6666666666667
 30
0.0
 40
2.000000000000002
100
AcDbArc
 50
270.0000000000002
 51
8.886389096351422
  0
ARC
  5
A9
330
1F
100
AcDbEntity
  8
1
  6
________________
 62
     7
370
     0
100
AcDbCircle
 10
330.6869630441431
 20
208.7355777534205
 30
0.0
 40
36.39496704344651
100
AcDbArc
 50
183.0888765596773
 51
189.5222754646048
  0
ARC
  5
AA
330
1F
100
AcDbEntity
  8
1
  6
________________
 62
     7
370
     0
100
AcDbCircle
 10
252.6463702891629
 20
154.5977555799103
 30
0.0
 40
36.39496704347397
100
AcDbArc
 50
3.088876559678974
 51
9.522275464601787
  0
ARC
  5
AB
330
1F
100
AcDbEntity
  8
1
  6
________________
 62
     7
370
     0
100
AcDbCircle
 10
278.6776945871794
 20
204.3690160293967
 30
0.0
 40
9.99995414334375
100
AcDbArc
 50
332.2760101867887
 51
350.4777666235393
  0
ARC
  5
AC
330
1F
100
AcDbEntity
  8
1
  6
________________
 62
     7
370
     0
100
AcDbCircle
 10
304.6556510004249
 20
158.9643131744153
 30
0.0
 40
9.999966911917145
100
AcDbArc
 50
152.2760219060774
 51
170.4777549042526
  0
ARC
  5
AD
330
1F
100
AcDbEntity
  8
1
  6
________________
 62
     7
370
     0
100
AcDbCircle
 10
278.6776894424739
 20
158.9643155702414
 30
0.0
 40
9.999959503968556
100
AcDbArc
 50
9.522238296567915
 51
27.72398489310393
  0
ARC
  5
AE
330
1F
100
AcDbEntity
  8
1
  6
________________
 62
     7
370
     0
100
AcDbCircle
 10
304.6556491952916
 20
204.3690195506128
 30
0.0
 40
9.999965031023766
100
AcDbArc
 50
189.5222433694227
 51
207.7239798202474
  0
ARC
  5
AF
330
1F
100
AcDbEntity
  8
1
  6
________________
 62
     7
370
     0
100
AcDbCircle
 10
304.6556827557583
 20
158.964302473303
 30
0.0
 40
10.00000000000001
100
AcDbArc
 50
150.0000000000003
 51
152.2760522749328
  0
ARC
  5
B0
330
1F
100
AcDbEntity
  8
1
  6
________________
 62
     7
370
     0
100
AcDbCircle
 10
304.6556827557583
 20
204.3690308600304
 30
0.0
 40
10.0
100
AcDbArc
 50
207.7239477250673
 51
209.9999999999999
  0
ARC
  5
B1
330
1F
100
AcDbEntity
  8
1
  6
________________
 62
     7
370
     0
100
AcDbCircle
 10
278.6776505775751
 20
158.964302473303
 30
0.0
 40
10.00000000000001
100
AcDbArc
 50
27.72394772506732
 51
29.99999999999991
  0
ARC
  5
B2
330
1F
100
AcDbEntity
  8
1
  6
________________
 62
     7
370
     0
100
AcDbCircle
 10
278.6776505775751
 20
204.3690308600304
 30
0.0
 40
10.0
100
AcDbArc
 50
330.0
 51
332.2760522749326
  0
LINE
  5
B3
330
1F
100
AcDbEntity
  8
1
  6
________________
 62
     7
370
     0
100
AcDbLine
 10
295.9954287179139
 20
199.3690308600304
 30
0.0
 11
296.583368830761
 21
198.3506887127713
 31
0.0
  0
LINE
  5
B4
330
1F
100
AcDbEntity
  8
1
  6
________________
 62
     7
370
     0
100
AcDbLine
 10
286.7499645025723
 20
198.3506887127713
 30
0.0
 11
287.3379046154195
 21
199.3690308600304
 31
0.0
  0
LINE
  5
B5
330
1F
100
AcDbEntity
  8
1
  6
________________
 62
     7
370
     0
100
AcDbLine
 10
287.3379046154195
 20
163.964302473303
 30
0.0
 11
286.7499645025723
 21
164.982644620562
 31
0.0
  0
LINE
  5
B6
330
1F
100
AcDbEntity
  8
1
  6
________________
 62
     7
370
     0
100
AcDbLine
 10
296.583368830761
 20
164.982644620562
 30
0.0
 11
295.9954287179139
 21
163.964302473303
 31
0.0
  0
LINE
  5
B7
330
1F
100
AcDbEntity
  8
1
  6
________________
 62
     7
370
     0
100
AcDbLine
 10
279.4268409598466
 20
181.6666666666667
 30
0.0
 11
277.1503445774612
 21
181.6666666666667
 31
0.0
  0
LINE
  5
B8
330
1F
100
AcDbEntity
  8
1
  6
________________
 62
     7
370
     0
100
AcDbLine
 10
277.1503445774612
 20
181.6666666666667
 30
0.0
 11
282.1553581280705
 21
190.3925970313544
 31
0.0
  0
LINE
  5
B9
330
1F
100
AcDbEntity
  8
1
  6
________________
 62
     7
370
     0
100
AcDbLine
 10
286.7499645025723
 20
198.3506887127714
 30
0.0
 11
282.1553581280704
 21
190.3925970313542
 31
0.0
  0
LINE
  5
BA
330
1F
100
AcDbEntity
  8
1
  6
________________
 62
     7
370
     0
100
AcDbLine
 10
303.9064923734867
 20
181.6666666666667
 30
0.0
 11
306.1829887558722
 21
181.6666666666667
 31
0.0
  0
LINE
  5
BB
330
1F
100
AcDbEntity
  8
1
  6
________________
 62
     7
370
     0
100
AcDbLine
 10
301.177975205263
 20
190.3925970313541
 30
0.0
 11
306.1829887558722
 21
181.6666666666667
 31
0.0
  0
LINE
  5
BC
330
1F
100
AcDbEntity
  8
1
  6
________________
 62
     7
370
     0
100
AcDbLine
 10
301.177975205263
 20
190.3925970313542
 30
0.0
 11
296.583368830761
 21
198.3506887127714
 31
0.0
  0
LINE
  5
BD
330
1F
100
AcDbEntity
  8
1
  6
________________
 62
     7
370
     0
100
AcDbLine
 10
306.1829887558722
 20
181.6666666666667
 30
0.0
 11
301.1779752052629
 21
172.940736301979
 31
0.0
  0
LINE
  5
BE
330
1F
100
AcDbEntity
  8
1
  6
________________
 62
     7
370
     0
100
AcDbLine
 10
296.583368830761
 20
164.982644620562
 30
0.0
 11
301.177975205263
 21
172.9407363019791
 31
0.0
  0
LINE
  5
BF
330
1F
100
AcDbEntity
  8
1
  6
________________
 62
     7
370
     0
100
AcDbLine
 10
282.1553581280704
 20
172.9407363019792
 30
0.0
 11
277.1503445774612
 21
181.6666666666667
 31
0.0
  0
LINE
  5
C0
330
1F
100
AcDbEntity
  8
1
  6
________________
 62
     7
370
     0
100
AcDbLine
 10
282.1553581280704
 20
172.9407363019792
 30
0.0
 11
286.7499645025723
 21
164.982644620562
 31
0.0
  0
LWPOLYLINE
  5
C1
330
1F
100
AcDbEntity
  8
1
  6
________________
 62
     7
370
     0
100
AcDbPolyline
 90
       26
 70
     0
 43
0.0
 10
296.0850034488879
 20
173.0140351797528
 10
296.1197737079972
 20
173.0146524001226
 10
296.1545083416469
 20
173.01649592945
 10
296.1891038435219
 20
173.0195535700623
 10
296.2234567073076
 20
173.0238131242865
 10
296.2586562691556
 20
173.0294683142976
 10
296.2935293603962
 20
173.0363735939365
 10
296.3279794396975
 20
173.0444908118346
 10
296.3619099657273
 20
173.0537818166232
 10
296.4052830522159
 20
173.0676184025334
 10
296.4477306641245
 20
173.0833635687108
 10
296.4891268120829
 20
173.1009006672104
 10
296.5293455067213
 20
173.1201130500871
 10
296.5682607586693
 20
173.1408840693959
 10
296.605746578557
 20
173.1630970771916
 10
296.6412558377446
 20
173.1863078251103
 10
296.6754597539199
 20
173.2108111390035
 10
296.7083075784042
 20
173.236506697814
 10
296.7397485625186
 20
173.2632941804848
 10
296.7706380369635
 20
173.2919402596256
 10
296.8000739241752
 20
173.3216419804052
 10
296.8280305152002
 20
173.3523094221576
 10
296.8544821010852
 20
173.3838526642168
 10
296.8880638469884
 20
173.4280766686438
 10
296.9189250789989
 20
173.4737378588216
 10
296.9470332605216
 20
173.5206511386776
  0
LWPOLYLINE
  5
C2
330
1F
100
AcDbEntity
  8
1
  6
________________
 62
     7
370
     0
100
AcDbPolyline
 90
        4
 70
     0
 43
0.0
 10
301.5970912967283
 20
181.6666666666667
 10
299.9406303766564
 20
178.7870826283529
 10
298.3679401746311
 20
176.0320290985561
 10
296.9470332605209
 20
173.5206511386778
  0
LWPOLYLINE
  5
C3
330
1F
100
AcDbEntity
  8
1
  6
________________
 62
     7
370
     0
100
AcDbPolyline
 90
        4
 70
     0
 43
0.0
 10
-301.5970912967282
 20
181.6666666666667
 10
-299.9406303766564
 20
184.5462507049804
 10
-298.3679401746311
 20
187.3013042347772
 10
-296.947033260521
 20
189.8126821946554
210
0.0
220
0.0
230
-1.0
  0
LWPOLYLINE
  5
C4
330
1F
100
AcDbEntity
  8
1
  6
________________
 62
     7
370
     0
100
AcDbPolyline
 90
       26
 70
     0
 43
0.0
 10
-296.0850034488878
 20
190.3192981535805
 10
-296.1197737079972
 20
190.3186809332107
 10
-296.1545083416469
 20
190.3168374038833
 10
-296.1891038435219
 20
190.3137797632711
 10
-296.2234567073076
 20
190.3095202090468
 10
-296.2586562691555
 20
190.3038650190358
 10
-296.2935293603962
 20
190.2969597393968
 10
-296.3279794396975
 20
190.2888425214987
 10
-296.3619099657273
 20
190.2795515167101
 10
-296.4052830522159
 20
190.2657149308
 10
-296.4477306641245
 20
190.2499697646225
 10
-296.4891268120829
 20
190.2324326661229
 10
-296.5293455067213
 20
190.2132202832462
 10
-296.5682607586693
 20
190.1924492639374
 10
-296.605746578557
 20
190.1702362561417
 10
-296.6412558377446
 20
190.147025508223
 10
-296.6754597539199
 20
190.1225221943298
 10
-296.7083075784042
 20
190.0968266355193
 10
-296.7397485625186
 20
190.0700391528486
 10
-296.7706380369635
 20
190.0413930737077
 10
-296.8000739241752
 20
190.0116913529281
 10
-296.8280305152002
 20
189.9810239111757
 10
-296.8544821010852
 20
189.9494806691166
 10
-296.8880638469884
 20
189.9052566646895
 10
-296.9189250789989
 20
189.8595954745117
 10
-296.9470332605216
 20
189.8126821946557
210
0.0
220
0.0
230
-1.0
  0
LINE
  5
C5
330
1F
100
AcDbEntity
  8
1
  6
________________
 62
     7
370
     0
100
AcDbLine
 10
296.0850034488878
 20
190.3192981535805
 30
0.0
 11
287.2483298844455
 21
190.3192981535805
 31
0.0
  0
LWPOLYLINE
  5
C6
330
1F
100
AcDbEntity
  8
1
  6
________________
 62
     7
370
     0
100
AcDbPolyline
 90
       26
 70
     0
 43
0.0
 10
-286.3863000728123
 20
189.8126821946554
 10
-286.415687855399
 20
189.8615995655585
 10
-286.4480734468527
 20
189.9091492191015
 10
-286.4834193953215
 20
189.9551200782058
 10
-286.5126592898962
 20
189.9893439101681
 10
-286.5436959908639
 20
190.0225064647653
 10
-286.576493541474
 20
190.0544884851767
 10
-286.6110159849762
 20
190.0851707145816
 10
-286.6486616867327
 20
190.1155416523275
 10
-286.6881812456324
 20
190.1443447933393
 10
-286.7294900981167
 20
190.1714197107062
 10
-286.7624995270709
 20
190.1910106201604
 10
-286.7965627300447
 20
190.2094674572494
 10
-286.8316086024534
 20
190.2267097693809
 10
-286.8675660397126
 20
190.2426571039628
 10
-286.8979288393928
 20
190.2548088124563
 10
-286.9288940829235
 20
190.2660191234512
 10
-286.9603984194262
 20
190.2762456200317
 10
-286.9923784980222
 20
190.2854458852822
 10
-287.0257315060528
 20
190.2938040090529
 10
-287.059544498463
 20
190.3010282422284
 10
-287.0937250326396
 20
190.3070859785456
 10
-287.1281806659692
 20
190.3119446117415
 10
-287.1680419659772
 20
190.3160191171181
 10
-287.2081452704745
 20
190.3184756955536
 10
-287.2483298844455
 20
190.3192981535805
210
0.0
220
0.0
230
-1.0
  0
LWPOLYLINE
  5
C7
330
1F
100
AcDbEntity
  8
1
  6
________________
 62
     7
370
     0
100
AcDbPolyline
 90
        4
 70
     0
 43
0.0
 10
-286.3863000728124
 20
189.8126821946553
 10
-284.9653931587022
 20
187.3013042347771
 10
-283.3927029566769
 20
184.5462507049803
 10
-281.7362420366051
 20
181.6666666666666
210
0.0
220
0.0
230
-1.0
  0
LWPOLYLINE
  5
C8
330
1F
100
AcDbEntity
  8
1
  6
________________
 62
     7
370
     0
100
AcDbPolyline
 90
        4
 70
     0
 43
0.0
 10
286.3863000728124
 20
173.5206511386779
 10
284.9653931587022
 20
176.0320290985561
 10
283.3927029566769
 20
178.787082628353
 10
281.7362420366052
 20
181.6666666666667
  0
LWPOLYLINE
  5
C9
330
1F
100
AcDbEntity
  8
1
  6
________________
 62
     7
370
     0
100
AcDbPolyline
 90
       26
 70
     0
 43
0.0
 10
286.3863000728123
 20
173.520651138678
 10
286.415687855399
 20
173.4717337677748
 10
286.4480734468527
 20
173.4241841142319
 10
286.4834193953216
 20
173.3782132551275
 10
286.5126592898962
 20
173.3439894231653
 10
286.5436959908639
 20
173.3108268685681
 10
286.576493541474
 20
173.2788448481567
 10
286.6110159849762
 20
173.2481626187518
 10
286.6486616867327
 20
173.2177916810058
 10
286.6881812456324
 20
173.188988539994
 10
286.7294900981167
 20
173.1619136226271
 10
286.7624995270709
 20
173.1423227131729
 10
286.7965627300447
 20
173.123865876084
 10
286.8316086024534
 20
173.1066235639524
 10
286.8675660397126
 20
173.0906762293705
 10
286.8979288393928
 20
173.078524520877
 10
286.9288940829235
 20
173.0673142098822
 10
286.9603984194262
 20
173.0570877133016
 10
286.9923784980222
 20
173.0478874480512
 10
287.0257315060528
 20
173.0395293242804
 10
287.059544498463
 20
173.0323050911049
 10
287.0937250326396
 20
173.0262473547878
 10
287.1281806659692
 20
173.0213887215919
 10
287.1680419659772
 20
173.0173142162153
 10
287.2081452704745
 20
173.0148576377797
 10
287.2483298844455
 20
173.0140351797528
  0
LINE
  5
CA
330
1F
100
AcDbEntity
  8
1
  6
________________
 62
     7
370
     0
100
AcDbLine
 10
296.0850034488879
 20
173.0140351797528
 30
0.0
 11
287.2483298844455
 21
173.0140351797528
 31
0.0
  0
LWPOLYLINE
  5
CB
330
1F
100
AcDbEntity
  8
1
  6
________________
 62
     7
370
     0
100
AcDbPolyline
 90
        6
 70
     0
 43
0.0
 10
287.3593381790633
 20
190.1270261472409
 10
287.1514541817872
 20
190.1051777325043
 10
286.9526603567952
 20
190.0405870493412
 10
286.7716420409379
 20
189.9360760759527
 10
286.6163079559748
 20
189.7962109149758
 10
286.4934446751425
 20
189.6271022996627
  0
LWPOLYLINE
  5
CC
330
1F
100
AcDbEntity
  8
1
  6
________________
 62
     7
370
     0
100
AcDbPolyline
 90
        6
 70
     0
 43
0.0
 10
286.4934446751426
 20
173.7062310336706
 10
286.6163079559749
 20
173.5371224183575
 10
286.771642040938
 20
173.3972572573805
 10
286.9526603567953
 20
173.2927462839921
 10
287.1514541817872
 20
173.228155600829
 10
287.3593381790633
 20
173.2063071860924
  0
LWPOLYLINE
  5
CD
330
1F
100
AcDbEntity
  8
1
  6
________________
 62
     7
370
     0
100
AcDbPolyline
 90
        6
 70
     0
 43
0.0
 10
296.8398886581908
 20
189.6271022996627
 10
296.7170253773585
 20
189.7962109149758
 10
296.5616912923954
 20
189.9360760759527
 10
296.3806729765381
 20
190.0405870493412
 10
296.1818791515461
 20
190.1051777325043
 10
295.97399515427
 20
190.1270261472409
  0
LWPOLYLINE
  5
CE
330
1F
100
AcDbEntity
  8
1
  6
________________
 62
     7
370
     0
100
AcDbPolyline
 90
        6
 70
     0
 43
0.0
 10
295.97399515427
 20
173.2063071860924
 10
296.1818791515461
 20
173.228155600829
 10
296.3806729765381
 20
173.2927462839922
 10
296.5616912923954
 20
173.3972572573806
 10
296.7170253773585
 20
173.5371224183575
 10
296.8398886581908
 20
173.7062310336706
  0
LINE
  5
CF
330
1F
100
AcDbEntity
  8
1
  6
________________
 62
     7
370
     0
100
AcDbLine
 10
295.9739951542701
 20
190.1270261472409
 30
0.0
 11
287.3593381790633
 21
190.1270261472409
 31
0.0
  0
LINE
  5
D0
330
1F
100
AcDbEntity
  8
1
  6
________________
 62
     7
370
     0
100
AcDbLine
 10
287.3593381790633
 20
173.2063071860924
 30
0.0
 11
295.9739951542701
 21
173.2063071860924
 31
0.0
  0
LINE
  5
D1
330
1F
100
AcDbEntity
  8
1
  6
________________
 62
     7
370
     0
100
AcDbLine
 10
286.4934446751425
 20
189.6271022996627
 30
0.0
 11
282.1861161875392
 21
182.1665905142449
 31
0.0
  0
LINE
  5
D2
330
1F
100
AcDbEntity
  8
1
  6
________________
 62
     7
370
     0
100
AcDbLine
 10
281.7362420366051
 20
181.6666666666667
 30
0.0
 11
282.0248732045787
 21
182.1665905142449
 31
0.0
  0
LINE
  5
D3
330
1F
100
AcDbEntity
  8
1
  6
________________
 62
     7
370
     0
100
AcDbLine
 10
301.3084601287547
 20
182.1665905142449
 30
0.0
 11
301.5970912967283
 21
181.6666666666667
 31
0.0
  0
LINE
  5
D4
330
1F
100
AcDbEntity
  8
1
  6
________________
 62
     7
370
     0
100
AcDbLine
 10
301.1472171457942
 20
182.1665905142449
 30
0.0
 11
296.8398886581908
 21
189.6271022996627
 31
0.0
  0
LINE
  5
D5
330
1F
100
AcDbEntity
  8
1
  6
________________
 62
     7
370
     0
100
AcDbLine
 10
282.1861161875392
 20
181.1667428190885
 30
0.0
 11
286.4934446751425
 21
173.7062310336706
 31
0.0
  0
LINE
  5
D6
330
1F
100
AcDbEntity
  8
1
  6
________________
 62
     7
370
     0
100
AcDbLine
 10
281.7362420366051
 20
181.6666666666667
 30
0.0
 11
282.0248732045787
 21
181.1667428190885
 31
0.0
  0
LINE
  5
D7
330
1F
100
AcDbEntity
  8
1
  6
________________
 62
     7
370
     0
100
AcDbLine
 10
296.8398886581908
 20
173.7062310336706
 30
0.0
 11
301.1472171457942
 21
181.1667428190885
 31
0.0
  0
LINE
  5
D8
330
1F
100
AcDbEntity
  8
1
  6
________________
 62
     7
370
     0
100
AcDbLine
 10
301.3084601287547
 20
181.1667428190885
 30
0.0
 11
301.5970912967283
 21
181.6666666666667
 31
0.0
  0
LWPOLYLINE
  5
D9
330
1F
100
AcDbEntity
  8
1
  6
________________
 62
     7
370
     0
100
AcDbPolyline
 90
        6
 70
     0
 43
0.0
 10
-282.0248732045787
 20
181.1667428190885
 10
-281.9398524881349
 20
181.3576998491381
 10
-281.8963927481061
 20
181.5621556932782
 10
-281.8963927481061
 20
181.7711776400551
 10
-281.9398524881349
 20
181.9756334841952
 10
-282.0248732045787
 20
182.1665905142449
210
0.0
220
0.0
230
-1.0
  0
LWPOLYLINE
  5
DA
330
1F
100
AcDbEntity
  8
1
  6
________________
 62
     7
370
     0
100
AcDbPolyline
 90
        6
 70
     0
 43
0.0
 10
282.1861161875391
 20
182.1665905142449
 10
282.1010954710954
 20
181.9756334841952
 10
282.0576357310665
 20
181.7711776400551
 10
282.0576357310665
 20
181.5621556932782
 10
282.1010954710954
 20
181.3576998491381
 10
282.1861161875391
 20
181.1667428190885
  0
LWPOLYLINE
  5
DB
330
1F
100
AcDbEntity
  8
1
  6
________________
 62
     7
370
     0
100
AcDbPolyline
 90
        6
 70
     0
 43
0.0
 10
301.1472171457942
 20
181.1667428190884
 10
301.232237862238
 20
181.3576998491381
 10
301.2756976022669
 20
181.5621556932782
 10
301.2756976022669
 20
181.7711776400551
 10
301.232237862238
 20
181.9756334841952
 10
301.1472171457942
 20
182.1665905142448
  0
LWPOLYLINE
  5
DC
330
1F
100
AcDbEntity
  8
1
  6
________________
 62
     7
370
     0
100
AcDbPolyline
 90
        6
 70
     0
 43
0.0
 10
-301.3084601287547
 20
182.1665905142448
 10
-301.3934808451985
 20
181.9756334841952
 10
-301.4369405852274
 20
181.7711776400551
 10
-301.4369405852274
 20
181.5621556932782
 10
-301.3934808451985
 20
181.3576998491381
 10
-301.3084601287547
 20
181.1667428190884
210
0.0
220
0.0
230
-1.0
  0
ARC
  5
DD
330
1F
100
AcDbEntity
  8
1
  6
________________
 62
     7
370
     0
100
AcDbCircle
 10
-291.6666666666667
 20
181.6666666666667
 30
0.0
 40
32.00000000000001
210
0.0
220
0.0
230
-1.0
100
AcDbArc
 50
275.2755426618126
 51
84.72445807067879
  0
ARC
  5
DE
330
1F
100
AcDbEntity
  8
1
  6
________________
 62
     7
370
     0
100
AcDbCircle
 10
-291.6666666666667
 20
181.6666666666667
 30
0.0
 40
32.00000000000001
210
0.0
220
0.0
230
-1.0
100
AcDbArc
 50
95.2755653795308
 51
264.7244370585054
  0
LINE
  5
DF
330
1F
100
AcDbEntity
  8
1
  6
________________
 62
     7
370
     0
100
AcDbLine
 10
67.42906235963265
 20
181.6666666666667
 30
0.0
 11
72.04786451314966
 21
173.6666666666667
 31
0.0
  0
LINE
  5
E0
330
1F
100
AcDbEntity
  8
1
  6
________________
 62
     7
370
     0
100
AcDbLine
 10
72.04786451314966
 20
189.6666666666667
 30
0.0
 11
67.42906235963265
 21
181.6666666666667
 31
0.0
  0
LINE
  5
E1
330
1F
100
AcDbEntity
  8
1
  6
________________
 62
     7
370
     0
100
AcDbLine
 10
85.90427097370068
 20
181.6666666666667
 30
0.0
 11
81.28546882018367
 21
189.6666666666667
 31
0.0
  0
LINE
  5
E2
330
1F
100
AcDbEntity
  8
1
  6
________________
 62
     7
370
     0
100
AcDbLine
 10
81.28546882018367
 20
173.6666666666667
 30
0.0
 11
85.90427097370068
 21
181.6666666666667
 31
0.0
  0
LINE
  5
E3
330
1F
100
AcDbEntity
  8
1
  6
________________
 62
     7
370
     0
100
AcDbLine
 10
72.04786451314966
 20
173.6666666666667
 30
0.0
 11
81.28546882018367
 21
173.6666666666667
 31
0.0
  0
LINE
  5
E4
330
1F
100
AcDbEntity
  8
1
  6
________________
 62
     7
370
     0
100
AcDbLine
 10
81.28546882018367
 20
189.6666666666667
 30
0.0
 11
72.04786451314966
 21
189.6666666666667
 31
0.0
  0
ARC
  5
E5
330
1F
100
AcDbEntity
  8
1
  6
________________
 62
     7
370
     0
100
AcDbCircle
 10
-77.75286652701847
 20
148.6666666666667
 30
0.0
 40
2.000000000000004
210
0.0
220
0.0
230
-1.0
100
AcDbArc
 50
171.1136109036497
 51
269.9999999999999
  0
LINE
  5
E6
330
1F
100
AcDbEntity
  8
1
  6
________________
 62
     7
370
     0
100
AcDbLine
 10
79.6084511009278
 20
149.8087471171058
 30
0.0
 11
79.72885970728088
 21
148.9756180407638
 31
0.0
  0
ARC
  5
E7
330
1F
100
AcDbEntity
  8
1
  6
________________
 62
     7
370
     0
100
AcDbCircle
 10
-75.58046680631486
 20
148.6666666666667
 30
0.0
 40
2.000000000000002
210
0.0
220
0.0
230
-1.0
100
AcDbArc
 50
269.9999999999998
 51
8.886389096352957
  0
LINE
  5
E8
330
1F
100
AcDbEntity
  8
1
  6
________________
 62
     7
370
     0
100
AcDbLine
 10
73.60447362605248
 20
148.9756180407639
 30
0.0
 11
73.72489969651139
 21
149.8088786866704
 31
0.0
  0
ARC
  5
E9
330
1F
100
AcDbEntity
  8
1
  6
________________
 62
     7
370
     0
100
AcDbCircle
 10
-75.58046680631486
 20
214.6666666666666
 30
0.0
 40
1.999999999999999
210
0.0
220
0.0
230
-1.0
100
AcDbArc
 50
351.113610903647
 51
90.0000000000003
  0
LINE
  5
EA
330
1F
100
AcDbEntity
  8
1
  6
________________
 62
     7
370
     0
100
AcDbLine
 10
73.72491630328595
 20
213.5243295325741
 30
0.0
 11
73.60447362605248
 21
214.3577152925695
 31
0.0
  0
ARC
  5
EB
330
1F
100
AcDbEntity
  8
1
  6
________________
 62
     7
370
     0
100
AcDbCircle
 10
-77.75286652701848
 20
214.6666666666666
 30
0.0
 40
2.000000000000002
210
0.0
220
0.0
230
-1.0
100
AcDbArc
 50
90.00000000000006
 51
188.8863890963504
  0
LINE
  5
EC
330
1F
100
AcDbEntity
  8
1
  6
________________
 62
     7
370
     0
100
AcDbLine
 10
79.72885970728088
 20
214.3577152925695
 30
0.0
 11
79.60842942300738
 21
213.5244229004416
 31
0.0
  0
LINE
  5
ED
330
1F
100
AcDbEntity
  8
1
  6
________________
 62
     7
370
     0
100
AcDbLine
 10
77.75286652701848
 20
146.6666666666667
 30
0.0
 11
75.58046680631487
 21
146.6666666666667
 31
0.0
  0
LINE
  5
EE
330
1F
100
AcDbEntity
  8
1
  6
________________
 62
     7
370
     0
100
AcDbLine
 10
77.75286652701848
 20
216.6666666666666
 30
0.0
 11
75.58046680631487
 21
216.6666666666666
 31
0.0
  0
CIRCLE
  5
EF
330
1F
100
AcDbEntity
  8
1
  6
________________
 62
     7
370
     0
100
AcDbCircle
 10
76.66666666666667
 20
181.6666666666667
 30
0.0
 40
23.49999999999999
  0
LINE
  5
F0
330
1F
100
AcDbEntity
  8
1
  6
________________
 62
     7
370
     0
100
AcDbLine
 10
76.66666666666666
 20
193.2888521211642
 30
0.0
 11
79.66666666666667
 21
193.2364869263796
 31
0.0
  0
LINE
  5
F1
330
1F
100
AcDbEntity
  8
1
  6
________________
 62
     7
370
     0
100
AcDbLine
 10
70.66666666666667
 20
193.1666666666667
 30
0.0
 11
82.66666666666667
 21
193.1666666666667
 31
0.0
  0
LINE
  5
F2
330
1F
100
AcDbEntity
  8
1
  6
________________
 62
     7
370
     0
100
AcDbLine
 10
70.66666666666667
 20
193.1666666666667
 30
0.0
 11
70.75546515574534
 21
193.2554651557454
 31
0.0
  0
LINE
  5
F3
330
1F
100
AcDbEntity
  8
1
  6
________________
 62
     7
370
     0
100
AcDbLine
 10
75.75470363152729
 20
193.3412173159489
 30
0.0
 11
70.75546515574534
 21
193.2554651557454
 31
0.0
  0
LINE
  5
F4
330
1F
100
AcDbEntity
  8
1
  6
________________
 62
     7
370
     0
100
AcDbLine
 10
75.75470363152729
 20
193.3412173159489
 30
0.0
 11
77.57862970180604
 21
193.3412173159489
 31
0.0
  0
LINE
  5
F5
330
1F
100
AcDbEntity
  8
1
  6
________________
 62
     7
370
     0
100
AcDbLine
 10
82.577868177588
 20
193.2554651557454
 30
0.0
 11
77.57862970180604
 21
193.3412173159489
 31
0.0
  0
LINE
  5
F6
330
1F
100
AcDbEntity
  8
1
  6
________________
 62
     7
370
     0
100
AcDbLine
 10
82.66666666666667
 20
193.1666666666667
 30
0.0
 11
82.577868177588
 21
193.2554651557454
 31
0.0
  0
LINE
  5
F7
330
1F
100
AcDbEntity
  8
1
  6
________________
 62
     7
370
     0
100
AcDbLine
 10
76.66666666666666
 20
197.1492116017384
 30
0.0
 11
79.66666666666667
 21
197.0968464069538
 31
0.0
  0
LINE
  5
F8
330
1F
100
AcDbEntity
  8
1
  6
________________
 62
     7
370
     0
100
AcDbLine
 10
70.75546515574534
 20
197.077868177588
 30
0.0
 11
75.75470363152729
 21
196.9921160173845
 31
0.0
  0
LINE
  5
F9
330
1F
100
AcDbEntity
  8
1
  6
________________
 62
     7
370
     0
100
AcDbLine
 10
70.66666666666667
 20
197.1666666666667
 30
0.0
 11
70.75546515574534
 21
197.077868177588
 31
0.0
  0
LINE
  5
FA
330
1F
100
AcDbEntity
  8
1
  6
________________
 62
     7
370
     0
100
AcDbLine
 10
82.66666666666667
 20
197.1666666666667
 30
0.0
 11
70.66666666666667
 21
197.1666666666667
 31
0.0
  0
LINE
  5
FB
330
1F
100
AcDbEntity
  8
1
  6
________________
 62
     7
370
     0
100
AcDbLine
 10
82.66666666666667
 20
197.1666666666667
 30
0.0
 11
82.577868177588
 21
197.077868177588
 31
0.0
  0
LINE
  5
FC
330
1F
100
AcDbEntity
  8
1
  6
________________
 62
     7
370
     0
100
AcDbLine
 10
77.57862970180604
 20
196.9921160173845
 30
0.0
 11
82.577868177588
 21
197.077868177588
 31
0.0
  0
LINE
  5
FD
330
1F
100
AcDbEntity
  8
1
  6
________________
 62
     7
370
     0
100
AcDbLine
 10
77.57862970180604
 20
196.9921160173845
 30
0.0
 11
75.75470363152729
 21
196.9921160173845
 31
0.0
  0
LINE
  5
FE
330
1F
100
AcDbEntity
  8
1
  6
________________
 62
     7
370
     0
100
AcDbLine
 10
73.66666666666667
 20
197.0968464069538
 30
0.0
 11
76.66666666666667
 21
197.1492116017384
 31
0.0
  0
ARC
  5
FF
330
1F
100
AcDbEntity
  8
1
  6
________________
 62
     7
370
     0
100
AcDbCircle
 10
-76.66666666666667
 20
283.0056062557356
 30
0.0
 40
85.96112504356645
210
0.0
220
0.0
230
-1.0
100
AcDbArc
 50
268.0000000000007
 51
271.9999999999993
  0
LINE
  5
100
330
1F
100
AcDbEntity
  8
1
  6
________________
 62
     7
370
     0
100
AcDbLine
 10
73.66666666666667
 20
193.2364869263796
 30
0.0
 11
76.66666666666667
 21
193.2888521211642
 31
0.0
  0
ARC
  5
101
330
1F
100
AcDbEntity
  8
1
  6
________________
 62
     7
370
     0
100
AcDbCircle
 10
-76.66666666666667
 20
279.1452467751158
 30
0.0
 40
85.96112504352091
210
0.0
220
0.0
230
-1.0
100
AcDbArc
 50
267.9999999999998
 51
272.0000000000003
  0
LINE
  5
102
330
1F
100
AcDbEntity
  8
1
  6
________________
 62
     7
370
     0
100
AcDbLine
 10
82.66666666666667
 20
193.1666666666667
 30
0.0
 11
82.66666666666667
 21
197.1666666666667
 31
0.0
  0
LINE
  5
103
330
1F
100
AcDbEntity
  8
1
  6
________________
 62
     7
370
     0
100
AcDbLine
 10
70.66666666666667
 20
197.1666666666667
 30
0.0
 11
70.66666666666667
 21
193.1666666666667
 31
0.0
  0
LINE
  5
104
330
1F
100
AcDbEntity
  8
1
  6
________________
 62
     7
370
     0
100
AcDbLine
 10
81.63187898169745
 20
173.0666666666667
 30
0.0
 11
81.55125749021721
 21
173.2063071860924
 31
0.0
  0
LINE
  5
105
330
1F
100
AcDbEntity
  8
1
  6
________________
 62
     7
370
     0
100
AcDbLine
 10
71.70145435163589
 20
173.0666666666667
 30
0.0
 11
81.63187898169745
 21
173.0666666666667
 31
0.0
  0
LINE
  5
106
330
1F
100
AcDbEntity
  8
1
  6
________________
 62
     7
370
     0
100
AcDbLine
 10
71.70145435163589
 20
173.0666666666667
 30
0.0
 11
71.78207584311612
 21
173.2063071860924
 31
0.0
  0
LINE
  5
107
330
1F
100
AcDbEntity
  8
1
  6
________________
 62
     7
370
     0
100
AcDbLine
 10
71.78207584311612
 20
173.2063071860924
 30
0.0
 11
81.55125749021721
 21
173.2063071860924
 31
0.0
  0
LINE
  5
108
330
1F
100
AcDbEntity
  8
1
  6
________________
 62
     7
370
     0
100
AcDbLine
 10
86.59709129672824
 20
181.6666666666667
 30
0.0
 11
86.43584831376776
 21
181.6666666666667
 31
0.0
  0
LINE
  5
109
330
1F
100
AcDbEntity
  8
1
  6
________________
 62
     7
370
     0
100
AcDbLine
 10
81.63187898169745
 20
173.0666666666667
 30
0.0
 11
86.59709129672824
 21
181.6666666666667
 31
0.0
  0
LINE
  5
10A
330
1F
100
AcDbEntity
  8
1
  6
________________
 62
     7
370
     0
100
AcDbLine
 10
81.55125749021721
 20
173.2063071860924
 30
0.0
 11
86.43584831376776
 21
181.6666666666667
 31
0.0
  0
LINE
  5
10B
330
1F
100
AcDbEntity
  8
1
  6
________________
 62
     7
370
     0
100
AcDbLine
 10
81.63187898169745
 20
190.2666666666667
 30
0.0
 11
81.55125749021721
 21
190.1270261472409
 31
0.0
  0
LINE
  5
10C
330
1F
100
AcDbEntity
  8
1
  6
________________
 62
     7
370
     0
100
AcDbLine
 10
86.59709129672824
 20
181.6666666666667
 30
0.0
 11
81.63187898169745
 21
190.2666666666667
 31
0.0
  0
LINE
  5
10D
330
1F
100
AcDbEntity
  8
1
  6
________________
 62
     7
370
     0
100
AcDbLine
 10
86.43584831376776
 20
181.6666666666667
 30
0.0
 11
81.55125749021721
 21
190.1270261472409
 31
0.0
  0
LINE
  5
10E
330
1F
100
AcDbEntity
  8
1
  6
________________
 62
     7
370
     0
100
AcDbLine
 10
71.70145435163589
 20
190.2666666666667
 30
0.0
 11
71.78207584311612
 21
190.1270261472409
 31
0.0
  0
LINE
  5
10F
330
1F
100
AcDbEntity
  8
1
  6
________________
 62
     7
370
     0
100
AcDbLine
 10
81.63187898169745
 20
190.2666666666667
 30
0.0
 11
71.70145435163589
 21
190.2666666666667
 31
0.0
  0
LINE
  5
110
330
1F
100
AcDbEntity
  8
1
  6
________________
 62
     7
370
     0
100
AcDbLine
 10
81.55125749021721
 20
190.1270261472409
 30
0.0
 11
71.78207584311612
 21
190.1270261472409
 31
0.0
  0
LINE
  5
111
330
1F
100
AcDbEntity
  8
1
  6
________________
 62
     7
370
     0
100
AcDbLine
 10
66.7362420366051
 20
181.6666666666667
 30
0.0
 11
66.89748501956556
 21
181.6666666666667
 31
0.0
  0
LINE
  5
112
330
1F
100
AcDbEntity
  8
1
  6
________________
 62
     7
370
     0
100
AcDbLine
 10
71.70145435163589
 20
190.2666666666667
 30
0.0
 11
66.7362420366051
 21
181.6666666666667
 31
0.0
  0
LINE
  5
113
330
1F
100
AcDbEntity
  8
1
  6
________________
 62
     7
370
     0
100
AcDbLine
 10
71.78207584311612
 20
190.1270261472409
 30
0.0
 11
66.89748501956556
 21
181.6666666666667
 31
0.0
  0
LINE
  5
114
330
1F
100
AcDbEntity
  8
1
  6
________________
 62
     7
370
     0
100
AcDbLine
 10
66.7362420366051
 20
181.6666666666667
 30
0.0
 11
71.70145435163589
 21
173.0666666666667
 31
0.0
  0
LINE
  5
115
330
1F
100
AcDbEntity
  8
1
  6
________________
 62
     7
370
     0
100
AcDbLine
 10
66.89748501956556
 20
181.6666666666667
 30
0.0
 11
71.78207584311612
 21
173.2063071860924
 31
0.0
  0
CIRCLE
  5
116
330
1F
100
AcDbEntity
  8
1
  6
________________
 62
     7
370
     0
100
AcDbCircle
 10
76.66666666666666
 20
181.6666666666667
 30
0.0
 40
23.49999999999999
  0
ARC
  5
117
330
1F
100
AcDbEntity
  8
1
  6
________________
 62
     7
370
     0
100
AcDbCircle
 10
76.66666666666667
 20
181.6666666666667
 30
0.0
 40
8.399999999999991
100
AcDbArc
 50
270.0
 51
287.7527901619468
  0
ARC
  5
118
330
1F
100
AcDbEntity
  8
1
  6
________________
 62
     7
370
     0
100
AcDbCircle
 10
76.66666666666667
 20
181.6666666666667
 30
0.0
 40
8.399999999999986
100
AcDbArc
 50
312.2472098380531
 51
347.7527901619468
  0
ARC
  5
119
330
1F
100
AcDbEntity
  8
1
  6
________________
 62
     7
370
     0
100
AcDbCircle
 10
76.66666666666667
 20
181.6666666666667
 30
0.0
 40
8.400000000000004
100
AcDbArc
 50
12.24720983805311
 51
47.75279016194692
  0
ARC
  5
11A
330
1F
100
AcDbEntity
  8
1
  6
________________
 62
     7
370
     0
100
AcDbCircle
 10
76.66666666666667
 20
181.6666666666667
 30
0.0
 40
8.400000000000015
100
AcDbArc
 50
72.24720983805315
 51
107.7527901619468
  0
ARC
  5
11B
330
1F
100
AcDbEntity
  8
1
  6
________________
 62
     7
370
     0
100
AcDbCircle
 10
76.66666666666667
 20
181.6666666666667
 30
0.0
 40
8.400000000000015
100
AcDbArc
 50
132.2472098380531
 51
167.7527901619469
  0
ARC
  5
11C
330
1F
100
AcDbEntity
  8
1
  6
________________
 62
     7
370
     0
100
AcDbCircle
 10
76.66666666666667
 20
181.6666666666667
 30
0.0
 40
8.400000000000004
100
AcDbArc
 50
192.2472098380532
 51
227.7527901619468
  0
ARC
  5
11D
330
1F
100
AcDbEntity
  8
1
  6
________________
 62
     7
370
     0
100
AcDbCircle
 10
76.66666666666667
 20
181.6666666666667
 30
0.0
 40
8.399999999999993
100
AcDbArc
 50
252.2472098380531
 51
270.0
  0
CIRCLE
  5
11E
330
1F
100
AcDbEntity
  8
1
  6
________________
 62
     7
370
     0
100
AcDbCircle
 10
76.66666666666667
 20
181.6666666666667
 30
0.0
 40
32.0
  0
ARC
  5
11F
330
1F
100
AcDbEntity
  8
1
  6
________________
 62
     7
370
     0
100
AcDbCircle
 10
76.66666666666667
 20
181.6666666666667
 30
0.0
 40
8.299999999999974
100
AcDbArc
 50
270.0
 51
285.4516934309444
  0
ARC
  5
120
330
1F
100
AcDbEntity
  8
1
  6
________________
 62
     7
370
     0
100
AcDbCircle
 10
76.66666666666667
 20
181.6666666666667
 30
0.0
 40
8.29999999999997
100
AcDbArc
 50
314.5483065690555
 51
345.4516934309444
  0
ARC
  5
121
330
1F
100
AcDbEntity
  8
1
  6
________________
 62
     7
370
     0
100
AcDbCircle
 10
76.66666666666667
 20
181.6666666666667
 30
0.0
 40
8.299999999999997
100
AcDbArc
 50
14.54830656905555
 51
45.45169343094446
  0
ARC
  5
122
330
1F
100
AcDbEntity
  8
1
  6
________________
 62
     7
370
     0
100
AcDbCircle
 10
76.66666666666667
 20
181.6666666666667
 30
0.0
 40
8.3
100
AcDbArc
 50
74.5483065690556
 51
105.4516934309444
  0
ARC
  5
123
330
1F
100
AcDbEntity
  8
1
  6
________________
 62
     7
370
     0
100
AcDbCircle
 10
76.66666666666667
 20
181.6666666666667
 30
0.0
 40
8.300000000000008
100
AcDbArc
 50
134.5483065690556
 51
165.4516934309444
  0
ARC
  5
124
330
1F
100
AcDbEntity
  8
1
  6
________________
 62
     7
370
     0
100
AcDbCircle
 10
76.66666666666667
 20
181.6666666666667
 30
0.0
 40
8.299999999999997
100
AcDbArc
 50
194.5483065690556
 51
225.4516934309444
  0
ARC
  5
125
330
1F
100
AcDbEntity
  8
1
  6
________________
 62
     7
370
     0
100
AcDbCircle
 10
76.66666666666667
 20
181.6666666666667
 30
0.0
 40
8.299999999999981
100
AcDbArc
 50
254.5483065690555
 51
270.0
  0
MTEXT
  5
126
330
1F
100
AcDbEntity
  8
1
 62
     7
100
AcDbMText
 10
164.9334545454546
 20
135.5712121212122
 30
0.0
 40
6.0
 41
0.0
 46
0.0
 71
     1
 72
     1
  1
{\FＭＳ ゴシック;MWP-50M}
 73
     1
 44
1.0
  0
LINE
  5
127
330
1F
100
AcDbEntity
  8
1
  6
______....__....
 62
     1
420
 16711680
370
     0
100
AcDbLine
 10
257.6666666666666
 20
181.6666666666667
 30
0.0
 11
325.6666666666667
 21
181.6666666666667
 31
0.0
  0
LINE
  5
129
330
1F
100
AcDbEntity
  8
1
  6
______....__....
 62
     1
420
 16711680
370
     0
100
AcDbLine
 10
291.6666666666667
 20
147.6666666666667
 30
0.0
 11
291.6666666666667
 21
215.6666666666667
 31
0.0
  0
LINE
  5
12A
330
1F
100
AcDbEntity
  8
1
  6
______....__....
 62
     1
420
 16711680
370
     0
100
AcDbLine
 10
42.66666666666667
 20
181.6666666666667
 30
0.0
 11
110.6666666666667
 21
181.6666666666667
 31
0.0
  0
LINE
  5
12B
330
1F
100
AcDbEntity
  8
1
  6
______....__....
 62
     1
420
 16711680
370
     0
100
AcDbLine
 10
76.66666666666667
 20
147.6666666666667
 30
0.0
 11
76.66666666666667
 21
215.6666666666667
 31
0.0
  0
ENDSEC
  0
SECTION
  2
OBJECTS
  0
DICTIONARY
  5
C
330
0
100
AcDbDictionary
281
     1
  3
ACAD_GROUP
350
D
  3
ACAD_LAYOUT
350
1A
  3
ACAD_MLEADERSTYLE
350
12D
  3
ACAD_MLINESTYLE
350
17
  3
ACAD_PLOTSETTINGS
350
19
  3
ACAD_PLOTSTYLENAME
350
E
  3
ACAD_TABLESTYLE
350
12C
  3
ACAD_VISUALSTYLE
350
2A
  0
DICTIONARY
  5
D
102
{ACAD_REACTORS
330
C
102
}
330
C
100
AcDbDictionary
281
     1
  0
DICTIONARY
  5
1A
102
{ACAD_REACTORS
330
C
102
}
330
C
100
AcDbDictionary
281
     1
  3
Layout1
350
1E
  3
Layout2
350
26
  3
Model
350
22
  0
DICTIONARY
  5
12D
102
{ACAD_REACTORS
330
C
102
}
330
C
100
AcDbDictionary
281
     1
  0
DICTIONARY
  5
17
102
{ACAD_REACTORS
330
C
102
}
330
C
100
AcDbDictionary
281
     1
  3
Standard
350
18
  0
DICTIONARY
  5
19
102
{ACAD_REACTORS
330
C
102
}
330
C
100
AcDbDictionary
281
     1
  0
ACDBDICTIONARYWDFLT
  5
E
102
{ACAD_REACTORS
330
C
102
}
330
C
100
AcDbDictionary
281
     1
  3
Normal
350
F
100
AcDbDictionaryWithDefault
340
F
  0
DICTIONARY
  5
12C
102
{ACAD_REACTORS
330
C
102
}
330
C
100
AcDbDictionary
281
     1
  0
DICTIONARY
  5
2A
102
{ACAD_REACTORS
330
C
102
}
330
C
100
AcDbDictionary
281
     1
  3
2dWireframe
350
2F
  3
3D Hidden
350
31
  3
3dWireframe
350
30
  3
Basic
350
32
  3
Brighten
350
36
  3
ColorChange
350
3A
  3
Conceptual
350
34
  3
Dim
350
35
  3
Facepattern
350
39
  3
Flat
350
2B
  3
FlatWithEdges
350
2C
  3
Gouraud
350
2D
  3
GouraudWithEdges
350
2E
  3
Linepattern
350
38
  3
Realistic
350
33
  3
Thicken
350
37
  0
LAYOUT
  5
1E
102
{ACAD_REACTORS
330
1A
102
}
330
1A
100
AcDbPlotSettings
  1

  2
none_device
  4

  6

 40
0.0
 41
0.0
 42
0.0
 43
0.0
 44
0.0
 45
0.0
 46
0.0
 47
0.0
 48
0.0
 49
0.0
140
0.0
141
0.0
142
1.0
143
1.0
 70
   688
 72
     0
 73
     0
 74
     5
  7

 75
    16
 76
     0
 77
     2
 78
   300
147
1.0
148
0.0
149
0.0
100
AcDbLayout
  1
Layout1
 70
     1
 71
     1
 10
0.0
 20
0.0
 11
12.0
 21
9.0
 12
0.0
 22
0.0
 32
0.0
 14
1.000000000000000E+20
 24
1.000000000000000E+20
 34
1.000000000000000E+20
 15
-1.000000000000000E+20
 25
-1.000000000000000E+20
 35
-1.000000000000000E+20
146
0.0
 13
0.0
 23
0.0
 33
0.0
 16
1.0
 26
0.0
 36
0.0
 17
0.0
 27
1.0
 37
0.0
 76
     0
330
1B
  0
LAYOUT
  5
26
102
{ACAD_REACTORS
330
1A
102
}
330
1A
100
AcDbPlotSettings
  1

  2
none_device
  4

  6

 40
0.0
 41
0.0
 42
0.0
 43
0.0
 44
0.0
 45
0.0
 46
0.0
 47
0.0
 48
0.0
 49
0.0
140
0.0
141
0.0
142
1.0
143
1.0
 70
   688
 72
     0
 73
     0
 74
     5
  7

 75
    16
 76
     0
 77
     2
 78
   300
147
1.0
148
0.0
149
0.0
100
AcDbLayout
  1
Layout2
 70
     1
 71
     2
 10
0.0
 20
0.0
 11
0.0
 21
0.0
 12
0.0
 22
0.0
 32
0.0
 14
0.0
 24
0.0
 34
0.0
 15
0.0
 25
0.0
 35
0.0
146
0.0
 13
0.0
 23
0.0
 33
0.0
 16
1.0
 26
0.0
 36
0.0
 17
0.0
 27
1.0
 37
0.0
 76
     0
330
23
  0
LAYOUT
  5
22
102
{ACAD_REACTORS
330
1A
102
}
330
1A
100
AcDbPlotSettings
  1

  2
none_device
  4

  6

 40
0.0
 41
0.0
 42
0.0
 43
0.0
 44
0.0
 45
0.0
 46
0.0
 47
0.0
 48
0.0
 49
0.0
140
0.0
141
0.0
142
1.0
143
1.0
 70
  1712
 72
     0
 73
     0
 74
     0
  7

 75
     0
 76
     0
 77
     2
 78
   300
147
1.0
148
0.0
149
0.0
100
AcDbLayout
  1
Model
 70
     1
 71
     0
 10
0.0
 20
0.0
 11
12.0
 21
9.0
 12
0.0
 22
0.0
 32
0.0
 14
0.0
 24
0.0
 34
0.0
 15
325.6666666666667
 25
216.6666666666667
 35
10.0
146
0.0
 13
0.0
 23
0.0
 33
0.0
 16
1.0
 26
0.0
 36
0.0
 17
0.0
 27
1.0
 37
0.0
 76
     0
330
1F
331
29
  0
MLINESTYLE
  5
18
102
{ACAD_REACTORS
330
17
102
}
330
17
100
AcDbMlineStyle
  2
Standard
 70
     0
  3

 62
   256
 51
90.0
 52
90.0
 71
     2
 49
0.5
 62
   256
  6
BYLAYER
 49
-0.5
 62
   256
  6
BYLAYER
  0
ACDBPLACEHOLDER
  5
F
102
{ACAD_REACTORS
330
E
102
}
330
E
  0
VISUALSTYLE
  5
2F
102
{ACAD_REACTORS
330
2A
102
}
330
2A
100
AcDbVisualStyle
  2
2dWireframe
 70
     4
 71
     0
 72
     2
 73
     0
 90
        0
 40
-0.6
 41
-30.0
 62
     5
 63
     7
421
 16777215
 74
     1
 91
        4
 64
     7
 65
   257
 75
     1
175
     1
 42
1.0
 92
        0
 66
   257
 43
1.0
 76
     1
 77
     6
 78
     2
 67
     7
 79
     5
170
     0
171
     0
290
     0
174
     0
 93
        1
 44
0.0
173
     0
291
     0
 45
0.0
  0
VISUALSTYLE
  5
31
102
{ACAD_REACTORS
330
2A
102
}
330
2A
100
AcDbVisualStyle
  2
3D Hidden
 70
     6
 71
     1
 72
     2
 73
     2
 90
        0
 40
-0.6
 41
-30.0
 62
     5
 63
     7
421
 16777215
 74
     2
 91
        2
 64
     7
 65
   257
 75
     2
175
     1
 42
40.0
 92
        0
 66
   257
 43
1.0
 76
     1
 77
     6
 78
     2
 67
     7
 79
     3
170
     0
171
     0
290
     0
174
     0
 93
        1
 44
0.0
173
     0
291
     0
 45
0.0
  0
VISUALSTYLE
  5
30
102
{ACAD_REACTORS
330
2A
102
}
330
2A
100
AcDbVisualStyle
  2
3dWireframe
 70
     5
 71
     0
 72
     2
 73
     0
 90
        0
 40
-0.6
 41
-30.0
 62
     5
 63
     7
421
 16777215
 74
     1
 91
        4
 64
     7
 65
   257
 75
     1
175
     1
 42
1.0
 92
        0
 66
   257
 43
1.0
 76
     1
 77
     6
 78
     2
 67
     7
 79
     5
170
     0
171
     0
290
     0
174
     0
 93
        1
 44
0.0
173
     0
291
     0
 45
0.0
  0
VISUALSTYLE
  5
32
102
{ACAD_REACTORS
330
2A
102
}
330
2A
100
AcDbVisualStyle
  2
Basic
 70
     7
 71
     1
 72
     0
 73
     1
 90
        0
 40
-0.6
 41
-30.0
 62
     5
 63
     7
421
 16777215
 74
     0
 91
        4
 64
     7
 65
   257
 75
     1
175
     1
 42
1.0
 92
        8
 66
     7
 43
1.0
 76
     1
 77
     6
 78
     2
 67
     7
 79
     5
170
     0
171
     0
290
     0
174
     0
 93
        1
 44
0.0
173
     0
291
     1
 45
0.0
  0
VISUALSTYLE
  5
36
102
{ACAD_REACTORS
330
2A
102
}
330
2A
100
AcDbVisualStyle
  2
Brighten
 70
    12
 71
     2
 72
     2
 73
     0
 90
        0
 40
-0.6
 41
-30.0
 62
     5
 63
     7
421
 16777215
 74
     1
 91
        4
 64
     7
 65
   257
 75
     1
175
     1
 42
1.0
 92
        8
 66
     7
 43
1.0
 76
     1
 77
     6
 78
     2
 67
     7
 79
     5
170
     0
171
     0
290
     0
174
     0
 93
        1
 44
50.0
173
     0
291
     1
 45
0.0
  0
VISUALSTYLE
  5
3A
102
{ACAD_REACTORS
330
2A
102
}
330
2A
100
AcDbVisualStyle
  2
ColorChange
 70
    16
 71
     2
 72
     2
 73
     3
 90
        0
 40
-0.6
 41
-30.0
 62
     5
 63
     8
421
  8421504
 74
     1
 91
        4
 64
     7
 65
   257
 75
     1
175
     1
 42
1.0
 92
        8
 66
     8
424
  8421504
 43
1.0
 76
     1
 77
     6
 78
     2
 67
     7
 79
     5
170
     0
171
     0
290
     0
174
     0
 93
        1
 44
0.0
173
     0
291
     1
 45
0.0
  0
VISUALSTYLE
  5
34
102
{ACAD_REACTORS
330
2A
102
}
330
2A
100
AcDbVisualStyle
  2
Conceptual
 70
     9
 71
     3
 72
     2
 73
     0
 90
        0
 40
-0.6
 41
-30.0
 62
     5
 63
     7
421
 16777215
 74
     2
 91
        2
 64
     7
 65
   257
 75
     1
175
     1
 42
40.0
 92
        8
 66
     7
 43
1.0
 76
     1
 77
     6
 78
     2
 67
     7
 79
     3
170
     0
171
     0
290
     0
174
     0
 93
        1
 44
0.0
173
     0
291
     0
 45
0.0
  0
VISUALSTYLE
  5
35
102
{ACAD_REACTORS
330
2A
102
}
330
2A
100
AcDbVisualStyle
  2
Dim
 70
    11
 71
     2
 72
     2
 73
     0
 90
        0
 40
-0.6
 41
-30.0
 62
     5
 63
     7
421
 16777215
 74
     1
 91
        4
 64
     7
 65
   257
 75
     1
175
     1
 42
1.0
 92
        8
 66
     7
 43
1.0
 76
     1
 77
     6
 78
     2
 67
     7
 79
     5
170
     0
171
     0
290
     0
174
     0
 93
        1
 44
-50.0
173
     0
291
     1
 45
0.0
  0
VISUALSTYLE
  5
39
102
{ACAD_REACTORS
330
2A
102
}
330
2A
100
AcDbVisualStyle
  2
Facepattern
 70
    15
 71
     2
 72
     2
 73
     0
 90
        0
 40
-0.6
 41
-30.0
 62
     5
 63
     7
421
 16777215
 74
     1
 91
        4
 64
     7
 65
   257
 75
     1
175
     1
 42
1.0
 92
        8
 66
     7
 43
1.0
 76
     1
 77
     6
 78
     2
 67
     7
 79
     5
170
     0
171
     0
290
     0
174
     0
 93
        1
 44
0.0
173
     0
291
     1
 45
0.0
  0
VISUALSTYLE
  5
2B
102
{ACAD_REACTORS
330
2A
102
}
330
2A
100
AcDbVisualStyle
  2
Flat
 70
     0
 71
     2
 72
     1
 73
     1
 90
        2
 40
-0.6
 41
30.0
 62
     5
 63
     7
421
 16777215
 74
     0
 91
        4
 64
     7
 65
   257
 75
     1
175
     1
 42
1.0
 92
        8
 66
     7
 43
1.0
 76
     1
 77
     6
 78
     2
 67
     7
 79
     5
170
     0
171
     0
290
     0
174
     0
 93
       13
 44
0.0
173
     0
291
     1
 45
0.0
  0
VISUALSTYLE
  5
2C
102
{ACAD_REACTORS
330
2A
102
}
330
2A
100
AcDbVisualStyle
  2
FlatWithEdges
 70
     1
 71
     2
 72
     1
 73
     1
 90
        2
 40
-0.6
 41
30.0
 62
     5
 63
     7
421
 16777215
 74
     1
 91
        4
 64
     7
 65
   257
 75
     1
175
     1
 42
1.0
 92
        0
 66
   257
 43
1.0
 76
     1
 77
     6
 78
     2
 67
     7
 79
     5
170
     0
171
     0
290
     0
174
     0
 93
       13
 44
0.0
173
     0
291
     1
 45
0.0
  0
VISUALSTYLE
  5
2D
102
{ACAD_REACTORS
330
2A
102
}
330
2A
100
AcDbVisualStyle
  2
Gouraud
 70
     2
 71
     2
 72
     2
 73
     1
 90
        2
 40
-0.6
 41
30.0
 62
     5
 63
     7
421
 16777215
 74
     0
 91
        4
 64
     7
 65
   257
 75
     1
175
     1
 42
1.0
 92
        0
 66
     7
 43
1.0
 76
     1
 77
     6
 78
     2
 67
     7
 79
     5
170
     0
171
     0
290
     0
174
     0
 93
       13
 44
0.0
173
     0
291
     1
 45
0.0
  0
VISUALSTYLE
  5
2E
102
{ACAD_REACTORS
330
2A
102
}
330
2A
100
AcDbVisualStyle
  2
GouraudWithEdges
 70
     3
 71
     2
 72
     2
 73
     1
 90
        2
 40
-0.6
 41
30.0
 62
     5
 63
     7
421
 16777215
 74
     1
 91
        4
 64
     7
 65
   257
 75
     1
175
     1
 42
1.0
 92
        0
 66
   257
 43
1.0
 76
     1
 77
     6
 78
     2
 67
     7
 79
     5
170
     0
171
     0
290
     0
174
     0
 93
       13
 44
0.0
173
     0
291
     1
 45
0.0
  0
VISUALSTYLE
  5
38
102
{ACAD_REACTORS
330
2A
102
}
330
2A
100
AcDbVisualStyle
  2
Linepattern
 70
    14
 71
     2
 72
     2
 73
     0
 90
        0
 40
-0.6
 41
-30.0
 62
     5
 63
     7
421
 16777215
 74
     1
 91
        4
 64
     7
 65
   257
 75
     7
175
     7
 42
1.0
 92
        8
 66
     7
 43
1.0
 76
     1
 77
     6
 78
     2
 67
     7
 79
     5
170
     0
171
     0
290
     0
174
     0
 93
        1
 44
0.0
173
     0
291
     1
 45
0.0
  0
VISUALSTYLE
  5
33
102
{ACAD_REACTORS
330
2A
102
}
330
2A
100
AcDbVisualStyle
  2
Realistic
 70
     8
 71
     2
 72
     2
 73
     0
 90
        0
 40
-0.6
 41
-30.0
 62
     5
 63
     7
421
 16777215
 74
     1
 91
        0
 64
     7
 65
   257
 75
     1
175
     1
 42
1.0
 92
        8
 66
     8
424
  7895160
 43
1.0
 76
     1
 77
     6
 78
     2
 67
     7
 79
     5
170
     0
171
     0
290
     0
174
     0
 93
       13
 44
0.0
173
     0
291
     0
 45
0.0
  0
VISUALSTYLE
  5
37
102
{ACAD_REACTORS
330
2A
102
}
330
2A
100
AcDbVisualStyle
  2
Thicken
 70
    13
 71
     2
 72
     2
 73
     0
 90
        0
 40
-0.6
 41
-30.0
 62
     5
 63
     7
421
 16777215
 74
     1
 91
        4
 64
     7
 65
   257
 75
     1
175
     1
 42
1.0
 92
       12
 66
     7
 43
1.0
 76
     1
 77
     6
 78
     2
 67
     7
 79
     5
170
     0
171
     0
290
     0
174
     0
 93
        1
 44
0.0
173
     0
291
     1
 45
0.0
  0
ENDSEC
  0
EOF
