  0
SECTION
  2
HEADER
  9
$ACADVER
  1
AC1021
  9
$ACADMAINTVER
 70
    25
  9
$DWGCODEPAGE
  3
ANSI_932
  9
$INSBASE
 10
0.0
 20
0.0
 30
0.0
  9
$EXTMIN
 10
0.0
 20
-39.74696969696969
 30
0.0
  9
$EXTMAX
 10
355.0000000000001
 20
59.16666666666668
 30
10.0
  9
$LIMMIN
 10
0.0
 20
0.0
  9
$LIMMAX
 10
12.0
 20
9.0
  9
$ORTHOMODE
 70
     0
  9
$REGENMODE
 70
     1
  9
$FILLMODE
 70
     1
  9
$QTEXTMODE
 70
     0
  9
$MIRRTEXT
 70
     1
  9
$LTSCALE
 40
1.0
  9
$ATTMODE
 70
     1
  9
$TEXTSIZE
 40
0.2
  9
$TRACEWID
 40
0.05
  9
$TEXTSTYLE
  7
Standard
  9
$CLAYER
  8
0
  9
$CELTYPE
  6
ByLayer
  9
$CECOLOR
 62
   256
  9
$CELTSCALE
 40
1.0
  9
$DISPSILH
 70
     0
  9
$DIMSCALE
 40
1.0
  9
$DIMASZ
 40
3.0
  9
$DIMEXO
 40
0.0625
  9
$DIMDLI
 40
0.38
  9
$DIMRND
 40
0.0
  9
$DIMDLE
 40
0.0
  9
$DIMEXE
 40
0.18
  9
$DIMTP
 40
0.0
  9
$DIMTM
 40
0.0
  9
$DIMTXT
 40
3.0
  9
$DIMCEN
 40
0.09
  9
$DIMTSZ
 40
0.0
  9
$DIMTOL
 70
     0
  9
$DIMLIM
 70
     0
  9
$DIMTIH
 70
     1
  9
$DIMTOH
 70
     1
  9
$DIMSE1
 70
     0
  9
$DIMSE2
 70
     0
  9
$DIMTAD
 70
     1
  9
$DIMZIN
 70
     0
  9
$DIMBLK
  1

  9
$DIMASO
 70
     1
  9
$DIMSHO
 70
     1
  9
$DIMPOST
  1

  9
$DIMAPOST
  1

  9
$DIMALT
 70
     0
  9
$DIMALTD
 70
     2
  9
$DIMALTF
 40
25.4
  9
$DIMLFAC
 40
1.0
  9
$DIMTOFL
 70
     0
  9
$DIMTVP
 40
0.0
  9
$DIMTIX
 70
     0
  9
$DIMSOXD
 70
     0
  9
$DIMSAH
 70
     0
  9
$DIMBLK1
  1

  9
$DIMBLK2
  1

  9
$DIMSTYLE
  2
Standard
  9
$DIMCLRD
 70
     0
  9
$DIMCLRE
 70
     0
  9
$DIMCLRT
 70
     0
  9
$DIMTFAC
 40
1.0
  9
$DIMGAP
 40
0.09
  9
$DIMJUST
 70
     0
  9
$DIMSD1
 70
     0
  9
$DIMSD2
 70
     0
  9
$DIMTOLJ
 70
     1
  9
$DIMTZIN
 70
     0
  9
$DIMALTZ
 70
     0
  9
$DIMALTTZ
 70
     0
  9
$DIMUPT
 70
     0
  9
$DIMDEC
 70
     2
  9
$DIMTDEC
 70
     4
  9
$DIMALTU
 70
     2
  9
$DIMALTTD
 70
     2
  9
$DIMTXSTY
  7
Standard
  9
$DIMAUNIT
 70
     0
  9
$DIMADEC
 70
     2
  9
$DIMALTRND
 40
0.0
  9
$DIMAZIN
 70
     0
  9
$DIMDSEP
 70
    46
  9
$DIMATFIT
 70
     3
  9
$DIMFRAC
 70
     0
  9
$DIMLDRBLK
  1

  9
$DIMLUNIT
 70
     2
  9
$DIMLWD
 70
    -2
  9
$DIMLWE
 70
    -2
  9
$DIMTMOVE
 70
     0
  9
$DIMFXL
 40
1.0
  9
$DIMFXLON
 70
     0
  9
$DIMJOGANG
 40
0.7853981633974483
  9
$DIMTFILL
 70
     0
  9
$DIMTFILLCLR
 70
     0
  9
$DIMARCSYM
 70
     0
  9
$DIMLTYPE
  6

  9
$DIMLTEX1
  6

  9
$DIMLTEX2
  6

  9
$LUNITS
 70
     2
  9
$LUPREC
 70
     4
  9
$SKETCHINC
 40
0.1
  9
$FILLETRAD
 40
0.5
  9
$AUNITS
 70
     0
  9
$AUPREC
 70
     0
  9
$MENU
  1
.
  9
$ELEVATION
 40
0.0
  9
$PELEVATION
 40
0.0
  9
$THICKNESS
 40
0.0
  9
$LIMCHECK
 70
     0
  9
$CHAMFERA
 40
0.5
  9
$CHAMFERB
 40
0.5
  9
$CHAMFERC
 40
1.0
  9
$CHAMFERD
 40
0.0
  9
$SKPOLY
 70
     0
  9
$TDCREATE
 40
2459545.431385532
  9
$TDUCREATE
 40
2459545.056385532
  9
$TDUPDATE
 40
2459545.431385544
  9
$TDUUPDATE
 40
2459545.056385544
  9
$TDINDWG
 40
0.0000000116
  9
$TDUSRTIMER
 40
0.0000000116
  9
$USRTIMER
 70
     1
  9
$ANGBASE
 50
0.0
  9
$ANGDIR
 70
     0
  9
$PDMODE
 70
     0
  9
$PDSIZE
 40
0.0
  9
$PLINEWID
 40
0.0
  9
$SPLFRAME
 70
     0
  9
$SPLINETYPE
 70
     6
  9
$SPLINESEGS
 70
     8
  9
$HANDSEED
  5
11E
  9
$SURFTAB1
 70
     6
  9
$SURFTAB2
 70
     6
  9
$SURFTYPE
 70
     6
  9
$SURFU
 70
     6
  9
$SURFV
 70
     6
  9
$UCSBASE
  2

  9
$UCSNAME
  2

  9
$UCSORG
 10
0.0
 20
0.0
 30
0.0
  9
$UCSXDIR
 10
1.0
 20
0.0
 30
0.0
  9
$UCSYDIR
 10
0.0
 20
1.0
 30
0.0
  9
$UCSORTHOREF
  2

  9
$UCSORTHOVIEW
 70
     0
  9
$UCSORGTOP
 10
0.0
 20
0.0
 30
0.0
  9
$UCSORGBOTTOM
 10
0.0
 20
0.0
 30
0.0
  9
$UCSORGLEFT
 10
0.0
 20
0.0
 30
0.0
  9
$UCSORGRIGHT
 10
0.0
 20
0.0
 30
0.0
  9
$UCSORGFRONT
 10
0.0
 20
0.0
 30
0.0
  9
$UCSORGBACK
 10
0.0
 20
0.0
 30
0.0
  9
$PUCSBASE
  2

  9
$PUCSNAME
  2

  9
$PUCSORG
 10
0.0
 20
0.0
 30
0.0
  9
$PUCSXDIR
 10
1.0
 20
0.0
 30
0.0
  9
$PUCSYDIR
 10
0.0
 20
1.0
 30
0.0
  9
$PUCSORTHOREF
  2

  9
$PUCSORTHOVIEW
 70
     0
  9
$PUCSORGTOP
 10
0.0
 20
0.0
 30
0.0
  9
$PUCSORGBOTTOM
 10
0.0
 20
0.0
 30
0.0
  9
$PUCSORGLEFT
 10
0.0
 20
0.0
 30
0.0
  9
$PUCSORGRIGHT
 10
0.0
 20
0.0
 30
0.0
  9
$PUCSORGFRONT
 10
0.0
 20
0.0
 30
0.0
  9
$PUCSORGBACK
 10
0.0
 20
0.0
 30
0.0
  9
$USERI1
 70
     0
  9
$USERI2
 70
     0
  9
$USERI3
 70
     0
  9
$USERI4
 70
     0
  9
$USERI5
 70
     0
  9
$USERR1
 40
0.0
  9
$USERR2
 40
0.0
  9
$USERR3
 40
0.0
  9
$USERR4
 40
0.0
  9
$USERR5
 40
0.0
  9
$WORLDVIEW
 70
     1
  9
$SHADEDGE
 70
     3
  9
$SHADEDIF
 70
    70
  9
$TILEMODE
 70
     1
  9
$MAXACTVP
 70
    64
  9
$PINSBASE
 10
0.0
 20
0.0
 30
0.0
  9
$PLIMCHECK
 70
     0
  9
$PEXTMIN
 10
1.000000000000000E+20
 20
1.000000000000000E+20
 30
1.000000000000000E+20
  9
$PEXTMAX
 10
-1.000000000000000E+20
 20
-1.000000000000000E+20
 30
-1.000000000000000E+20
  9
$PLIMMIN
 10
0.0
 20
0.0
  9
$PLIMMAX
 10
12.0
 20
9.0
  9
$UNITMODE
 70
     0
  9
$VISRETAIN
 70
     1
  9
$PLINEGEN
 70
     0
  9
$PSLTSCALE
 70
     1
  9
$TREEDEPTH
 70
  3020
  9
$CMLSTYLE
  2
Standard
  9
$CMLJUST
 70
     0
  9
$CMLSCALE
 40
1.0
  9
$PROXYGRAPHICS
 70
     1
  9
$MEASUREMENT
 70
     1
  9
$CELWEIGHT
370
    -1
  9
$ENDCAPS
280
     0
  9
$JOINSTYLE
280
     0
  9
$LWDISPLAY
290
     1
  9
$INSUNITS
 70
     4
  9
$HYPERLINKBASE
  1

  9
$STYLESHEET
  1

  9
$XEDIT
290
     1
  9
$CEPSNTYPE
380
     0
  9
$PSTYLEMODE
290
     1
  9
$FINGERPRINTGUID
  2
{831420E4-AB0A-434D-AB44-76F69B8A52D3}
  9
$VERSIONGUID
  2
{FAEB1C32-E019-11D5-929B-00C0DF256EC4}
  9
$EXTNAMES
290
     1
  9
$PSVPSCALE
 40
0.0
  9
$OLESTARTUP
290
     0
  9
$SORTENTS
280
   127
  9
$INDEXCTL
280
     0
  9
$HIDETEXT
280
     1
  9
$XCLIPFRAME
290
     0
  9
$HALOGAP
280
     0
  9
$OBSCOLOR
 70
   257
  9
$OBSLTYPE
280
     0
  9
$INTERSECTIONDISPLAY
280
     0
  9
$INTERSECTIONCOLOR
 70
   257
  9
$DIMASSOC
280
     2
  9
$PROJECTNAME
  1

  9
$CAMERADISPLAY
290
     0
  9
$LENSLENGTH
 40
50.0
  9
$CAMERAHEIGHT
 40
0.0
  9
$STEPSPERSEC
 40
2.0
  9
$STEPSIZE
 40
6.0
  9
$3DDWFPREC
 40
2.0
  9
$PSOLWIDTH
 40
0.25
  9
$PSOLHEIGHT
 40
4.0
  9
$LOFTANG1
 40
1.570796326794897
  9
$LOFTANG2
 40
1.570796326794897
  9
$LOFTMAG1
 40
0.0
  9
$LOFTMAG2
 40
0.0
  9
$LOFTPARAM
 70
     7
  9
$LOFTNORMALS
280
     1
  9
$LATITUDE
 40
37.795
  9
$LONGITUDE
 40
-122.394
  9
$NORTHDIRECTION
 40
0.0
  9
$TIMEZONE
 70
 -8000
  9
$LIGHTGLYPHDISPLAY
280
     1
  9
$TILEMODELIGHTSYNCH
280
     1
  9
$SOLIDHIST
280
     1
  9
$SHOWHIST
280
     1
  9
$DWFFRAME
280
     2
  9
$DGNFRAME
280
     2
  9
$REALWORLDSCALE
290
     1
  9
$INTERFERECOLOR
 62
   256
  9
$CSHADOW
280
     0
  9
$SHADOWPLANELOCATION
 40
0.0
  0
ENDSEC
  0
SECTION
  2
CLASSES
  0
CLASS
  1
ACDBDICTIONARYWDFLT
  2
AcDbDictionaryWithDefault
  3
ObjectDBX Classes
 90
        0
 91
        4
280
     0
281
     0
  0
CLASS
  1
VISUALSTYLE
  2
AcDbVisualStyle
  3
ObjectDBX Classes
 90
     4095
 91
        4
280
     0
281
     0
  0
ENDSEC
  0
SECTION
  2
TABLES
  0
TABLE
  2
VPORT
  5
8
330
0
100
AcDbSymbolTable
 70
     1
  0
VPORT
  5
29
330
8
100
AcDbSymbolTableRecord
100
AcDbViewportTableRecord
  2
*Active
 70
     0
 10
0.0
 20
0.0
 11
1.0
 21
1.0
 12
177.5
 22
9.709848484848493
 13
0.0
 23
0.0
 14
0.5
 24
0.5
 15
0.5
 25
0.5
 16
0.0
 26
0.0
 36
1.0
 17
0.0
 27
0.0
 37
0.0
 40
98.91363636363637
 41
1.6
 42
50.0
 43
0.0
 44
0.0
 50
0.0
 51
0.0
 71
     0
 72
   100
 73
     1
 74
     3
 75
     0
 76
     0
 77
     0
 78
     0
281
     0
 65
     1
110
0.0
120
0.0
130
0.0
111
1.0
121
0.0
131
0.0
112
0.0
122
1.0
132
0.0
 79
     0
146
0.0
 60
     3
 61
     5
292
     1
282
     1
141
0.0
142
0.0
 63
   250
  0
ENDTAB
  0
TABLE
  2
LTYPE
  5
5
330
0
100
AcDbSymbolTable
 70
     3
  0
LTYPE
  5
14
330
5
100
AcDbSymbolTableRecord
100
AcDbLinetypeTableRecord
  2
ByBlock
 70
     0
  3

 72
    65
 73
     0
 40
0.0
  0
LTYPE
  5
15
330
5
100
AcDbSymbolTableRecord
100
AcDbLinetypeTableRecord
  2
ByLayer
 70
     0
  3

 72
    65
 73
     0
 40
0.0
  0
LTYPE
  5
16
330
5
100
AcDbSymbolTableRecord
100
AcDbLinetypeTableRecord
  2
Continuous
 70
     0
  3
Solid line
 72
    65
 73
     0
 40
0.0
  0
LTYPE
  5
3D
330
5
100
AcDbSymbolTableRecord
100
AcDbLinetypeTableRecord
  2
________________
 70
     0
  3

 72
    65
 73
     0
 40
0.0
  0
LTYPE
  5
CA
330
5
100
AcDbSymbolTableRecord
100
AcDbLinetypeTableRecord
  2
______....__....
 70
     0
  3

 72
    65
 73
     4
 40
6.0
 49
2.25
 74
     0
 49
-1.5
 74
     0
 49
0.7499999999999999
 74
     0
 49
-1.5
 74
     0
  0
ENDTAB
  0
TABLE
  2
LAYER
  5
2
330
0
100
AcDbSymbolTable
 70
     2
  0
LAYER
  5
10
330
2
100
AcDbSymbolTableRecord
100
AcDbLayerTableRecord
  2
0
 70
     0
 62
     7
  6
Continuous
370
    -3
390
F
347
0
  0
LAYER
  5
3B
330
2
100
AcDbSymbolTableRecord
100
AcDbLayerTableRecord
  2
1
 70
     0
 62
     7
  6
Continuous
370
    -3
390
F
347
0
  0
ENDTAB
  0
TABLE
  2
STYLE
  5
3
330
0
100
AcDbSymbolTable
 70
     1
  0
STYLE
  5
11
330
3
100
AcDbSymbolTableRecord
100
AcDbTextStyleTableRecord
  2
Standard
 70
     0
 40
0.0
 41
1.0
 50
0.0
 71
     0
 42
0.2
  3
txt
  4

  0
ENDTAB
  0
TABLE
  2
VIEW
  5
6
330
0
100
AcDbSymbolTable
 70
     0
  0
ENDTAB
  0
TABLE
  2
UCS
  5
7
330
0
100
AcDbSymbolTable
 70
     0
  0
ENDTAB
  0
TABLE
  2
APPID
  5
9
330
0
100
AcDbSymbolTable
 70
     1
  0
APPID
  5
12
330
9
100
AcDbSymbolTableRecord
100
AcDbRegAppTableRecord
  2
ACAD
 70
     0
  0
ENDTAB
  0
TABLE
  2
DIMSTYLE
  5
A
330
0
100
AcDbSymbolTable
 70
     1
100
AcDbDimStyleTable
  0
DIMSTYLE
105
27
330
A
100
AcDbSymbolTableRecord
100
AcDbDimStyleTableRecord
  2
Standard
 70
     0
340
11
  0
ENDTAB
  0
TABLE
  2
BLOCK_RECORD
  5
1
330
0
100
AcDbSymbolTable
 70
     1
  0
BLOCK_RECORD
  5
1F
330
1
100
AcDbSymbolTableRecord
100
AcDbBlockTableRecord
  2
*Model_Space
340
22
 70
     0
280
     1
281
     0
  0
BLOCK_RECORD
  5
1B
330
1
100
AcDbSymbolTableRecord
100
AcDbBlockTableRecord
  2
*Paper_Space
340
1E
 70
     0
280
     1
281
     0
  0
BLOCK_RECORD
  5
23
330
1
100
AcDbSymbolTableRecord
100
AcDbBlockTableRecord
  2
*Paper_Space0
340
26
 70
     0
280
     1
281
     0
  0
ENDTAB
  0
ENDSEC
  0
SECTION
  2
BLOCKS
  0
BLOCK
  5
20
330
1F
100
AcDbEntity
  8
0
100
AcDbBlockBegin
  2
*Model_Space
 70
     0
 10
0.0
 20
0.0
 30
0.0
  3
*Model_Space
  1

  0
ENDBLK
  5
21
330
1F
100
AcDbEntity
  8
0
100
AcDbBlockEnd
  0
BLOCK
  5
1C
330
1B
100
AcDbEntity
 67
     1
  8
0
100
AcDbBlockBegin
  2
*Paper_Space
 70
     0
 10
0.0
 20
0.0
 30
0.0
  3
*Paper_Space
  1

  0
ENDBLK
  5
1D
330
1B
100
AcDbEntity
 67
     1
  8
0
100
AcDbBlockEnd
  0
BLOCK
  5
24
330
23
100
AcDbEntity
  8
0
100
AcDbBlockBegin
  2
*Paper_Space0
 70
     0
 10
0.0
 20
0.0
 30
0.0
  3
*Paper_Space0
  1

  0
ENDBLK
  5
25
330
23
100
AcDbEntity
  8
0
100
AcDbBlockEnd
  0
ENDSEC
  0
SECTION
  2
ENTITIES
  0
ARC
  5
3C
330
1F
100
AcDbEntity
  8
1
  6
________________
 62
     7
370
     0
100
AcDbCircle
 10
228.3387791112677
 20
19.16666666666668
 30
0.0
 40
13.9225
100
AcDbArc
 50
99.9288663620202
 51
180.0
  0
LINE
  5
3E
330
1F
100
AcDbEntity
  8
1
  6
________________
 62
     7
370
     0
100
AcDbLine
 10
214.4162791112677
 20
19.16666666666667
 30
0.0
 11
212.783727107133
 21
19.16666666666666
 31
0.0
  0
ARC
  5
3F
330
1F
100
AcDbEntity
  8
1
  6
________________
 62
     7
370
     0
100
AcDbCircle
 10
-232.4887913555209
 20
19.93727056078484
 30
0.0
 40
19.72012645483606
210
0.0
220
0.0
230
-1.0
100
AcDbArc
 50
357.7604811249566
 51
23.44902047034958
  0
LINE
  5
40
330
1F
100
AcDbEntity
  8
1
  6
________________
 62
     7
370
     0
100
AcDbLine
 10
214.3972613535333
 20
27.78455860073273
 30
0.0
 11
214.4162791112672
 21
27.89259703135432
 31
0.0
  0
ARC
  5
41
330
1F
100
AcDbEntity
  8
1
  6
________________
 62
     7
370
     0
100
AcDbCircle
 10
228.3387791112677
 20
19.16666666666668
 30
0.0
 40
13.9225
100
AcDbArc
 50
180.0
 51
260.0711336379799
  0
LWPOLYLINE
  5
42
330
1F
100
AcDbEntity
  8
1
  6
________________
 62
     7
370
     0
100
AcDbPolyline
 90
        4
 70
     0
 43
0.0
 10
214.4162791112678
 20
10.4407363019792
 10
214.3971603400909
 20
10.54915633714836
 10
214.3645583382919
 20
10.65769404765051
 10
214.2882169985966
 20
10.87486667011716
  0
ARC
  5
43
330
1F
100
AcDbEntity
  8
1
  6
________________
 62
     7
370
     0
100
AcDbCircle
 10
-231.4426211472385
 20
18.26980458099007
 30
0.0
 40
18.68043597993929
210
0.0
220
0.0
230
-1.0
100
AcDbArc
 50
336.6800433934376
 51
2.751872285622028
  0
LINE
  5
44
330
1F
100
AcDbEntity
  8
1
  6
________________
 62
     7
370
     0
100
AcDbLine
 10
202.4162791112678
 20
19.16666666666666
 30
0.0
 11
202.4162791112678
 21
31.55720588752806
 31
0.0
  0
LINE
  5
45
330
1F
100
AcDbEntity
  8
1
  6
________________
 62
     7
370
     0
100
AcDbLine
 10
214.0619968077024
 20
31.76048264605501
 30
0.0
 11
202.4162791112678
 21
31.55720588752806
 31
0.0
  0
LINE
  5
46
330
1F
100
AcDbEntity
  8
1
  6
________________
 62
     7
370
     0
100
AcDbLine
 10
214.4162791112672
 20
31.78417771142461
 30
0.0
 11
214.0619968077024
 21
31.76048264605501
 31
0.0
  0
LINE
  5
47
330
1F
100
AcDbEntity
  8
1
  6
________________
 62
     7
370
     0
100
AcDbLine
 10
214.4162791112678
 20
27.89259703135417
 30
0.0
 11
214.4162791112678
 21
31.7841777114246
 31
0.0
  0
LINE
  5
48
330
1F
100
AcDbEntity
  8
1
  6
________________
 62
     7
370
     0
100
AcDbLine
 10
212.783727107133
 20
19.16666666666666
 30
0.0
 11
202.4162791112678
 21
19.16666666666666
 31
0.0
  0
LINE
  5
49
330
1F
100
AcDbEntity
  8
1
  6
________________
 62
     7
370
     0
100
AcDbLine
 10
214.0619968077024
 20
6.572850687278321
 30
0.0
 11
214.4162791112667
 21
6.549155621908784
 31
0.0
  0
LINE
  5
4A
330
1F
100
AcDbEntity
  8
1
  6
________________
 62
     7
370
     0
100
AcDbLine
 10
214.0619968077024
 20
6.572850687278322
 30
0.0
 11
202.4162791112678
 21
6.776127445805281
 31
0.0
  0
LINE
  5
4B
330
1F
100
AcDbEntity
  8
1
  6
________________
 62
     7
370
     0
100
AcDbLine
 10
202.4162791112678
 20
6.776127445805281
 30
0.0
 11
202.4162791112678
 21
19.16666666666666
 31
0.0
  0
LINE
  5
4C
330
1F
100
AcDbEntity
  8
1
  6
________________
 62
     7
370
     0
100
AcDbLine
 10
214.4162791112678
 20
6.549155621908784
 30
0.0
 11
214.4162791112678
 21
10.44073630197919
 31
0.0
  0
ARC
  5
4D
330
1F
100
AcDbEntity
  8
1
  6
________________
 62
     7
370
     0
100
AcDbCircle
 10
-213.7327244956158
 20
1.9401057546444
 30
0.0
 40
4.659462156891891
210
0.0
220
0.0
230
-1.0
100
AcDbArc
 50
98.43587801355498
 51
129.6754552397569
  0
ARC
  5
4E
330
1F
100
AcDbEntity
  8
1
  6
________________
 62
     7
370
     0
100
AcDbCircle
 10
-213.7327233868783
 20
36.39323006245694
 30
0.0
 40
4.659464776441746
210
0.0
220
0.0
230
-1.0
100
AcDbArc
 50
230.3245537658967
 51
261.5641129807846
  0
ARC
  5
4F
330
1F
100
AcDbEntity
  8
1
  6
________________
 62
     7
370
     0
100
AcDbCircle
 10
213.2084250083379
 20
4.587445182369311
 30
0.0
 40
2.000000000000002
100
AcDbArc
 50
28.21129889989119
 51
88.99999999999994
  0
ARC
  5
50
330
1F
100
AcDbEntity
  8
1
  6
________________
 62
     7
370
     0
100
AcDbCircle
 10
213.2084250083379
 20
33.74588815096403
 30
0.0
 40
2.000000000000002
100
AcDbArc
 50
270.9999999999998
 51
331.7887011001086
  0
LINE
  5
51
330
1F
100
AcDbEntity
  8
1
  6
________________
 62
     7
370
     0
100
AcDbLine
 10
217.1241746279996
 20
1.518853370566082
 30
0.0
 11
214.9708455013344
 21
5.532894285106185
 31
0.0
  0
LINE
  5
52
330
1F
100
AcDbEntity
  8
1
  6
________________
 62
     7
370
     0
100
AcDbLine
 10
214.9708455013344
 20
32.80043904822715
 30
0.0
 11
217.1241746279996
 21
36.81447996276725
 31
0.0
  0
LINE
  5
53
330
1F
100
AcDbEntity
  8
1
  6
________________
 62
     7
370
     0
100
AcDbLine
 10
231.7557174090723
 20
33.89898569801377
 30
0.0
 11
225.9381866275885
 21
32.88064355075474
 31
0.0
  0
LINE
  5
54
330
1F
100
AcDbEntity
  8
1
  6
________________
 62
     7
370
     0
100
AcDbLine
 10
225.9381866275885
 20
5.452689782578591
 30
0.0
 11
231.7557174090723
 21
4.434347635319556
 31
0.0
  0
LINE
  5
55
330
1F
100
AcDbEntity
  8
1
  6
________________
 62
     7
370
     0
100
AcDbLine
 10
231.7557174090722
 20
33.89898569801377
 30
0.0
 11
234.1405330050937
 21
34.31644085658362
 31
0.0
  0
LINE
  5
56
330
1F
100
AcDbEntity
  8
1
  6
________________
 62
     7
370
     0
100
AcDbLine
 10
234.1405330050937
 20
4.016892476749714
 30
0.0
 11
231.7557174090722
 21
4.434347635319569
 31
0.0
  0
ARC
  5
57
330
1F
100
AcDbEntity
  8
1
  6
________________
 62
     7
370
     0
100
AcDbCircle
 10
-232.4162791112678
 20
-5.833333333333315
 30
0.0
 40
9.99999999999998
210
0.0
220
0.0
230
-1.0
100
AcDbArc
 50
99.92886636202016
 51
147.6322788985418
  0
ARC
  5
58
330
1F
100
AcDbEntity
  8
1
  6
________________
 62
     7
370
     0
100
AcDbCircle
 10
-232.4162791112677
 20
44.16666666666671
 30
0.0
 40
10.00000000000004
210
0.0
220
0.0
230
-1.0
100
AcDbArc
 50
212.3677211014584
 51
260.0711336379797
  0
LINE
  5
59
330
1F
100
AcDbEntity
  8
1
  6
________________
 62
     7
370
     0
100
AcDbLine
 10
219.2779257176682
 20
40.82930746247875
 30
0.0
 11
217.1241746279996
 21
36.81447996276725
 31
0.0
  0
LINE
  5
5A
330
1F
100
AcDbEntity
  8
1
  6
________________
 62
     7
370
     0
100
AcDbLine
 10
217.1241746279995
 20
1.518853370566089
 30
0.0
 11
219.2779257176682
 21
-2.495974129145404
 31
0.0
  0
ARC
  5
5B
330
1F
100
AcDbEntity
  8
1
  6
________________
 62
     7
370
     0
100
AcDbCircle
 10
-232.4162791112676
 20
-5.833333333333361
 30
0.0
 40
10.00000000000012
210
0.0
220
0.0
230
-1.0
100
AcDbArc
 50
147.6322788985418
 51
179.9999999999996
  0
ARC
  5
5C
330
1F
100
AcDbEntity
  8
1
  6
________________
 62
     7
370
     0
100
AcDbCircle
 10
-232.4162791112676
 20
44.1666666666667
 30
0.0
 40
10.00000000000012
210
0.0
220
0.0
230
-1.0
100
AcDbArc
 50
180.0000000000003
 51
212.3677211014581
  0
ARC
  5
5D
330
1F
100
AcDbEntity
  8
1
  6
________________
 62
     7
370
     0
100
AcDbCircle
 10
-232.4162791112678
 20
-5.833333333333315
 30
0.0
 40
10.00000000000001
210
0.0
220
0.0
230
-1.0
100
AcDbArc
 50
270.0000000000001
 51
331.7887011001088
  0
ARC
  5
5E
330
1F
100
AcDbEntity
  8
1
  6
________________
 62
     7
370
     0
100
AcDbCircle
 10
-232.4162791112678
 20
44.16666666666664
 30
0.0
 40
10.00000000000001
210
0.0
220
0.0
230
-1.0
100
AcDbArc
 50
28.21129889989132
 51
89.99999999999994
  0
ARC
  5
5F
330
1F
100
AcDbEntity
  8
1
  6
________________
 62
     7
370
     0
100
AcDbCircle
 10
-238.4162791112678
 20
-11.83333333333331
 30
0.0
 40
4.000000000000004
210
0.0
220
0.0
230
-1.0
100
AcDbArc
 50
180.0
 51
269.9999999999999
  0
ARC
  5
60
330
1F
100
AcDbEntity
  8
1
  6
________________
 62
     7
370
     0
100
AcDbCircle
 10
-238.4162791112678
 20
50.16666666666665
 30
0.0
 40
4.000000000000004
210
0.0
220
0.0
230
-1.0
100
AcDbArc
 50
90.0
 51
179.9999999999999
  0
LINE
  5
61
330
1F
100
AcDbEntity
  8
1
  6
________________
 62
     7
370
     0
100
AcDbLine
 10
219.2779257176682
 20
-2.495974129145411
 30
0.0
 11
223.6041766462852
 21
-10.56057884701767
 31
0.0
  0
LINE
  5
62
330
1F
100
AcDbEntity
  8
1
  6
________________
 62
     7
370
     0
100
AcDbLine
 10
223.6041766462852
 20
48.893912180351
 30
0.0
 11
219.2779257176682
 21
40.82930746247872
 31
0.0
  0
LINE
  5
63
330
1F
100
AcDbEntity
  8
1
  6
________________
 62
     7
370
     0
100
AcDbLine
 10
238.4162791112678
 20
-15.83333333333331
 30
0.0
 11
232.4162791112678
 21
-15.83333333333332
 31
0.0
  0
LINE
  5
64
330
1F
100
AcDbEntity
  8
1
  6
________________
 62
     7
370
     0
100
AcDbLine
 10
232.4162791112678
 20
54.16666666666665
 30
0.0
 11
238.4162791112678
 21
54.16666666666665
 31
0.0
  0
LINE
  5
65
330
1F
100
AcDbEntity
  8
1
  6
________________
 62
     7
370
     0
100
AcDbLine
 10
242.4162791112678
 20
44.1666666666667
 30
0.0
 11
242.4162791112678
 21
50.16666666666665
 31
0.0
  0
LINE
  5
66
330
1F
100
AcDbEntity
  8
1
  6
________________
 62
     7
370
     0
100
AcDbLine
 10
242.4162791112678
 20
-11.83333333333328
 30
0.0
 11
242.4162791112678
 21
-5.833333333333313
 31
0.0
  0
LINE
  5
67
330
1F
100
AcDbEntity
  8
1
  6
________________
 62
     7
370
     0
100
AcDbLine
 10
215.4162791112678
 20
14.16666666666667
 30
0.0
 11
215.4162791112678
 21
24.16666666666667
 31
0.0
  0
LINE
  5
68
330
1F
100
AcDbEntity
  8
1
  6
________________
 62
     7
370
     0
100
AcDbLine
 10
216.9162791112678
 20
22.66666666666667
 30
0.0
 11
216.9162791112678
 21
15.66666666666667
 31
0.0
  0
LINE
  5
69
330
1F
100
AcDbEntity
  8
1
  6
________________
 62
     7
370
     0
100
AcDbLine
 10
193.4162791112677
 20
59.16666666666666
 30
0.0
 11
193.4162791112677
 21
-20.83333333333333
 31
0.0
  0
LINE
  5
6A
330
1F
100
AcDbEntity
  8
1
  6
________________
 62
     7
370
     0
100
AcDbLine
 10
200.4162791112678
 20
56.09638942282208
 30
0.0
 11
200.4162791112678
 21
-17.76305608948875
 31
0.0
  0
LINE
  5
6B
330
1F
100
AcDbEntity
  8
1
  6
________________
 62
     7
370
     0
100
AcDbLine
 10
148.4162791112678
 20
51.16666666666666
 30
0.0
 11
148.4162791112678
 21
-12.83333333333334
 31
0.0
  0
LINE
  5
6C
330
1F
100
AcDbEntity
  8
1
  6
________________
 62
     7
370
     0
100
AcDbLine
 10
148.4162791112678
 20
-12.83333333333333
 30
0.0
 11
148.4162791112678
 21
51.16666666666666
 31
0.0
  0
LINE
  5
6D
330
1F
100
AcDbEntity
  8
1
  6
________________
 62
     7
370
     0
100
AcDbLine
 10
142.4162791112678
 20
-9.780511154416953
 30
0.0
 11
142.4162791112678
 21
48.11384448775027
 31
0.0
  0
LINE
  5
6E
330
1F
100
AcDbEntity
  8
1
  6
________________
 62
     7
370
     0
100
AcDbLine
 10
142.4162791112678
 20
42.66666666666667
 30
0.0
 11
137.3290170790814
 21
42.75546515574535
 31
0.0
  0
LINE
  5
6F
330
1F
100
AcDbEntity
  8
1
  6
________________
 62
     7
370
     0
100
AcDbLine
 10
142.4162791112678
 20
46.66666666666667
 30
0.0
 11
137.3290170790814
 21
46.577868177588
 31
0.0
  0
LINE
  5
70
330
1F
100
AcDbEntity
  8
1
  6
________________
 62
     7
370
     0
100
AcDbLine
 10
132.4170542220656
 20
46.4921295469938
 30
0.0
 11
132.4170542220656
 21
42.84120378633954
 31
0.0
  0
LINE
  5
71
330
1F
100
AcDbEntity
  8
1
  6
________________
 62
     7
370
     0
100
AcDbLine
 10
137.3290170790813
 20
42.75546515574534
 30
0.0
 11
132.4170542220652
 21
42.84120378633955
 31
0.0
  0
LINE
  5
72
330
1F
100
AcDbEntity
  8
1
  6
________________
 62
     7
370
     0
100
AcDbLine
 10
132.4170542220652
 20
46.49212954699379
 30
0.0
 11
137.3290170790813
 21
46.577868177588
 31
0.0
  0
LINE
  5
73
330
1F
100
AcDbEntity
  8
1
  6
________________
 62
     7
370
     0
100
AcDbLine
 10
200.4162791112678
 20
8.16666666666667
 30
0.0
 11
202.4162791112678
 21
8.16666666666667
 31
0.0
  0
LINE
  5
74
330
1F
100
AcDbEntity
  8
1
  6
________________
 62
     7
370
     0
100
AcDbLine
 10
202.4162791112678
 20
30.16666666666667
 30
0.0
 11
200.4162791112678
 21
30.16666666666667
 31
0.0
  0
LINE
  5
75
330
1F
100
AcDbEntity
  8
1
  6
________________
 62
     7
370
     0
100
AcDbLine
 10
215.4162791112677
 20
24.16666666666667
 30
0.0
 11
215.3450880940855
 21
24.16666666666667
 31
0.0
  0
LINE
  5
76
330
1F
100
AcDbEntity
  8
1
  6
________________
 62
     7
370
     0
100
AcDbLine
 10
215.3450880940856
 20
14.16666666666667
 30
0.0
 11
215.4162791112677
 21
14.16666666666667
 31
0.0
  0
LINE
  5
77
330
1F
100
AcDbEntity
  8
1
  6
________________
 62
     7
370
     0
100
AcDbLine
 10
215.4162791112678
 20
14.16666666666666
 30
0.0
 11
216.1662791112678
 21
14.91666666666667
 31
0.0
  0
LINE
  5
78
330
1F
100
AcDbEntity
  8
1
  6
________________
 62
     7
370
     0
100
AcDbLine
 10
216.1662791112678
 20
14.91666666666667
 30
0.0
 11
216.9162791112678
 21
15.66666666666667
 31
0.0
  0
LINE
  5
79
330
1F
100
AcDbEntity
  8
1
  6
________________
 62
     7
370
     0
100
AcDbLine
 10
216.9162791112678
 20
22.66666666666667
 30
0.0
 11
216.1662791112678
 21
23.41666666666667
 31
0.0
  0
LINE
  5
7A
330
1F
100
AcDbEntity
  8
1
  6
________________
 62
     7
370
     0
100
AcDbLine
 10
216.1662791112677
 20
23.41666666666667
 30
0.0
 11
215.4162791112677
 21
24.16666666666669
 31
0.0
  0
LINE
  5
7B
330
1F
100
AcDbEntity
  8
1
  6
________________
 62
     7
370
     0
100
AcDbLine
 10
193.4162791112677
 20
-20.83333333333333
 30
0.0
 11
197.4686363305796
 21
-20.76259917495791
 31
0.0
  0
LINE
  5
7C
330
1F
100
AcDbEntity
  8
1
  6
________________
 62
     7
370
     0
100
AcDbLine
 10
197.4686363305796
 20
59.09593250829124
 30
0.0
 11
193.4162791112677
 21
59.16666666666666
 31
0.0
  0
ARC
  5
7D
330
1F
100
AcDbEntity
  8
1
  6
________________
 62
     7
370
     0
100
AcDbCircle
 10
197.4162791112677
 20
56.09638942282208
 30
0.0
 40
3.000000000000003
100
AcDbArc
 50
0.0
 51
89.00000000000003
  0
ARC
  5
7E
330
1F
100
AcDbEntity
  8
1
  6
________________
 62
     7
370
     0
100
AcDbCircle
 10
197.4162791112677
 20
-17.76305608948874
 30
0.0
 40
3.000000000000003
100
AcDbArc
 50
271.0
 51
0.0
  0
LINE
  5
7F
330
1F
100
AcDbEntity
  8
1
  6
________________
 62
     7
370
     0
100
AcDbLine
 10
148.4162791112678
 20
-12.83333333333333
 30
0.0
 11
193.4162791112677
 21
-12.83333333333333
 31
0.0
  0
LINE
  5
80
330
1F
100
AcDbEntity
  8
1
  6
________________
 62
     7
370
     0
100
AcDbLine
 10
193.4162791112677
 20
51.16666666666666
 30
0.0
 11
148.4162791112678
 21
51.16666666666666
 31
0.0
  0
LINE
  5
81
330
1F
100
AcDbEntity
  8
1
  6
________________
 62
     7
370
     0
100
AcDbLine
 10
148.4162791112678
 20
51.16666666666666
 30
0.0
 11
145.3639218919559
 21
51.11338757321946
 31
0.0
  0
LINE
  5
82
330
1F
100
AcDbEntity
  8
1
  6
________________
 62
     7
370
     0
100
AcDbLine
 10
145.3639218919559
 20
-12.78005423988613
 30
0.0
 11
148.4162791112678
 21
-12.83333333333333
 31
0.0
  0
ARC
  5
83
330
1F
100
AcDbEntity
  8
1
  6
________________
 62
     7
370
     0
100
AcDbCircle
 10
145.4162791112678
 20
-9.780511154416953
 30
0.0
 40
3.000000000000003
100
AcDbArc
 50
180.0
 51
269.0
  0
ARC
  5
84
330
1F
100
AcDbEntity
  8
1
  6
________________
 62
     7
370
     0
100
AcDbCircle
 10
145.4162791112678
 20
48.11384448775028
 30
0.0
 40
3.0
100
AcDbArc
 50
90.99999999999996
 51
180.0
  0
CIRCLE
  5
85
330
1F
100
AcDbEntity
  8
1
  6
________________
 62
     9
420
 12632256
370
     0
100
AcDbCircle
 10
315.0
 20
19.16666666666667
 30
0.0
 40
4.25
  0
CIRCLE
  5
86
330
1F
100
AcDbEntity
  8
1
  6
________________
 62
     7
370
     0
100
AcDbCircle
 10
315.0
 20
19.16666666666668
 30
0.0
 40
8.075
  0
LINE
  5
87
330
1F
100
AcDbEntity
  8
1
  6
________________
 62
     7
370
     0
100
AcDbLine
 10
319.9074772881118
 20
10.66666666666668
 30
0.0
 11
324.7729164228648
 21
19.09385444919278
 31
0.0
  0
LINE
  5
88
330
1F
100
AcDbEntity
  8
1
  6
________________
 62
     7
370
     0
100
AcDbLine
 10
310.0925227118882
 20
10.66666666666668
 30
0.0
 11
319.9074772881118
 21
10.66666666666668
 31
0.0
  0
LINE
  5
89
330
1F
100
AcDbEntity
  8
1
  6
________________
 62
     7
370
     0
100
AcDbLine
 10
305.2270576542919
 20
19.09389934887443
 30
0.0
 11
310.0925227118882
 21
10.66666666666668
 31
0.0
  0
LINE
  5
8A
330
1F
100
AcDbEntity
  8
1
  6
________________
 62
     7
370
     0
100
AcDbLine
 10
310.0925227118882
 20
27.66666666666668
 30
0.0
 11
305.2270835771352
 21
19.23947888414053
 31
0.0
  0
LINE
  5
8B
330
1F
100
AcDbEntity
  8
1
  6
________________
 62
     7
370
     0
100
AcDbLine
 10
319.9074772881118
 20
27.66666666666668
 30
0.0
 11
310.0925227118882
 21
27.66666666666668
 31
0.0
  0
LINE
  5
8C
330
1F
100
AcDbEntity
  8
1
  6
________________
 62
     7
370
     0
100
AcDbLine
 10
324.772942345708
 20
19.23943398445898
 30
0.0
 11
319.9074772881118
 21
27.66666666666668
 31
0.0
  0
LINE
  5
8D
330
1F
100
AcDbEntity
  8
1
  6
________________
 62
     7
370
     0
100
AcDbLine
 10
311.9378069593859
 20
-13.52438195923615
 30
0.0
 11
312.1834075945901
 21
-11.62856228046087
 31
0.0
  0
ARC
  5
8E
330
1F
100
AcDbEntity
  8
1
  6
________________
 62
     7
370
     0
100
AcDbCircle
 10
313.9138001396482
 20
-13.83333333333327
 30
0.0
 40
1.999999999999974
100
AcDbArc
 50
171.1136109036497
 51
269.9999999999998
  0
ARC
  5
8F
330
1F
100
AcDbEntity
  8
1
  6
________________
 62
     7
370
     0
100
AcDbCircle
 10
275.9797036225149
 20
-7.902244420087797
 30
0.0
 40
36.39496704345515
100
AcDbArc
 50
0.0
 51
3.08887655967744
  0
ARC
  5
90
330
1F
100
AcDbEntity
  8
1
  6
________________
 62
     7
370
     0
100
AcDbCircle
 10
275.9797036225149
 20
-7.902244420087797
 30
0.0
 40
36.39496704345513
100
AcDbArc
 50
354.1234436683665
 51
0.0
  0
ARC
  5
91
330
1F
100
AcDbEntity
  8
1
  6
________________
 62
     7
370
     0
100
AcDbCircle
 10
275.9797036225083
 20
-7.902244420088373
 30
0.0
 40
36.39496704346175
100
AcDbArc
 50
3.088876559677912
 51
9.52227546460277
  0
ARC
  5
92
330
1F
100
AcDbEntity
  8
1
  6
________________
 62
     7
370
     0
100
AcDbCircle
 10
354.0202963774851
 20
46.23557775342113
 30
0.0
 40
36.39496704345515
100
AcDbArc
 50
174.1234436683665
 51
183.0888765596775
  0
ARC
  5
93
330
1F
100
AcDbEntity
  8
1
  6
________________
 62
     7
370
     0
100
AcDbCircle
 10
354.0202963774796
 20
46.23557775342087
 30
0.0
 40
36.39496704344963
100
AcDbArc
 50
183.0888765596775
 51
189.5222754646045
  0
LINE
  5
94
330
1F
100
AcDbEntity
  8
1
  6
________________
 62
     7
370
     0
100
AcDbLine
 10
316.0861998603518
 20
54.16666666666665
 30
0.0
 11
313.9138001396482
 21
54.16666666666665
 31
0.0
  0
LINE
  5
95
330
1F
100
AcDbEntity
  8
1
  6
________________
 62
     7
370
     0
100
AcDbLine
 10
316.0861998603518
 20
-15.83333333333331
 30
0.0
 11
313.9138001396482
 21
-15.83333333333331
 31
0.0
  0
LINE
  5
96
330
1F
100
AcDbEntity
  8
1
  6
________________
 62
     7
370
     0
100
AcDbLine
 10
317.8165924054099
 20
-11.62856228046087
 30
0.0
 11
318.0621930406142
 21
-13.52438195923615
 31
0.0
  0
ARC
  5
97
330
1F
100
AcDbEntity
  8
1
  6
________________
 62
     7
370
     0
100
AcDbCircle
 10
316.0861998603518
 20
-13.83333333333331
 30
0.0
 40
2.000000000000002
100
AcDbArc
 50
269.9999999999998
 51
8.886389096351479
  0
LINE
  5
98
330
1F
100
AcDbEntity
  8
1
  6
________________
 62
     7
370
     0
100
AcDbLine
 10
312.1834075945901
 20
49.9618956137942
 30
0.0
 11
311.9378069593859
 21
51.85771529256948
 31
0.0
  0
ARC
  5
99
330
1F
100
AcDbEntity
  8
1
  6
________________
 62
     7
370
     0
100
AcDbCircle
 10
313.9138001396482
 20
52.16666666666665
 30
0.0
 40
2.000000000000002
100
AcDbArc
 50
90.0000000000003
 51
188.8863890963515
  0
ARC
  5
9A
330
1F
100
AcDbEntity
  8
1
  6
________________
 62
     7
370
     0
100
AcDbCircle
 10
354.0202963774851
 20
-7.902244420087797
 30
0.0
 40
36.39496704345518
100
AcDbArc
 50
176.9111234403226
 51
185.8765563316336
  0
LINE
  5
9B
330
1F
100
AcDbEntity
  8
1
  6
________________
 62
     7
370
     0
100
AcDbLine
 10
318.0621930406142
 20
51.85771529256948
 30
0.0
 11
317.8165924054099
 21
49.9618956137942
 31
0.0
  0
ARC
  5
9C
330
1F
100
AcDbEntity
  8
1
  6
________________
 62
     7
370
     0
100
AcDbCircle
 10
316.0861998603518
 20
52.16666666666671
 30
0.0
 40
2.000000000000045
100
AcDbArc
 50
351.1136109036468
 51
90.00000000000021
  0
ARC
  5
9D
330
1F
100
AcDbEntity
  8
1
  6
________________
 62
     7
370
     0
100
AcDbCircle
 10
354.0202963774793
 20
-7.902244420087506
 30
0.0
 40
36.39496704344935
100
AcDbArc
 50
170.4777245353955
 51
176.9111234403225
  0
ARC
  5
9E
330
1F
100
AcDbEntity
  8
1
  6
________________
 62
     7
370
     0
100
AcDbCircle
 10
275.9797036225149
 20
46.23557775342113
 30
0.0
 40
36.39496704345515
100
AcDbArc
 50
0.0
 51
5.876556331633488
  0
ARC
  5
9F
330
1F
100
AcDbEntity
  8
1
  6
________________
 62
     7
370
     0
100
AcDbCircle
 10
275.9797036225149
 20
46.23557775342113
 30
0.0
 40
36.39496704345515
100
AcDbArc
 50
356.9111234403226
 51
0.0
  0
ARC
  5
A0
330
1F
100
AcDbEntity
  8
1
  6
________________
 62
     7
370
     0
100
AcDbCircle
 10
275.979703622508
 20
46.23557775342175
 30
0.0
 40
36.39496704346206
100
AcDbArc
 50
350.4777245353974
 51
356.9111234403221
  0
ARC
  5
A1
330
1F
100
AcDbEntity
  8
1
  6
________________
 62
     7
370
     0
100
AcDbCircle
 10
327.9890160890918
 20
41.86903086003037
 30
0.0
 40
10.00000000000012
100
AcDbArc
 50
189.5222754646033
 51
207.7239477250668
  0
ARC
  5
A2
330
1F
100
AcDbEntity
  8
1
  6
________________
 62
     7
370
     0
100
AcDbCircle
 10
327.9890160890894
 20
-3.535697526696219
 30
0.0
 40
9.999999999997629
100
AcDbArc
 50
152.276052274931
 51
170.4777245353991
  0
ARC
  5
A3
330
1F
100
AcDbEntity
  8
1
  6
________________
 62
     7
370
     0
100
AcDbCircle
 10
302.0109839109117
 20
41.86903086002919
 30
0.0
 40
9.999999999996527
100
AcDbArc
 50
332.27605227493
 51
350.4777245354
  0
ARC
  5
A4
330
1F
100
AcDbEntity
  8
1
  6
________________
 62
     7
370
     0
100
AcDbCircle
 10
302.0109839109084
 20
-3.53569752669718
 30
0.0
 40
10.00000000000009
100
AcDbArc
 50
9.52227546460423
 51
27.72394772506798
  0
ARC
  5
A5
330
1F
100
AcDbEntity
  8
1
  6
________________
 62
     7
370
     0
100
AcDbCircle
 10
327.9890160890916
 20
41.86903086003039
 30
0.0
 40
10.0
100
AcDbArc
 50
207.7239477250673
 51
210.0
  0
ARC
  5
A6
330
1F
100
AcDbEntity
  8
1
  6
________________
 62
     7
370
     0
100
AcDbCircle
 10
327.9890160890916
 20
-3.535697526697051
 30
0.0
 40
10.0
100
AcDbArc
 50
149.9999999999999
 51
152.2760522749326
  0
ARC
  5
A7
330
1F
100
AcDbEntity
  8
1
  6
________________
 62
     7
370
     0
100
AcDbCircle
 10
302.0109839109084
 20
41.86903086003039
 30
0.0
 40
10.0
100
AcDbArc
 50
330.0
 51
332.2760522749326
  0
ARC
  5
A8
330
1F
100
AcDbEntity
  8
1
  6
________________
 62
     7
370
     0
100
AcDbCircle
 10
302.0109839109084
 20
-3.535697526697051
 30
0.0
 40
10.0
100
AcDbArc
 50
27.72394772506739
 51
30.00000000000005
  0
LINE
  5
A9
330
1F
100
AcDbEntity
  8
1
  6
________________
 62
     7
370
     0
100
AcDbLine
 10
319.9167021640943
 20
2.482644620561983
 30
0.0
 11
319.3287620512472
 21
1.464302473302949
 31
0.0
  0
LINE
  5
AA
330
1F
100
AcDbEntity
  8
1
  6
________________
 62
     7
370
     0
100
AcDbLine
 10
310.6712379487528
 20
1.464302473302949
 30
0.0
 11
310.0832978359056
 21
2.482644620561986
 31
0.0
  0
LINE
  5
AB
330
1F
100
AcDbEntity
  8
1
  6
________________
 62
     7
370
     0
100
AcDbLine
 10
310.0832978359056
 20
35.85068871277135
 30
0.0
 11
310.6712379487528
 21
36.86903086003039
 31
0.0
  0
LINE
  5
AC
330
1F
100
AcDbEntity
  8
1
  6
________________
 62
     7
370
     0
100
AcDbLine
 10
319.3287620512472
 20
36.86903086003039
 30
0.0
 11
319.9167021640943
 21
35.85068871277135
 31
0.0
  0
LINE
  5
AD
330
1F
100
AcDbEntity
  8
1
  6
________________
 62
     7
370
     0
100
AcDbLine
 10
327.23982570682
 20
19.16666666666667
 30
0.0
 11
329.5163220892055
 21
19.16666666666666
 31
0.0
  0
LINE
  5
AE
330
1F
100
AcDbEntity
  8
1
  6
________________
 62
     7
370
     0
100
AcDbLine
 10
324.5113085385963
 20
27.89259703135415
 30
0.0
 11
329.5163220892055
 21
19.16666666666666
 31
0.0
  0
LINE
  5
AF
330
1F
100
AcDbEntity
  8
1
  6
________________
 62
     7
370
     0
100
AcDbLine
 10
324.5113085385963
 20
27.89259703135417
 30
0.0
 11
319.9167021640943
 21
35.8506887127714
 31
0.0
  0
LINE
  5
B0
330
1F
100
AcDbEntity
  8
1
  6
________________
 62
     7
370
     0
100
AcDbLine
 10
329.5163220892055
 20
19.16666666666666
 30
0.0
 11
324.5113085385962
 21
10.44073630197895
 31
0.0
  0
LINE
  5
B1
330
1F
100
AcDbEntity
  8
1
  6
________________
 62
     7
370
     0
100
AcDbLine
 10
319.9167021640943
 20
2.482644620561955
 30
0.0
 11
324.5113085385963
 21
10.44073630197917
 31
0.0
  0
LINE
  5
B2
330
1F
100
AcDbEntity
  8
1
  6
________________
 62
     7
370
     0
100
AcDbLine
 10
302.7601742931799
 20
19.16666666666667
 30
0.0
 11
300.4836779107945
 21
19.16666666666666
 31
0.0
  0
LINE
  5
B3
330
1F
100
AcDbEntity
  8
1
  6
________________
 62
     7
370
     0
100
AcDbLine
 10
300.4836779107945
 20
19.16666666666666
 30
0.0
 11
305.4886914614038
 21
27.89259703135432
 31
0.0
  0
LINE
  5
B4
330
1F
100
AcDbEntity
  8
1
  6
________________
 62
     7
370
     0
100
AcDbLine
 10
310.0832978359056
 20
35.8506887127714
 30
0.0
 11
305.4886914614037
 21
27.89259703135419
 31
0.0
  0
LINE
  5
B5
330
1F
100
AcDbEntity
  8
1
  6
________________
 62
     7
370
     0
100
AcDbLine
 10
305.4886914614037
 20
10.4407363019792
 30
0.0
 11
300.4836779107945
 21
19.16666666666666
 31
0.0
  0
LINE
  5
B6
330
1F
100
AcDbEntity
  8
1
  6
________________
 62
     7
370
     0
100
AcDbLine
 10
305.4886914614037
 20
10.44073630197918
 30
0.0
 11
310.0832978359056
 21
2.482644620561952
 31
0.0
  0
LWPOLYLINE
  5
B7
330
1F
100
AcDbEntity
  8
1
  6
________________
 62
     7
370
     0
100
AcDbPolyline
 90
       26
 70
     0
 43
0.0
 10
-310.5816632177788
 20
10.51403517975285
 10
-310.5468929586695
 20
10.51465240012262
 10
-310.5121583250198
 20
10.51649592945004
 10
-310.4775628231448
 20
10.51955357006228
 10
-310.4432099593591
 20
10.52381312428648
 10
-310.4080103975112
 20
10.52946831429754
 10
-310.3731373062705
 20
10.53637359393652
 10
-310.3386872269692
 20
10.54449081183465
 10
-310.3047567009394
 20
10.5537818166232
 10
-310.2613836144508
 20
10.56761840253338
 10
-310.2189360025422
 20
10.5833635687108
 10
-310.1775398545838
 20
10.60090066721041
 10
-310.1373211599454
 20
10.62011305008712
 10
-310.0984059079974
 20
10.64088406939589
 10
-310.0609200881097
 20
10.66309707719163
 10
-310.0254108289221
 20
10.68630782511033
 10
-309.9912069127468
 20
10.71081113900352
 10
-309.9583590882625
 20
10.73650669781404
 10
-309.9269181041481
 20
10.76329418048477
 10
-309.8960286297032
 20
10.79194025962558
 10
-309.8665927424915
 20
10.8216419804052
 10
-309.8386361514665
 20
10.85230942215761
 10
-309.8121845655814
 20
10.8838526642168
 10
-309.7786028196783
 20
10.9280766686438
 10
-309.7477415876677
 20
10.97373785882164
 10
-309.7196334061451
 20
11.02065113867766
210
0.0
220
0.0
230
-1.0
  0
LINE
  5
B8
330
1F
100
AcDbEntity
  8
1
  6
________________
 62
     7
370
     0
100
AcDbLine
 10
310.5816632177788
 20
10.51403517975285
 30
0.0
 11
319.4183367822212
 21
10.51403517975285
 31
0.0
  0
LWPOLYLINE
  5
B9
330
1F
100
AcDbEntity
  8
1
  6
________________
 62
     7
370
     0
100
AcDbPolyline
 90
       26
 70
     0
 43
0.0
 10
-320.2803665938544
 20
11.02065113867797
 10
-320.2509788112677
 20
10.97173376777483
 10
-320.218593219814
 20
10.92418411423188
 10
-320.1832472713452
 20
10.87821325512749
 10
-320.1540073767704
 20
10.84398942316525
 10
-320.1229706758028
 20
10.81082686856807
 10
-320.0901731251927
 20
10.77884484815667
 10
-320.0556506816905
 20
10.74816261875177
 10
-320.0180049799339
 20
10.71779168100583
 10
-319.9784854210343
 20
10.68898853999405
 10
-319.9371765685499
 20
10.66191362262712
 10
-319.9041671395958
 20
10.64232271317294
 10
-319.870103936622
 20
10.62386587608397
 10
-319.8350580642133
 20
10.60662356395242
 10
-319.7991006269541
 20
10.59067622937051
 10
-319.7687378272739
 20
10.57852452087703
 10
-319.7377725837432
 20
10.56731420988216
 10
-319.7062682472405
 20
10.55708771330164
 10
-319.6742881686445
 20
10.54788744805117
 10
-319.6409351606139
 20
10.53952932428039
 10
-319.6071221682037
 20
10.53230509110492
 10
-319.5729416340271
 20
10.52624735478774
 10
-319.5384860006975
 20
10.52138872159186
 10
-319.4986247006895
 20
10.51731421621526
 10
-319.4585213961922
 20
10.51485763777971
 10
-319.4183367822212
 20
10.51403517975283
210
0.0
220
0.0
230
-1.0
  0
LWPOLYLINE
  5
BA
330
1F
100
AcDbEntity
  8
1
  6
________________
 62
     7
370
     0
100
AcDbPolyline
 90
        4
 70
     0
 43
0.0
 10
-320.2803665938544
 20
11.02065113867798
 10
-321.7012735079646
 20
13.53202909855616
 10
-323.2739637099898
 20
16.28708262835301
 10
-324.9304246300616
 20
19.16666666666667
210
0.0
220
0.0
230
-1.0
  0
LWPOLYLINE
  5
BB
330
1F
100
AcDbEntity
  8
1
  6
________________
 62
     7
370
     0
100
AcDbPolyline
 90
        4
 70
     0
 43
0.0
 10
320.2803665938544
 20
27.31268219465536
 10
321.7012735079646
 20
24.80130423477718
 10
323.2739637099897
 20
22.04625070498034
 10
324.9304246300616
 20
19.16666666666667
  0
LWPOLYLINE
  5
BC
330
1F
100
AcDbEntity
  8
1
  6
________________
 62
     7
370
     0
100
AcDbPolyline
 90
       26
 70
     0
 43
0.0
 10
320.2803665938544
 20
27.31268219465537
 10
320.2509788112677
 20
27.36159956555851
 10
320.218593219814
 20
27.40914921910145
 10
320.1832472713452
 20
27.45512007820584
 10
320.1540073767704
 20
27.48934391016809
 10
320.1229706758028
 20
27.52250646476526
 10
320.0901731251927
 20
27.55448848517666
 10
320.0556506816905
 20
27.58517071458157
 10
320.0180049799339
 20
27.61554165232751
 10
319.9784854210343
 20
27.64434479333929
 10
319.9371765685499
 20
27.67141971070622
 10
319.9041671395958
 20
27.6910106201604
 10
319.870103936622
 20
27.70946745724936
 10
319.8350580642133
 20
27.72670976938091
 10
319.7991006269541
 20
27.74265710396283
 10
319.7687378272739
 20
27.7548088124563
 10
319.7377725837432
 20
27.76601912345117
 10
319.7062682472405
 20
27.7762456200317
 10
319.6742881686445
 20
27.78544588528217
 10
319.6409351606139
 20
27.79380400905294
 10
319.6071221682037
 20
27.80102824222842
 10
319.5729416340271
 20
27.80708597854559
 10
319.5384860006975
 20
27.81194461174148
 10
319.4986247006895
 20
27.81601911711807
 10
319.4585213961922
 20
27.81847569555363
 10
319.4183367822212
 20
27.81929815358051
  0
LINE
  5
BD
330
1F
100
AcDbEntity
  8
1
  6
________________
 62
     7
370
     0
100
AcDbLine
 10
310.5816632177788
 20
27.81929815358049
 30
0.0
 11
319.4183367822212
 21
27.81929815358049
 31
0.0
  0
LWPOLYLINE
  5
BE
330
1F
100
AcDbEntity
  8
1
  6
________________
 62
     7
370
     0
100
AcDbPolyline
 90
       26
 70
     0
 43
0.0
 10
310.5816632177788
 20
27.81929815358049
 10
310.5468929586695
 20
27.81868093321071
 10
310.5121583250198
 20
27.81683740388329
 10
310.4775628231448
 20
27.81377976327106
 10
310.4432099593591
 20
27.80952020904685
 10
310.4080103975112
 20
27.80386501903579
 10
310.3731373062705
 20
27.79695973939682
 10
310.3386872269692
 20
27.78884252149869
 10
310.3047567009394
 20
27.77955151671014
 10
310.2613836144508
 20
27.76571493079996
 10
310.2189360025422
 20
27.74996976462254
 10
310.1775398545838
 20
27.73243266612293
 10
310.1373211599454
 20
27.71322028324622
 10
310.0984059079974
 20
27.69244926393745
 10
310.0609200881097
 20
27.67023625614171
 10
310.0254108289221
 20
27.647025508223
 10
309.9912069127468
 20
27.62252219432982
 10
309.9583590882625
 20
27.5968266355193
 10
309.9269181041481
 20
27.57003915284857
 10
309.8960286297032
 20
27.54139307370775
 10
309.8665927424915
 20
27.51169135292814
 10
309.8386361514665
 20
27.48102391117573
 10
309.8121845655814
 20
27.44948066911654
 10
309.7786028196783
 20
27.40525666468954
 10
309.7477415876677
 20
27.3595954745117
 10
309.7196334061451
 20
27.31268219465568
  0
LWPOLYLINE
  5
BF
330
1F
100
AcDbEntity
  8
1
  6
________________
 62
     7
370
     0
100
AcDbPolyline
 90
        4
 70
     0
 43
0.0
 10
305.0695753699384
 20
19.16666666666666
 10
306.7260362900103
 20
22.04625070498033
 10
308.2987264920355
 20
24.80130423477719
 10
309.7196334061457
 20
27.31268219465537
  0
LWPOLYLINE
  5
C0
330
1F
100
AcDbEntity
  8
1
  6
________________
 62
     7
370
     0
100
AcDbPolyline
 90
        4
 70
     0
 43
0.0
 10
-305.0695753699385
 20
19.16666666666666
 10
-306.7260362900103
 20
16.28708262835299
 10
-308.2987264920355
 20
13.53202909855614
 10
-309.7196334061457
 20
11.02065113867797
210
0.0
220
0.0
230
-1.0
  0
LINE
  5
C1
330
1F
100
AcDbEntity
  8
1
  6
________________
 62
     7
370
     0
100
AcDbLine
 10
305.358206537912
 20
18.66674281908849
 30
0.0
 11
305.0695753699384
 21
19.16666666666666
 31
0.0
  0
LINE
  5
C2
330
1F
100
AcDbEntity
  8
1
  6
________________
 62
     7
370
     0
100
AcDbLine
 10
324.9304246300616
 20
19.16666666666668
 30
0.0
 11
324.641793462088
 21
19.66659051424486
 31
0.0
  0
LINE
  5
C3
330
1F
100
AcDbEntity
  8
1
  6
________________
 62
     7
370
     0
100
AcDbLine
 10
324.9304246300616
 20
19.16666666666668
 30
0.0
 11
324.641793462088
 21
18.66674281908847
 31
0.0
  0
LINE
  5
C4
330
1F
100
AcDbEntity
  8
1
  6
________________
 62
     7
370
     0
100
AcDbLine
 10
305.358206537912
 20
19.66659051424488
 30
0.0
 11
305.0695753699384
 21
19.16666666666666
 31
0.0
  0
LWPOLYLINE
  5
C5
330
1F
100
AcDbEntity
  8
1
  6
________________
 62
     7
370
     0
100
AcDbPolyline
 90
        6
 70
     0
 43
0.0
 10
-305.358206537912
 20
18.66674281908849
 10
-305.2731858214682
 20
18.85769984913814
 10
-305.2297260814394
 20
19.06215569327825
 10
-305.2297260814394
 20
19.27117764005511
 10
-305.2731858214682
 20
19.47563348419523
 10
-305.358206537912
 20
19.66659051424488
210
0.0
220
0.0
230
-1.0
  0
LWPOLYLINE
  5
C6
330
1F
100
AcDbEntity
  8
1
  6
________________
 62
     7
370
     0
100
AcDbPolyline
 90
        6
 70
     0
 43
0.0
 10
-324.641793462088
 20
19.66659051424486
 10
-324.7268141785318
 20
19.47563348419521
 10
-324.7702739185606
 20
19.2711776400551
 10
-324.7702739185606
 20
19.06215569327824
 10
-324.7268141785318
 20
18.85769984913812
 10
-324.641793462088
 20
18.66674281908847
210
0.0
220
0.0
230
-1.0
  0
CIRCLE
  5
C7
330
1F
100
AcDbEntity
  8
1
  6
________________
 62
     7
370
     0
100
AcDbCircle
 10
-315.0
 20
19.16666666666667
 30
0.0
 40
5.000000000000001
210
0.0
220
0.0
230
-1.0
  0
CIRCLE
  5
C8
330
1F
100
AcDbEntity
  8
1
  6
________________
 62
     7
370
     0
100
AcDbCircle
 10
315.0
 20
19.16666666666667
 30
0.0
 40
3.500000000000003
  0
LINE
  5
C9
330
1F
100
AcDbEntity
  8
1
  6
______....__....
 62
     1
420
 16711680
370
     0
100
AcDbLine
 10
322.25
 20
19.16666666666667
 30
0.0
 11
307.75
 21
19.16666666666667
 31
0.0
  0
LINE
  5
CB
330
1F
100
AcDbEntity
  8
1
  6
______....__....
 62
     1
420
 16711680
370
     0
100
AcDbLine
 10
315.0
 20
26.41666666666667
 30
0.0
 11
315.0
 21
11.91666666666667
 31
0.0
  0
LINE
  5
CC
330
1F
100
AcDbEntity
  8
1
  6
______....__....
 62
     1
420
 16711680
370
     0
100
AcDbLine
 10
322.25
 20
19.16666666666667
 30
0.0
 11
307.75
 21
19.16666666666667
 31
0.0
  0
LINE
  5
CD
330
1F
100
AcDbEntity
  8
1
  6
______....__....
 62
     1
420
 16711680
370
     0
100
AcDbLine
 10
315.0
 20
26.41666666666668
 30
0.0
 11
315.0
 21
11.91666666666667
 31
0.0
  0
LINE
  5
CE
330
1F
100
AcDbEntity
  8
1
  6
______....__....
 62
     1
420
 16711680
370
     0
100
AcDbLine
 10
322.2500000000001
 20
19.16666666666668
 30
0.0
 11
307.75
 21
19.16666666666668
 31
0.0
  0
LINE
  5
CF
330
1F
100
AcDbEntity
  8
1
  6
______....__....
 62
     1
420
 16711680
370
     0
100
AcDbLine
 10
315.0
 20
11.91666666666668
 30
0.0
 11
315.0
 21
26.41666666666669
 31
0.0
  0
LINE
  5
D0
330
1F
100
AcDbEntity
  8
1
  6
______....__....
 62
     1
420
 16711680
370
     0
100
AcDbLine
 10
322.25
 20
19.16666666666667
 30
0.0
 11
307.75
 21
19.16666666666667
 31
0.0
  0
LINE
  5
D1
330
1F
100
AcDbEntity
  8
1
  6
______....__....
 62
     1
420
 16711680
370
     0
100
AcDbLine
 10
315.0
 20
26.41666666666667
 30
0.0
 11
315.0
 21
11.91666666666667
 31
0.0
  0
ARC
  5
D2
330
1F
100
AcDbEntity
  8
1
  6
________________
 62
     7
370
     0
100
AcDbCircle
 10
60.83333333333332
 20
19.16666666666667
 30
0.0
 40
8.500000000000048
100
AcDbArc
 50
210.0
 51
270.0
  0
LINE
  5
D3
330
1F
100
AcDbEntity
  8
1
  6
________________
 62
     7
370
     0
100
AcDbLine
 10
55.88384676128092
 20
10.73942888084129
 30
0.0
 11
53.47211740116557
 21
14.91666666666666
 31
0.0
  0
LINE
  5
D4
330
1F
100
AcDbEntity
  8
1
  6
________________
 62
     7
370
     0
100
AcDbLine
 10
60.83333333333332
 20
10.66666666666668
 30
0.0
 11
56.00991964581199
 21
10.66666666666668
 31
0.0
  0
ARC
  5
D5
330
1F
100
AcDbEntity
  8
1
  6
________________
 62
     7
370
     0
100
AcDbCircle
 10
60.83333333333332
 20
19.16666666666667
 30
0.0
 40
8.500000000000046
100
AcDbArc
 50
270.0
 51
330.0
  0
LINE
  5
D6
330
1F
100
AcDbEntity
  8
1
  6
________________
 62
     7
370
     0
100
AcDbLine
 10
68.19454926550105
 20
14.91666666666667
 30
0.0
 11
65.7827168361785
 21
10.73925035973771
 31
0.0
  0
LINE
  5
D7
330
1F
100
AcDbEntity
  8
1
  6
________________
 62
     7
370
     0
100
AcDbLine
 10
65.65703796752416
 20
10.66666666666668
 30
0.0
 11
60.83333333333332
 21
10.66666666666668
 31
0.0
  0
ARC
  5
D8
330
1F
100
AcDbEntity
  8
1
  6
________________
 62
     7
370
     0
100
AcDbCircle
 10
60.83333333333332
 20
19.16666666666667
 30
0.0
 40
8.50000000000004
100
AcDbArc
 50
30.0
 51
90.00000000000001
  0
LINE
  5
D9
330
1F
100
AcDbEntity
  8
1
  6
________________
 62
     7
370
     0
100
AcDbLine
 10
60.83333333333332
 20
27.66666666666666
 30
0.0
 11
65.65703796753269
 21
27.66666666666666
 31
0.0
  0
LINE
  5
DA
330
1F
100
AcDbEntity
  8
1
  6
________________
 62
     7
370
     0
100
AcDbLine
 10
65.78281990538568
 20
27.59390445249208
 30
0.0
 11
68.19454926550105
 21
23.41666666666667
 31
0.0
  0
ARC
  5
DB
330
1F
100
AcDbEntity
  8
1
  6
________________
 62
     7
370
     0
100
AcDbCircle
 10
60.83333333333332
 20
19.16666666666667
 30
0.0
 40
8.500000000000046
100
AcDbArc
 50
90.0
 51
150.0
  0
LINE
  5
DC
330
1F
100
AcDbEntity
  8
1
  6
________________
 62
     7
370
     0
100
AcDbLine
 10
53.47211740116558
 20
23.41666666666667
 30
0.0
 11
55.88394983048813
 21
27.59408297359561
 31
0.0
  0
LINE
  5
DD
330
1F
100
AcDbEntity
  8
1
  6
________________
 62
     7
370
     0
100
AcDbLine
 10
56.00991996343217
 20
27.66666666666667
 30
0.0
 11
60.83333333333332
 21
27.66666666666666
 31
0.0
  0
ARC
  5
DE
330
1F
100
AcDbEntity
  8
1
  6
________________
 62
     7
370
     0
100
AcDbCircle
 10
60.83333333333332
 20
19.16666666666667
 30
0.0
 40
8.50000000000004
100
AcDbArc
 50
330.0
 51
30.0
  0
LINE
  5
DF
330
1F
100
AcDbEntity
  8
1
  6
________________
 62
     7
370
     0
100
AcDbLine
 10
70.60627862561643
 20
19.09390445249207
 30
0.0
 11
68.19454926550105
 21
14.91666666666667
 31
0.0
  0
LINE
  5
E0
330
1F
100
AcDbEntity
  8
1
  6
________________
 62
     7
370
     0
100
AcDbLine
 10
68.19454926550104
 20
23.41666666666667
 30
0.0
 11
70.60638169482361
 21
19.23925035973771
 31
0.0
  0
ARC
  5
E1
330
1F
100
AcDbEntity
  8
1
  6
________________
 62
     7
370
     0
100
AcDbCircle
 10
60.83333333333332
 20
19.16666666666667
 30
0.0
 40
8.50000000000005
100
AcDbArc
 50
150.0
 51
210.0
  0
LINE
  5
E2
330
1F
100
AcDbEntity
  8
1
  6
________________
 62
     7
370
     0
100
AcDbLine
 10
53.47211740116557
 20
14.91666666666666
 30
0.0
 11
51.06028497184302
 21
19.09408297359558
 31
0.0
  0
LINE
  5
E3
330
1F
100
AcDbEntity
  8
1
  6
________________
 62
     7
370
     0
100
AcDbLine
 10
51.06038804105022
 20
19.23942888084128
 30
0.0
 11
53.47211740116558
 21
23.41666666666667
 31
0.0
  0
LINE
  5
E4
330
1F
100
AcDbEntity
  8
1
  6
________________
 62
     7
370
     0
100
AcDbLine
 10
64.33333333333333
 20
51.66666666666666
 30
0.0
 11
64.33333333333333
 21
54.16666666666666
 31
0.0
  0
LINE
  5
E5
330
1F
100
AcDbEntity
  8
1
  6
________________
 62
     7
370
     0
100
AcDbLine
 10
64.33333333333333
 20
54.16666666666666
 30
0.0
 11
57.33333333333333
 21
54.16666666666666
 31
0.0
  0
LINE
  5
E6
330
1F
100
AcDbEntity
  8
1
  6
________________
 62
     7
370
     0
100
AcDbLine
 10
57.33333333333333
 20
54.16666666666666
 30
0.0
 11
57.33333333333333
 21
51.66666666666666
 31
0.0
  0
LINE
  5
E7
330
1F
100
AcDbEntity
  8
1
  6
________________
 62
     7
370
     0
100
AcDbLine
 10
57.33333333333333
 20
51.66666666666666
 30
0.0
 11
64.33333333333333
 21
51.66666666666666
 31
0.0
  0
ARC
  5
E8
330
1F
100
AcDbEntity
  8
1
  6
________________
 62
     7
370
     0
100
AcDbCircle
 10
-60.83333333333332
 20
19.16666666666667
 30
0.0
 40
32.0
210
0.0
220
0.0
230
-1.0
100
AcDbArc
 50
90.0
 51
270.0
  0
ARC
  5
E9
330
1F
100
AcDbEntity
  8
1
  6
________________
 62
     7
370
     0
100
AcDbCircle
 10
-60.83333333333332
 20
19.16666666666667
 30
0.0
 40
32.0
210
0.0
220
0.0
230
-1.0
100
AcDbArc
 50
270.0
 51
90.0
  0
LINE
  5
EA
330
1F
100
AcDbEntity
  8
1
  6
________________
 62
     7
370
     0
100
AcDbLine
 10
55.83333333333331
 20
46.66666666666667
 30
0.0
 11
55.92213182241199
 21
46.577868177588
 31
0.0
  0
LINE
  5
EB
330
1F
100
AcDbEntity
  8
1
  6
________________
 62
     7
370
     0
100
AcDbLine
 10
55.83333333333331
 20
46.66666666666667
 30
0.0
 11
65.83333333333333
 21
46.66666666666667
 31
0.0
  0
LINE
  5
EC
330
1F
100
AcDbEntity
  8
1
  6
________________
 62
     7
370
     0
100
AcDbLine
 10
65.83333333333333
 20
46.66666666666667
 30
0.0
 11
65.74453484425466
 21
46.577868177588
 31
0.0
  0
LINE
  5
ED
330
1F
100
AcDbEntity
  8
1
  6
________________
 62
     7
370
     0
100
AcDbLine
 10
60.83333333331333
 20
46.49212954699379
 30
0.0
 11
65.74453484425466
 21
46.57786817758801
 31
0.0
  0
LINE
  5
EE
330
1F
100
AcDbEntity
  8
1
  6
________________
 62
     7
370
     0
100
AcDbLine
 10
55.92213182241199
 20
46.57786817758801
 30
0.0
 11
60.83333333331326
 21
46.4921295469938
 31
0.0
  0
LINE
  5
EF
330
1F
100
AcDbEntity
  8
1
  6
________________
 62
     7
370
     0
100
AcDbLine
 10
60.83333333333332
 20
46.61550460102669
 30
0.0
 11
62.90163019658795
 21
46.57939134202559
 31
0.0
  0
LINE
  5
F0
330
1F
100
AcDbEntity
  8
1
  6
________________
 62
     7
370
     0
100
AcDbLine
 10
60.83333333331333
 20
42.84120378633953
 30
0.0
 11
55.92213182241199
 21
42.75546515574534
 31
0.0
  0
LINE
  5
F1
330
1F
100
AcDbEntity
  8
1
  6
________________
 62
     7
370
     0
100
AcDbLine
 10
60.83333333331332
 20
46.4921295469938
 30
0.0
 11
60.83333333331332
 21
42.84120378633954
 31
0.0
  0
LINE
  5
F2
330
1F
100
AcDbEntity
  8
1
  6
________________
 62
     7
370
     0
100
AcDbLine
 10
60.83333333333332
 20
42.78888935988778
 30
0.0
 11
58.83180993687508
 21
42.75394199130776
 31
0.0
  0
LINE
  5
F3
330
1F
100
AcDbEntity
  8
1
  6
________________
 62
     7
370
     0
100
AcDbLine
 10
65.83333333333333
 20
42.66666666666667
 30
0.0
 11
55.83333333333332
 21
42.66666666666667
 31
0.0
  0
LINE
  5
F4
330
1F
100
AcDbEntity
  8
1
  6
________________
 62
     7
370
     0
100
AcDbLine
 10
55.83333333333331
 20
42.66666666666667
 30
0.0
 11
55.92213182241199
 21
42.75546515574534
 31
0.0
  0
LINE
  5
F5
330
1F
100
AcDbEntity
  8
1
  6
________________
 62
     7
370
     0
100
AcDbLine
 10
65.74453484425466
 20
42.75546515574534
 30
0.0
 11
60.83333333331339
 21
42.84120378633955
 31
0.0
  0
LINE
  5
F6
330
1F
100
AcDbEntity
  8
1
  6
________________
 62
     7
370
     0
100
AcDbLine
 10
65.83333333333333
 20
42.66666666666667
 30
0.0
 11
65.74453484425466
 21
42.75546515574534
 31
0.0
  0
LINE
  5
F7
330
1F
100
AcDbEntity
  8
1
  6
________________
 62
     7
370
     0
100
AcDbLine
 10
58.76503647007869
 20
46.57939134202559
 30
0.0
 11
60.83333333333331
 21
46.61550460102669
 31
0.0
  0
LINE
  5
F8
330
1F
100
AcDbEntity
  8
1
  6
________________
 62
     7
370
     0
100
AcDbLine
 10
62.90163019658795
 20
46.57939134202559
 30
0.0
 11
58.76503647007869
 21
46.57939134202559
 31
0.0
  0
LINE
  5
F9
330
1F
100
AcDbEntity
  8
1
  6
________________
 62
     7
370
     0
100
AcDbLine
 10
62.83485672979154
 20
42.75394199130776
 30
0.0
 11
60.83333333333334
 21
42.78888935988778
 31
0.0
  0
LINE
  5
FA
330
1F
100
AcDbEntity
  8
1
  6
________________
 62
     7
370
     0
100
AcDbLine
 10
58.83180993687508
 20
42.75394199130776
 30
0.0
 11
62.83485672979154
 21
42.75394199130776
 31
0.0
  0
LINE
  5
FB
330
1F
100
AcDbEntity
  8
1
  6
________________
 62
     7
370
     0
100
AcDbLine
 10
65.83333333333333
 20
46.66666666666667
 30
0.0
 11
65.83333333333333
 21
42.66666666666667
 31
0.0
  0
LINE
  5
FC
330
1F
100
AcDbEntity
  8
1
  6
________________
 62
     7
370
     0
100
AcDbLine
 10
55.83333333333331
 20
42.66666666666667
 30
0.0
 11
55.83333333333331
 21
46.66666666666667
 31
0.0
  0
LWPOLYLINE
  5
FD
330
1F
100
AcDbEntity
  8
1
  6
________________
 62
     7
370
     0
100
AcDbPolyline
 90
        6
 70
     0
 43
0.0
 10
-65.22128331241693
 20
27.76666666666667
 10
-65.42916730969303
 20
27.74481825193008
 10
-65.627961134685
 20
27.68022756876692
 10
-65.80897945054224
 20
27.57571659537849
 10
-65.96431353550533
 20
27.43585143440153
 10
-66.08717681633767
 20
27.26674281908847
210
0.0
220
0.0
230
-1.0
  0
LINE
  5
FE
330
1F
100
AcDbEntity
  8
1
  6
________________
 62
     7
370
     0
100
AcDbLine
 10
56.44538335424971
 20
27.76666666666667
 30
0.0
 11
65.22128331241693
 21
27.76666666666667
 31
0.0
  0
LWPOLYLINE
  5
FF
330
1F
100
AcDbEntity
  8
1
  6
________________
 62
     7
370
     0
100
AcDbPolyline
 90
        6
 70
     0
 43
0.0
 10
-55.57948985032895
 20
27.26674281908847
 10
-55.7023531311613
 20
27.43585143440153
 10
-55.85768721612439
 20
27.57571659537848
 10
-56.03870553198163
 20
27.68022756876691
 10
-56.23749935697361
 20
27.74481825193008
 10
-56.44538335424971
 20
27.76666666666667
210
0.0
220
0.0
230
-1.0
  0
LINE
  5
100
330
1F
100
AcDbEntity
  8
1
  6
________________
 62
     7
370
     0
100
AcDbLine
 10
51.19153987124535
 20
19.66659051424487
 30
0.0
 11
55.57948985032895
 21
27.26674281908847
 31
0.0
  0
LWPOLYLINE
  5
101
330
1F
100
AcDbEntity
  8
1
  6
________________
 62
     7
370
     0
100
AcDbPolyline
 90
        6
 70
     0
 43
0.0
 10
-51.19153987124535
 20
18.66674281908848
 10
-51.1065191548016
 20
18.85769984913813
 10
-51.0630594147727
 20
19.06215569327824
 10
-51.0630594147727
 20
19.2711776400551
 10
-51.1065191548016
 20
19.47563348419522
 10
-51.19153987124535
 20
19.66659051424487
210
0.0
220
0.0
230
-1.0
  0
LINE
  5
102
330
1F
100
AcDbEntity
  8
1
  6
________________
 62
     7
370
     0
100
AcDbLine
 10
55.57948985032895
 20
11.06659051424486
 30
0.0
 11
51.19153987124534
 21
18.66674281908848
 31
0.0
  0
LWPOLYLINE
  5
103
330
1F
100
AcDbEntity
  8
1
  6
________________
 62
     7
370
     0
100
AcDbPolyline
 90
        6
 70
     0
 43
0.0
 10
-56.44538335424971
 20
10.56666666666667
 10
-56.23749935697361
 20
10.58851508140325
 10
-56.03870553198163
 20
10.65310576456642
 10
-55.85768721612438
 20
10.75761673795485
 10
-55.7023531311613
 20
10.8974818989318
 10
-55.57948985032895
 20
11.06659051424486
210
0.0
220
0.0
230
-1.0
  0
LINE
  5
104
330
1F
100
AcDbEntity
  8
1
  6
________________
 62
     7
370
     0
100
AcDbLine
 10
65.22128331241693
 20
10.56666666666666
 30
0.0
 11
56.44538335424971
 21
10.56666666666667
 31
0.0
  0
LWPOLYLINE
  5
105
330
1F
100
AcDbEntity
  8
1
  6
________________
 62
     7
370
     0
100
AcDbPolyline
 90
        6
 70
     0
 43
0.0
 10
-66.08717681633767
 20
11.06659051424486
 10
-65.96431353550533
 20
10.8974818989318
 10
-65.80897945054224
 20
10.75761673795485
 10
-65.627961134685
 20
10.65310576456642
 10
-65.42916730969303
 20
10.58851508140325
 10
-65.22128331241693
 20
10.56666666666666
210
0.0
220
0.0
230
-1.0
  0
LINE
  5
106
330
1F
100
AcDbEntity
  8
1
  6
________________
 62
     7
370
     0
100
AcDbLine
 10
70.47512679542129
 20
18.66674281908847
 30
0.0
 11
66.08717681633769
 21
11.06659051424486
 31
0.0
  0
LWPOLYLINE
  5
107
330
1F
100
AcDbEntity
  8
1
  6
________________
 62
     7
370
     0
100
AcDbPolyline
 90
        6
 70
     0
 43
0.0
 10
-70.4751267954213
 20
19.66659051424486
 10
-70.56014751186505
 20
19.47563348419521
 10
-70.60360725189395
 20
19.27117764005509
 10
-70.60360725189395
 20
19.06215569327823
 10
-70.56014751186505
 20
18.85769984913811
 10
-70.4751267954213
 20
18.66674281908847
210
0.0
220
0.0
230
-1.0
  0
LINE
  5
108
330
1F
100
AcDbEntity
  8
1
  6
________________
 62
     7
370
     0
100
AcDbLine
 10
66.08717681633769
 20
27.26674281908847
 30
0.0
 11
70.4751267954213
 21
19.66659051424486
 31
0.0
  0
ARC
  5
109
330
1F
100
AcDbEntity
  8
1
  6
________________
 62
     7
370
     0
100
AcDbCircle
 10
60.83333333333332
 20
19.16666666666667
 30
0.0
 40
32.0
100
AcDbArc
 50
270.0
 51
90.0
  0
ARC
  5
10A
330
1F
100
AcDbEntity
  8
1
  6
________________
 62
     7
370
     0
100
AcDbCircle
 10
60.83333333333332
 20
19.16666666666667
 30
0.0
 40
32.0
100
AcDbArc
 50
90.0
 51
270.0
  0
LINE
  5
10B
330
1F
100
AcDbEntity
  8
1
  6
______....__....
 62
     1
420
 16711680
370
     0
100
AcDbLine
 10
53.58333333333332
 20
19.16666666666667
 30
0.0
 11
68.08333333333333
 21
19.16666666666667
 31
0.0
  0
LINE
  5
10C
330
1F
100
AcDbEntity
  8
1
  6
______....__....
 62
     1
420
 16711680
370
     0
100
AcDbLine
 10
60.83333333333332
 20
26.41666666666667
 30
0.0
 11
60.83333333333332
 21
11.91666666666667
 31
0.0
  0
LINE
  5
10D
330
1F
100
AcDbEntity
  8
1
  6
______....__....
 62
     1
420
 16711680
370
     0
100
AcDbLine
 10
53.58333333333331
 20
19.16666666666667
 30
0.0
 11
68.08333333333333
 21
19.16666666666667
 31
0.0
  0
LINE
  5
10E
330
1F
100
AcDbEntity
  8
1
  6
______....__....
 62
     1
420
 16711680
370
     0
100
AcDbLine
 10
60.83333333333332
 20
26.41666666666668
 30
0.0
 11
60.83333333333332
 21
11.91666666666667
 31
0.0
  0
LINE
  5
10F
330
1F
100
AcDbEntity
  8
1
  6
______....__....
 62
     1
420
 16711680
370
     0
100
AcDbLine
 10
53.58333333333331
 20
19.16666666666668
 30
0.0
 11
68.08333333333333
 21
19.16666666666668
 31
0.0
  0
LINE
  5
110
330
1F
100
AcDbEntity
  8
1
  6
______....__....
 62
     1
420
 16711680
370
     0
100
AcDbLine
 10
60.83333333333332
 20
11.91666666666668
 30
0.0
 11
60.83333333333332
 21
26.41666666666669
 31
0.0
  0
LINE
  5
111
330
1F
100
AcDbEntity
  8
1
  6
______....__....
 62
     1
420
 16711680
370
     0
100
AcDbLine
 10
53.58333333333332
 20
19.16666666666667
 30
0.0
 11
68.08333333333333
 21
19.16666666666667
 31
0.0
  0
LINE
  5
112
330
1F
100
AcDbEntity
  8
1
  6
______....__....
 62
     1
420
 16711680
370
     0
100
AcDbLine
 10
60.83333333333332
 20
26.41666666666667
 30
0.0
 11
60.83333333333332
 21
11.91666666666667
 31
0.0
  0
MTEXT
  5
113
330
1F
100
AcDbEntity
  8
1
 62
     7
100
AcDbMText
 10
174.9334545454546
 20
-34.42878787878787
 30
0.0
 40
6.0
 41
0.0
 46
0.0
 71
     1
 72
     1
  1
{\FＭＳ ゴシック;MWP-65M}
 73
     1
 44
1.0
  0
LINE
  5
114
330
1F
100
AcDbEntity
  8
1
  6
______....__....
 62
     1
420
 16711680
370
     0
100
AcDbLine
 10
20.83333333333331
 20
19.16666666666667
 30
0.0
 11
100.8333333333333
 21
19.16666666666667
 31
0.0
  0
LINE
  5
115
330
1F
100
AcDbEntity
  8
1
  6
______....__....
 62
     1
420
 16711680
370
     0
100
AcDbLine
 10
60.83333333333332
 20
-20.83333333333334
 30
0.0
 11
60.83333333333332
 21
59.16666666666667
 31
0.0
  0
LINE
  5
116
330
1F
100
AcDbEntity
  8
1
  6
______....__....
 62
     1
420
 16711680
370
     0
100
AcDbLine
 10
275.0
 20
19.16666666666667
 30
0.0
 11
355.0
 21
19.16666666666667
 31
0.0
  0
LINE
  5
117
330
1F
100
AcDbEntity
  8
1
  6
______....__....
 62
     1
420
 16711680
370
     0
100
AcDbLine
 10
315.0
 20
-20.83333333333334
 30
0.0
 11
315.0
 21
59.16666666666667
 31
0.0
  0
POINT
  5
118
330
1F
100
AcDbEntity
  8
0
 62
     7
100
AcDbPoint
 10
315.0000000000001
 20
19.16666666666668
 30
0.0
  0
CIRCLE
  5
119
330
1F
100
AcDbEntity
  8
0
  6
________________
 62
     7
370
     9
100
AcDbCircle
 10
315.0000000000001
 20
19.16666666666668
 30
0.0
 40
40.0
  0
POINT
  5
11A
330
1F
100
AcDbEntity
  8
0
 62
     7
100
AcDbPoint
 10
60.83333333333332
 20
19.16666666666667
 30
0.0
  0
CIRCLE
  5
11B
330
1F
100
AcDbEntity
  8
0
  6
________________
 62
     7
370
     9
100
AcDbCircle
 10
60.83333333333332
 20
19.16666666666667
 30
0.0
 40
40.0
  0
ENDSEC
  0
SECTION
  2
OBJECTS
  0
DICTIONARY
  5
C
330
0
100
AcDbDictionary
281
     1
  3
ACAD_GROUP
350
D
  3
ACAD_LAYOUT
350
1A
  3
ACAD_MLEADERSTYLE
350
11D
  3
ACAD_MLINESTYLE
350
17
  3
ACAD_PLOTSETTINGS
350
19
  3
ACAD_PLOTSTYLENAME
350
E
  3
ACAD_TABLESTYLE
350
11C
  3
ACAD_VISUALSTYLE
350
2A
  0
DICTIONARY
  5
D
102
{ACAD_REACTORS
330
C
102
}
330
C
100
AcDbDictionary
281
     1
  0
DICTIONARY
  5
1A
102
{ACAD_REACTORS
330
C
102
}
330
C
100
AcDbDictionary
281
     1
  3
Layout1
350
1E
  3
Layout2
350
26
  3
Model
350
22
  0
DICTIONARY
  5
11D
102
{ACAD_REACTORS
330
C
102
}
330
C
100
AcDbDictionary
281
     1
  0
DICTIONARY
  5
17
102
{ACAD_REACTORS
330
C
102
}
330
C
100
AcDbDictionary
281
     1
  3
Standard
350
18
  0
DICTIONARY
  5
19
102
{ACAD_REACTORS
330
C
102
}
330
C
100
AcDbDictionary
281
     1
  0
ACDBDICTIONARYWDFLT
  5
E
102
{ACAD_REACTORS
330
C
102
}
330
C
100
AcDbDictionary
281
     1
  3
Normal
350
F
100
AcDbDictionaryWithDefault
340
F
  0
DICTIONARY
  5
11C
102
{ACAD_REACTORS
330
C
102
}
330
C
100
AcDbDictionary
281
     1
  0
DICTIONARY
  5
2A
102
{ACAD_REACTORS
330
C
102
}
330
C
100
AcDbDictionary
281
     1
  3
2dWireframe
350
2F
  3
3D Hidden
350
31
  3
3dWireframe
350
30
  3
Basic
350
32
  3
Brighten
350
36
  3
ColorChange
350
3A
  3
Conceptual
350
34
  3
Dim
350
35
  3
Facepattern
350
39
  3
Flat
350
2B
  3
FlatWithEdges
350
2C
  3
Gouraud
350
2D
  3
GouraudWithEdges
350
2E
  3
Linepattern
350
38
  3
Realistic
350
33
  3
Thicken
350
37
  0
LAYOUT
  5
1E
102
{ACAD_REACTORS
330
1A
102
}
330
1A
100
AcDbPlotSettings
  1

  2
none_device
  4

  6

 40
0.0
 41
0.0
 42
0.0
 43
0.0
 44
0.0
 45
0.0
 46
0.0
 47
0.0
 48
0.0
 49
0.0
140
0.0
141
0.0
142
1.0
143
1.0
 70
   688
 72
     0
 73
     0
 74
     5
  7

 75
    16
 76
     0
 77
     2
 78
   300
147
1.0
148
0.0
149
0.0
100
AcDbLayout
  1
Layout1
 70
     1
 71
     1
 10
0.0
 20
0.0
 11
12.0
 21
9.0
 12
0.0
 22
0.0
 32
0.0
 14
1.000000000000000E+20
 24
1.000000000000000E+20
 34
1.000000000000000E+20
 15
-1.000000000000000E+20
 25
-1.000000000000000E+20
 35
-1.000000000000000E+20
146
0.0
 13
0.0
 23
0.0
 33
0.0
 16
1.0
 26
0.0
 36
0.0
 17
0.0
 27
1.0
 37
0.0
 76
     0
330
1B
  0
LAYOUT
  5
26
102
{ACAD_REACTORS
330
1A
102
}
330
1A
100
AcDbPlotSettings
  1

  2
none_device
  4

  6

 40
0.0
 41
0.0
 42
0.0
 43
0.0
 44
0.0
 45
0.0
 46
0.0
 47
0.0
 48
0.0
 49
0.0
140
0.0
141
0.0
142
1.0
143
1.0
 70
   688
 72
     0
 73
     0
 74
     5
  7

 75
    16
 76
     0
 77
     2
 78
   300
147
1.0
148
0.0
149
0.0
100
AcDbLayout
  1
Layout2
 70
     1
 71
     2
 10
0.0
 20
0.0
 11
0.0
 21
0.0
 12
0.0
 22
0.0
 32
0.0
 14
0.0
 24
0.0
 34
0.0
 15
0.0
 25
0.0
 35
0.0
146
0.0
 13
0.0
 23
0.0
 33
0.0
 16
1.0
 26
0.0
 36
0.0
 17
0.0
 27
1.0
 37
0.0
 76
     0
330
23
  0
LAYOUT
  5
22
102
{ACAD_REACTORS
330
1A
102
}
330
1A
100
AcDbPlotSettings
  1

  2
none_device
  4

  6

 40
0.0
 41
0.0
 42
0.0
 43
0.0
 44
0.0
 45
0.0
 46
0.0
 47
0.0
 48
0.0
 49
0.0
140
0.0
141
0.0
142
1.0
143
1.0
 70
  1712
 72
     0
 73
     0
 74
     0
  7

 75
     0
 76
     0
 77
     2
 78
   300
147
1.0
148
0.0
149
0.0
100
AcDbLayout
  1
Model
 70
     1
 71
     0
 10
0.0
 20
0.0
 11
12.0
 21
9.0
 12
0.0
 22
0.0
 32
0.0
 14
0.0
 24
-39.74696969696969
 34
0.0
 15
355.0000000000001
 25
59.16666666666668
 35
10.0
146
0.0
 13
0.0
 23
0.0
 33
0.0
 16
1.0
 26
0.0
 36
0.0
 17
0.0
 27
1.0
 37
0.0
 76
     0
330
1F
331
29
  0
MLINESTYLE
  5
18
102
{ACAD_REACTORS
330
17
102
}
330
17
100
AcDbMlineStyle
  2
Standard
 70
     0
  3

 62
   256
 51
90.0
 52
90.0
 71
     2
 49
0.5
 62
   256
  6
BYLAYER
 49
-0.5
 62
   256
  6
BYLAYER
  0
ACDBPLACEHOLDER
  5
F
102
{ACAD_REACTORS
330
E
102
}
330
E
  0
VISUALSTYLE
  5
2F
102
{ACAD_REACTORS
330
2A
102
}
330
2A
100
AcDbVisualStyle
  2
2dWireframe
 70
     4
 71
     0
 72
     2
 73
     0
 90
        0
 40
-0.6
 41
-30.0
 62
     5
 63
     7
421
 16777215
 74
     1
 91
        4
 64
     7
 65
   257
 75
     1
175
     1
 42
1.0
 92
        0
 66
   257
 43
1.0
 76
     1
 77
     6
 78
     2
 67
     7
 79
     5
170
     0
171
     0
290
     0
174
     0
 93
        1
 44
0.0
173
     0
291
     0
 45
0.0
  0
VISUALSTYLE
  5
31
102
{ACAD_REACTORS
330
2A
102
}
330
2A
100
AcDbVisualStyle
  2
3D Hidden
 70
     6
 71
     1
 72
     2
 73
     2
 90
        0
 40
-0.6
 41
-30.0
 62
     5
 63
     7
421
 16777215
 74
     2
 91
        2
 64
     7
 65
   257
 75
     2
175
     1
 42
40.0
 92
        0
 66
   257
 43
1.0
 76
     1
 77
     6
 78
     2
 67
     7
 79
     3
170
     0
171
     0
290
     0
174
     0
 93
        1
 44
0.0
173
     0
291
     0
 45
0.0
  0
VISUALSTYLE
  5
30
102
{ACAD_REACTORS
330
2A
102
}
330
2A
100
AcDbVisualStyle
  2
3dWireframe
 70
     5
 71
     0
 72
     2
 73
     0
 90
        0
 40
-0.6
 41
-30.0
 62
     5
 63
     7
421
 16777215
 74
     1
 91
        4
 64
     7
 65
   257
 75
     1
175
     1
 42
1.0
 92
        0
 66
   257
 43
1.0
 76
     1
 77
     6
 78
     2
 67
     7
 79
     5
170
     0
171
     0
290
     0
174
     0
 93
        1
 44
0.0
173
     0
291
     0
 45
0.0
  0
VISUALSTYLE
  5
32
102
{ACAD_REACTORS
330
2A
102
}
330
2A
100
AcDbVisualStyle
  2
Basic
 70
     7
 71
     1
 72
     0
 73
     1
 90
        0
 40
-0.6
 41
-30.0
 62
     5
 63
     7
421
 16777215
 74
     0
 91
        4
 64
     7
 65
   257
 75
     1
175
     1
 42
1.0
 92
        8
 66
     7
 43
1.0
 76
     1
 77
     6
 78
     2
 67
     7
 79
     5
170
     0
171
     0
290
     0
174
     0
 93
        1
 44
0.0
173
     0
291
     1
 45
0.0
  0
VISUALSTYLE
  5
36
102
{ACAD_REACTORS
330
2A
102
}
330
2A
100
AcDbVisualStyle
  2
Brighten
 70
    12
 71
     2
 72
     2
 73
     0
 90
        0
 40
-0.6
 41
-30.0
 62
     5
 63
     7
421
 16777215
 74
     1
 91
        4
 64
     7
 65
   257
 75
     1
175
     1
 42
1.0
 92
        8
 66
     7
 43
1.0
 76
     1
 77
     6
 78
     2
 67
     7
 79
     5
170
     0
171
     0
290
     0
174
     0
 93
        1
 44
50.0
173
     0
291
     1
 45
0.0
  0
VISUALSTYLE
  5
3A
102
{ACAD_REACTORS
330
2A
102
}
330
2A
100
AcDbVisualStyle
  2
ColorChange
 70
    16
 71
     2
 72
     2
 73
     3
 90
        0
 40
-0.6
 41
-30.0
 62
     5
 63
     8
421
  8421504
 74
     1
 91
        4
 64
     7
 65
   257
 75
     1
175
     1
 42
1.0
 92
        8
 66
     8
424
  8421504
 43
1.0
 76
     1
 77
     6
 78
     2
 67
     7
 79
     5
170
     0
171
     0
290
     0
174
     0
 93
        1
 44
0.0
173
     0
291
     1
 45
0.0
  0
VISUALSTYLE
  5
34
102
{ACAD_REACTORS
330
2A
102
}
330
2A
100
AcDbVisualStyle
  2
Conceptual
 70
     9
 71
     3
 72
     2
 73
     0
 90
        0
 40
-0.6
 41
-30.0
 62
     5
 63
     7
421
 16777215
 74
     2
 91
        2
 64
     7
 65
   257
 75
     1
175
     1
 42
40.0
 92
        8
 66
     7
 43
1.0
 76
     1
 77
     6
 78
     2
 67
     7
 79
     3
170
     0
171
     0
290
     0
174
     0
 93
        1
 44
0.0
173
     0
291
     0
 45
0.0
  0
VISUALSTYLE
  5
35
102
{ACAD_REACTORS
330
2A
102
}
330
2A
100
AcDbVisualStyle
  2
Dim
 70
    11
 71
     2
 72
     2
 73
     0
 90
        0
 40
-0.6
 41
-30.0
 62
     5
 63
     7
421
 16777215
 74
     1
 91
        4
 64
     7
 65
   257
 75
     1
175
     1
 42
1.0
 92
        8
 66
     7
 43
1.0
 76
     1
 77
     6
 78
     2
 67
     7
 79
     5
170
     0
171
     0
290
     0
174
     0
 93
        1
 44
-50.0
173
     0
291
     1
 45
0.0
  0
VISUALSTYLE
  5
39
102
{ACAD_REACTORS
330
2A
102
}
330
2A
100
AcDbVisualStyle
  2
Facepattern
 70
    15
 71
     2
 72
     2
 73
     0
 90
        0
 40
-0.6
 41
-30.0
 62
     5
 63
     7
421
 16777215
 74
     1
 91
        4
 64
     7
 65
   257
 75
     1
175
     1
 42
1.0
 92
        8
 66
     7
 43
1.0
 76
     1
 77
     6
 78
     2
 67
     7
 79
     5
170
     0
171
     0
290
     0
174
     0
 93
        1
 44
0.0
173
     0
291
     1
 45
0.0
  0
VISUALSTYLE
  5
2B
102
{ACAD_REACTORS
330
2A
102
}
330
2A
100
AcDbVisualStyle
  2
Flat
 70
     0
 71
     2
 72
     1
 73
     1
 90
        2
 40
-0.6
 41
30.0
 62
     5
 63
     7
421
 16777215
 74
     0
 91
        4
 64
     7
 65
   257
 75
     1
175
     1
 42
1.0
 92
        8
 66
     7
 43
1.0
 76
     1
 77
     6
 78
     2
 67
     7
 79
     5
170
     0
171
     0
290
     0
174
     0
 93
       13
 44
0.0
173
     0
291
     1
 45
0.0
  0
VISUALSTYLE
  5
2C
102
{ACAD_REACTORS
330
2A
102
}
330
2A
100
AcDbVisualStyle
  2
FlatWithEdges
 70
     1
 71
     2
 72
     1
 73
     1
 90
        2
 40
-0.6
 41
30.0
 62
     5
 63
     7
421
 16777215
 74
     1
 91
        4
 64
     7
 65
   257
 75
     1
175
     1
 42
1.0
 92
        0
 66
   257
 43
1.0
 76
     1
 77
     6
 78
     2
 67
     7
 79
     5
170
     0
171
     0
290
     0
174
     0
 93
       13
 44
0.0
173
     0
291
     1
 45
0.0
  0
VISUALSTYLE
  5
2D
102
{ACAD_REACTORS
330
2A
102
}
330
2A
100
AcDbVisualStyle
  2
Gouraud
 70
     2
 71
     2
 72
     2
 73
     1
 90
        2
 40
-0.6
 41
30.0
 62
     5
 63
     7
421
 16777215
 74
     0
 91
        4
 64
     7
 65
   257
 75
     1
175
     1
 42
1.0
 92
        0
 66
     7
 43
1.0
 76
     1
 77
     6
 78
     2
 67
     7
 79
     5
170
     0
171
     0
290
     0
174
     0
 93
       13
 44
0.0
173
     0
291
     1
 45
0.0
  0
VISUALSTYLE
  5
2E
102
{ACAD_REACTORS
330
2A
102
}
330
2A
100
AcDbVisualStyle
  2
GouraudWithEdges
 70
     3
 71
     2
 72
     2
 73
     1
 90
        2
 40
-0.6
 41
30.0
 62
     5
 63
     7
421
 16777215
 74
     1
 91
        4
 64
     7
 65
   257
 75
     1
175
     1
 42
1.0
 92
        0
 66
   257
 43
1.0
 76
     1
 77
     6
 78
     2
 67
     7
 79
     5
170
     0
171
     0
290
     0
174
     0
 93
       13
 44
0.0
173
     0
291
     1
 45
0.0
  0
VISUALSTYLE
  5
38
102
{ACAD_REACTORS
330
2A
102
}
330
2A
100
AcDbVisualStyle
  2
Linepattern
 70
    14
 71
     2
 72
     2
 73
     0
 90
        0
 40
-0.6
 41
-30.0
 62
     5
 63
     7
421
 16777215
 74
     1
 91
        4
 64
     7
 65
   257
 75
     7
175
     7
 42
1.0
 92
        8
 66
     7
 43
1.0
 76
     1
 77
     6
 78
     2
 67
     7
 79
     5
170
     0
171
     0
290
     0
174
     0
 93
        1
 44
0.0
173
     0
291
     1
 45
0.0
  0
VISUALSTYLE
  5
33
102
{ACAD_REACTORS
330
2A
102
}
330
2A
100
AcDbVisualStyle
  2
Realistic
 70
     8
 71
     2
 72
     2
 73
     0
 90
        0
 40
-0.6
 41
-30.0
 62
     5
 63
     7
421
 16777215
 74
     1
 91
        0
 64
     7
 65
   257
 75
     1
175
     1
 42
1.0
 92
        8
 66
     8
424
  7895160
 43
1.0
 76
     1
 77
     6
 78
     2
 67
     7
 79
     5
170
     0
171
     0
290
     0
174
     0
 93
       13
 44
0.0
173
     0
291
     0
 45
0.0
  0
VISUALSTYLE
  5
37
102
{ACAD_REACTORS
330
2A
102
}
330
2A
100
AcDbVisualStyle
  2
Thicken
 70
    13
 71
     2
 72
     2
 73
     0
 90
        0
 40
-0.6
 41
-30.0
 62
     5
 63
     7
421
 16777215
 74
     1
 91
        4
 64
     7
 65
   257
 75
     1
175
     1
 42
1.0
 92
       12
 66
     7
 43
1.0
 76
     1
 77
     6
 78
     2
 67
     7
 79
     5
170
     0
171
     0
290
     0
174
     0
 93
        1
 44
0.0
173
     0
291
     1
 45
0.0
  0
ENDSEC
  0
EOF
