  0
SECTION
  2
HEADER
  9
$ACADVER
  1
AC1021
  9
$ACADMAINTVER
 70
    25
  9
$DWGCODEPAGE
  3
ANSI_932
  9
$INSBASE
 10
0.0
 20
0.0
 30
0.0
  9
$EXTMIN
 10
0.0
 20
-219.7469696969697
 30
0.0
  9
$EXTMAX
 10
374.8333333333334
 20
10.0
 30
10.0
  9
$LIMMIN
 10
0.0
 20
0.0
  9
$LIMMAX
 10
12.0
 20
9.0
  9
$ORTHOMODE
 70
     0
  9
$REGENMODE
 70
     1
  9
$FILLMODE
 70
     1
  9
$QTEXTMODE
 70
     0
  9
$MIRRTEXT
 70
     1
  9
$LTSCALE
 40
1.0
  9
$ATTMODE
 70
     1
  9
$TEXTSIZE
 40
0.2
  9
$TRACEWID
 40
0.05
  9
$TEXTSTYLE
  7
Standard
  9
$CLAYER
  8
0
  9
$CELTYPE
  6
ByLayer
  9
$CECOLOR
 62
   256
  9
$CELTSCALE
 40
1.0
  9
$DISPSILH
 70
     0
  9
$DIMSCALE
 40
1.0
  9
$DIMASZ
 40
3.0
  9
$DIMEXO
 40
0.0625
  9
$DIMDLI
 40
0.38
  9
$DIMRND
 40
0.0
  9
$DIMDLE
 40
0.0
  9
$DIMEXE
 40
0.18
  9
$DIMTP
 40
0.0
  9
$DIMTM
 40
0.0
  9
$DIMTXT
 40
3.0
  9
$DIMCEN
 40
0.09
  9
$DIMTSZ
 40
0.0
  9
$DIMTOL
 70
     0
  9
$DIMLIM
 70
     0
  9
$DIMTIH
 70
     1
  9
$DIMTOH
 70
     1
  9
$DIMSE1
 70
     0
  9
$DIMSE2
 70
     0
  9
$DIMTAD
 70
     1
  9
$DIMZIN
 70
     0
  9
$DIMBLK
  1

  9
$DIMASO
 70
     1
  9
$DIMSHO
 70
     1
  9
$DIMPOST
  1

  9
$DIMAPOST
  1

  9
$DIMALT
 70
     0
  9
$DIMALTD
 70
     2
  9
$DIMALTF
 40
25.4
  9
$DIMLFAC
 40
1.0
  9
$DIMTOFL
 70
     0
  9
$DIMTVP
 40
0.0
  9
$DIMTIX
 70
     0
  9
$DIMSOXD
 70
     0
  9
$DIMSAH
 70
     0
  9
$DIMBLK1
  1

  9
$DIMBLK2
  1

  9
$DIMSTYLE
  2
Standard
  9
$DIMCLRD
 70
     0
  9
$DIMCLRE
 70
     0
  9
$DIMCLRT
 70
     0
  9
$DIMTFAC
 40
1.0
  9
$DIMGAP
 40
0.09
  9
$DIMJUST
 70
     0
  9
$DIMSD1
 70
     0
  9
$DIMSD2
 70
     0
  9
$DIMTOLJ
 70
     1
  9
$DIMTZIN
 70
     0
  9
$DIMALTZ
 70
     0
  9
$DIMALTTZ
 70
     0
  9
$DIMUPT
 70
     0
  9
$DIMDEC
 70
     2
  9
$DIMTDEC
 70
     4
  9
$DIMALTU
 70
     2
  9
$DIMALTTD
 70
     2
  9
$DIMTXSTY
  7
Standard
  9
$DIMAUNIT
 70
     0
  9
$DIMADEC
 70
     2
  9
$DIMALTRND
 40
0.0
  9
$DIMAZIN
 70
     0
  9
$DIMDSEP
 70
    46
  9
$DIMATFIT
 70
     3
  9
$DIMFRAC
 70
     0
  9
$DIMLDRBLK
  1

  9
$DIMLUNIT
 70
     2
  9
$DIMLWD
 70
    -2
  9
$DIMLWE
 70
    -2
  9
$DIMTMOVE
 70
     0
  9
$DIMFXL
 40
1.0
  9
$DIMFXLON
 70
     0
  9
$DIMJOGANG
 40
0.7853981633974483
  9
$DIMTFILL
 70
     0
  9
$DIMTFILLCLR
 70
     0
  9
$DIMARCSYM
 70
     0
  9
$DIMLTYPE
  6

  9
$DIMLTEX1
  6

  9
$DIMLTEX2
  6

  9
$LUNITS
 70
     2
  9
$LUPREC
 70
     4
  9
$SKETCHINC
 40
0.1
  9
$FILLETRAD
 40
0.5
  9
$AUNITS
 70
     0
  9
$AUPREC
 70
     0
  9
$MENU
  1
.
  9
$ELEVATION
 40
0.0
  9
$PELEVATION
 40
0.0
  9
$THICKNESS
 40
0.0
  9
$LIMCHECK
 70
     0
  9
$CHAMFERA
 40
0.5
  9
$CHAMFERB
 40
0.5
  9
$CHAMFERC
 40
1.0
  9
$CHAMFERD
 40
0.0
  9
$SKPOLY
 70
     0
  9
$TDCREATE
 40
2459545.43262728
  9
$TDUCREATE
 40
2459545.05762728
  9
$TDUPDATE
 40
2459545.432627292
  9
$TDUUPDATE
 40
2459545.057627292
  9
$TDINDWG
 40
0.0000000116
  9
$TDUSRTIMER
 40
0.0000000116
  9
$USRTIMER
 70
     1
  9
$ANGBASE
 50
0.0
  9
$ANGDIR
 70
     0
  9
$PDMODE
 70
     0
  9
$PDSIZE
 40
0.0
  9
$PLINEWID
 40
0.0
  9
$SPLFRAME
 70
     0
  9
$SPLINETYPE
 70
     6
  9
$SPLINESEGS
 70
     8
  9
$HANDSEED
  5
114
  9
$SURFTAB1
 70
     6
  9
$SURFTAB2
 70
     6
  9
$SURFTYPE
 70
     6
  9
$SURFU
 70
     6
  9
$SURFV
 70
     6
  9
$UCSBASE
  2

  9
$UCSNAME
  2

  9
$UCSORG
 10
0.0
 20
0.0
 30
0.0
  9
$UCSXDIR
 10
1.0
 20
0.0
 30
0.0
  9
$UCSYDIR
 10
0.0
 20
1.0
 30
0.0
  9
$UCSORTHOREF
  2

  9
$UCSORTHOVIEW
 70
     0
  9
$UCSORGTOP
 10
0.0
 20
0.0
 30
0.0
  9
$UCSORGBOTTOM
 10
0.0
 20
0.0
 30
0.0
  9
$UCSORGLEFT
 10
0.0
 20
0.0
 30
0.0
  9
$UCSORGRIGHT
 10
0.0
 20
0.0
 30
0.0
  9
$UCSORGFRONT
 10
0.0
 20
0.0
 30
0.0
  9
$UCSORGBACK
 10
0.0
 20
0.0
 30
0.0
  9
$PUCSBASE
  2

  9
$PUCSNAME
  2

  9
$PUCSORG
 10
0.0
 20
0.0
 30
0.0
  9
$PUCSXDIR
 10
1.0
 20
0.0
 30
0.0
  9
$PUCSYDIR
 10
0.0
 20
1.0
 30
0.0
  9
$PUCSORTHOREF
  2

  9
$PUCSORTHOVIEW
 70
     0
  9
$PUCSORGTOP
 10
0.0
 20
0.0
 30
0.0
  9
$PUCSORGBOTTOM
 10
0.0
 20
0.0
 30
0.0
  9
$PUCSORGLEFT
 10
0.0
 20
0.0
 30
0.0
  9
$PUCSORGRIGHT
 10
0.0
 20
0.0
 30
0.0
  9
$PUCSORGFRONT
 10
0.0
 20
0.0
 30
0.0
  9
$PUCSORGBACK
 10
0.0
 20
0.0
 30
0.0
  9
$USERI1
 70
     0
  9
$USERI2
 70
     0
  9
$USERI3
 70
     0
  9
$USERI4
 70
     0
  9
$USERI5
 70
     0
  9
$USERR1
 40
0.0
  9
$USERR2
 40
0.0
  9
$USERR3
 40
0.0
  9
$USERR4
 40
0.0
  9
$USERR5
 40
0.0
  9
$WORLDVIEW
 70
     1
  9
$SHADEDGE
 70
     3
  9
$SHADEDIF
 70
    70
  9
$TILEMODE
 70
     1
  9
$MAXACTVP
 70
    64
  9
$PINSBASE
 10
0.0
 20
0.0
 30
0.0
  9
$PLIMCHECK
 70
     0
  9
$PEXTMIN
 10
1.000000000000000E+20
 20
1.000000000000000E+20
 30
1.000000000000000E+20
  9
$PEXTMAX
 10
-1.000000000000000E+20
 20
-1.000000000000000E+20
 30
-1.000000000000000E+20
  9
$PLIMMIN
 10
0.0
 20
0.0
  9
$PLIMMAX
 10
12.0
 20
9.0
  9
$UNITMODE
 70
     0
  9
$VISRETAIN
 70
     1
  9
$PLINEGEN
 70
     0
  9
$PSLTSCALE
 70
     1
  9
$TREEDEPTH
 70
  3020
  9
$CMLSTYLE
  2
Standard
  9
$CMLJUST
 70
     0
  9
$CMLSCALE
 40
1.0
  9
$PROXYGRAPHICS
 70
     1
  9
$MEASUREMENT
 70
     1
  9
$CELWEIGHT
370
    -1
  9
$ENDCAPS
280
     0
  9
$JOINSTYLE
280
     0
  9
$LWDISPLAY
290
     1
  9
$INSUNITS
 70
     4
  9
$HYPERLINKBASE
  1

  9
$STYLESHEET
  1

  9
$XEDIT
290
     1
  9
$CEPSNTYPE
380
     0
  9
$PSTYLEMODE
290
     1
  9
$FINGERPRINTGUID
  2
{55E16E32-53F4-4421-AD8D-DD3395C02C0A}
  9
$VERSIONGUID
  2
{FAEB1C32-E019-11D5-929B-00C0DF256EC4}
  9
$EXTNAMES
290
     1
  9
$PSVPSCALE
 40
0.0
  9
$OLESTARTUP
290
     0
  9
$SORTENTS
280
   127
  9
$INDEXCTL
280
     0
  9
$HIDETEXT
280
     1
  9
$XCLIPFRAME
290
     0
  9
$HALOGAP
280
     0
  9
$OBSCOLOR
 70
   257
  9
$OBSLTYPE
280
     0
  9
$INTERSECTIONDISPLAY
280
     0
  9
$INTERSECTIONCOLOR
 70
   257
  9
$DIMASSOC
280
     2
  9
$PROJECTNAME
  1

  9
$CAMERADISPLAY
290
     0
  9
$LENSLENGTH
 40
50.0
  9
$CAMERAHEIGHT
 40
0.0
  9
$STEPSPERSEC
 40
2.0
  9
$STEPSIZE
 40
6.0
  9
$3DDWFPREC
 40
2.0
  9
$PSOLWIDTH
 40
0.25
  9
$PSOLHEIGHT
 40
4.0
  9
$LOFTANG1
 40
1.570796326794897
  9
$LOFTANG2
 40
1.570796326794897
  9
$LOFTMAG1
 40
0.0
  9
$LOFTMAG2
 40
0.0
  9
$LOFTPARAM
 70
     7
  9
$LOFTNORMALS
280
     1
  9
$LATITUDE
 40
37.795
  9
$LONGITUDE
 40
-122.394
  9
$NORTHDIRECTION
 40
0.0
  9
$TIMEZONE
 70
 -8000
  9
$LIGHTGLYPHDISPLAY
280
     1
  9
$TILEMODELIGHTSYNCH
280
     1
  9
$SOLIDHIST
280
     1
  9
$SHOWHIST
280
     1
  9
$DWFFRAME
280
     2
  9
$DGNFRAME
280
     2
  9
$REALWORLDSCALE
290
     1
  9
$INTERFERECOLOR
 62
   256
  9
$CSHADOW
280
     0
  9
$SHADOWPLANELOCATION
 40
0.0
  0
ENDSEC
  0
SECTION
  2
CLASSES
  0
CLASS
  1
ACDBDICTIONARYWDFLT
  2
AcDbDictionaryWithDefault
  3
ObjectDBX Classes
 90
        0
 91
        4
280
     0
281
     0
  0
CLASS
  1
VISUALSTYLE
  2
AcDbVisualStyle
  3
ObjectDBX Classes
 90
     4095
 91
        4
280
     0
281
     0
  0
ENDSEC
  0
SECTION
  2
TABLES
  0
TABLE
  2
VPORT
  5
8
330
0
100
AcDbSymbolTable
 70
     1
  0
VPORT
  5
29
330
8
100
AcDbSymbolTableRecord
100
AcDbViewportTableRecord
  2
*Active
 70
     0
 10
0.0
 20
0.0
 11
1.0
 21
1.0
 12
187.4166666666667
 22
-104.8734848484849
 13
0.0
 23
0.0
 14
0.5
 24
0.5
 15
0.5
 25
0.5
 16
0.0
 26
0.0
 36
1.0
 17
0.0
 27
0.0
 37
0.0
 40
229.7469696969697
 41
1.6
 42
50.0
 43
0.0
 44
0.0
 50
0.0
 51
0.0
 71
     0
 72
   100
 73
     1
 74
     3
 75
     0
 76
     0
 77
     0
 78
     0
281
     0
 65
     1
110
0.0
120
0.0
130
0.0
111
1.0
121
0.0
131
0.0
112
0.0
122
1.0
132
0.0
 79
     0
146
0.0
 60
     3
 61
     5
292
     1
282
     1
141
0.0
142
0.0
 63
   250
  0
ENDTAB
  0
TABLE
  2
LTYPE
  5
5
330
0
100
AcDbSymbolTable
 70
     3
  0
LTYPE
  5
14
330
5
100
AcDbSymbolTableRecord
100
AcDbLinetypeTableRecord
  2
ByBlock
 70
     0
  3

 72
    65
 73
     0
 40
0.0
  0
LTYPE
  5
15
330
5
100
AcDbSymbolTableRecord
100
AcDbLinetypeTableRecord
  2
ByLayer
 70
     0
  3

 72
    65
 73
     0
 40
0.0
  0
LTYPE
  5
16
330
5
100
AcDbSymbolTableRecord
100
AcDbLinetypeTableRecord
  2
Continuous
 70
     0
  3
Solid line
 72
    65
 73
     0
 40
0.0
  0
LTYPE
  5
3D
330
5
100
AcDbSymbolTableRecord
100
AcDbLinetypeTableRecord
  2
________________
 70
     0
  3

 72
    65
 73
     0
 40
0.0
  0
LTYPE
  5
10E
330
5
100
AcDbSymbolTableRecord
100
AcDbLinetypeTableRecord
  2
______....__....
 70
     0
  3

 72
    65
 73
     4
 40
6.0
 49
2.25
 74
     0
 49
-1.5
 74
     0
 49
0.7499999999999999
 74
     0
 49
-1.5
 74
     0
  0
ENDTAB
  0
TABLE
  2
LAYER
  5
2
330
0
100
AcDbSymbolTable
 70
     2
  0
LAYER
  5
10
330
2
100
AcDbSymbolTableRecord
100
AcDbLayerTableRecord
  2
0
 70
     0
 62
     7
  6
Continuous
370
    -3
390
F
347
0
  0
LAYER
  5
3B
330
2
100
AcDbSymbolTableRecord
100
AcDbLayerTableRecord
  2
1
 70
     0
 62
     7
  6
Continuous
370
    -3
390
F
347
0
  0
ENDTAB
  0
TABLE
  2
STYLE
  5
3
330
0
100
AcDbSymbolTable
 70
     1
  0
STYLE
  5
11
330
3
100
AcDbSymbolTableRecord
100
AcDbTextStyleTableRecord
  2
Standard
 70
     0
 40
0.0
 41
1.0
 50
0.0
 71
     0
 42
0.2
  3
txt
  4

  0
ENDTAB
  0
TABLE
  2
VIEW
  5
6
330
0
100
AcDbSymbolTable
 70
     0
  0
ENDTAB
  0
TABLE
  2
UCS
  5
7
330
0
100
AcDbSymbolTable
 70
     0
  0
ENDTAB
  0
TABLE
  2
APPID
  5
9
330
0
100
AcDbSymbolTable
 70
     1
  0
APPID
  5
12
330
9
100
AcDbSymbolTableRecord
100
AcDbRegAppTableRecord
  2
ACAD
 70
     0
  0
ENDTAB
  0
TABLE
  2
DIMSTYLE
  5
A
330
0
100
AcDbSymbolTable
 70
     1
100
AcDbDimStyleTable
  0
DIMSTYLE
105
27
330
A
100
AcDbSymbolTableRecord
100
AcDbDimStyleTableRecord
  2
Standard
 70
     0
340
11
  0
ENDTAB
  0
TABLE
  2
BLOCK_RECORD
  5
1
330
0
100
AcDbSymbolTable
 70
     1
  0
BLOCK_RECORD
  5
1F
330
1
100
AcDbSymbolTableRecord
100
AcDbBlockTableRecord
  2
*Model_Space
340
22
 70
     0
280
     1
281
     0
  0
BLOCK_RECORD
  5
1B
330
1
100
AcDbSymbolTableRecord
100
AcDbBlockTableRecord
  2
*Paper_Space
340
1E
 70
     0
280
     1
281
     0
  0
BLOCK_RECORD
  5
23
330
1
100
AcDbSymbolTableRecord
100
AcDbBlockTableRecord
  2
*Paper_Space0
340
26
 70
     0
280
     1
281
     0
  0
ENDTAB
  0
ENDSEC
  0
SECTION
  2
BLOCKS
  0
BLOCK
  5
20
330
1F
100
AcDbEntity
  8
0
100
AcDbBlockBegin
  2
*Model_Space
 70
     0
 10
0.0
 20
0.0
 30
0.0
  3
*Model_Space
  1

  0
ENDBLK
  5
21
330
1F
100
AcDbEntity
  8
0
100
AcDbBlockEnd
  0
BLOCK
  5
1C
330
1B
100
AcDbEntity
 67
     1
  8
0
100
AcDbBlockBegin
  2
*Paper_Space
 70
     0
 10
0.0
 20
0.0
 30
0.0
  3
*Paper_Space
  1

  0
ENDBLK
  5
1D
330
1B
100
AcDbEntity
 67
     1
  8
0
100
AcDbBlockEnd
  0
BLOCK
  5
24
330
23
100
AcDbEntity
  8
0
100
AcDbBlockBegin
  2
*Paper_Space0
 70
     0
 10
0.0
 20
0.0
 30
0.0
  3
*Paper_Space0
  1

  0
ENDBLK
  5
25
330
23
100
AcDbEntity
  8
0
100
AcDbBlockEnd
  0
ENDSEC
  0
SECTION
  2
ENTITIES
  0
ARC
  5
3C
330
1F
100
AcDbEntity
  8
1
  6
________________
 62
     7
370
     0
100
AcDbCircle
 10
233.2768693507795
 20
-142.5
 30
0.0
 40
13.9225
100
AcDbArc
 50
99.9288663620202
 51
180.0
  0
LINE
  5
3E
330
1F
100
AcDbEntity
  8
1
  6
________________
 62
     7
370
     0
100
AcDbLine
 10
219.3543693507796
 20
-142.5
 30
0.0
 11
217.7218173466448
 21
-142.5
 31
0.0
  0
ARC
  5
3F
330
1F
100
AcDbEntity
  8
1
  6
________________
 62
     7
370
     0
100
AcDbCircle
 10
-237.1301496381701
 20
-141.7015922607775
 30
0.0
 40
19.42474754678456
210
0.0
220
0.0
230
-1.0
100
AcDbArc
 50
357.6443305611809
 51
23.62701453103381
  0
LINE
  5
40
330
1F
100
AcDbEntity
  8
1
  6
________________
 62
     7
370
     0
100
AcDbLine
 10
219.3337035794014
 20
-133.9165216166761
 30
0.0
 11
219.3543693507791
 21
-133.7740696353124
 31
0.0
  0
ARC
  5
41
330
1F
100
AcDbEntity
  8
1
  6
________________
 62
     7
370
     0
100
AcDbCircle
 10
233.2768693507795
 20
-142.5
 30
0.0
 40
13.9225
100
AcDbArc
 50
180.0
 51
260.0711336379799
  0
LINE
  5
42
330
1F
100
AcDbEntity
  8
1
  6
________________
 62
     7
370
     0
100
AcDbLine
 10
219.3543693507796
 20
-151.2259303646875
 30
0.0
 11
219.3328070495976
 21
-151.0787969295425
 31
0.0
  0
ARC
  5
43
330
1F
100
AcDbEntity
  8
1
  6
________________
 62
     7
370
     0
100
AcDbCircle
 10
-237.1136619424801
 20
-143.2991167504984
 30
0.0
 40
19.40830297604495
210
0.0
220
0.0
230
-1.0
100
AcDbArc
 50
336.3691180625562
 51
2.359761380494206
  0
LINE
  5
44
330
1F
100
AcDbEntity
  8
1
  6
________________
 62
     7
370
     0
100
AcDbLine
 10
207.3543693507796
 20
-142.5
 30
0.0
 11
207.3543693507796
 21
-130.1094607791386
 31
0.0
  0
LINE
  5
45
330
1F
100
AcDbEntity
  8
1
  6
________________
 62
     7
370
     0
100
AcDbLine
 10
219.0000870472142
 20
-129.9061840206116
 30
0.0
 11
207.3543693507796
 21
-130.1094607791386
 31
0.0
  0
LINE
  5
46
330
1F
100
AcDbEntity
  8
1
  6
________________
 62
     7
370
     0
100
AcDbLine
 10
219.354369350779
 20
-129.8824889552421
 30
0.0
 11
219.0000870472142
 21
-129.9061840206116
 31
0.0
  0
LINE
  5
47
330
1F
100
AcDbEntity
  8
1
  6
________________
 62
     7
370
     0
100
AcDbLine
 10
219.3543693507796
 20
-133.7740696353125
 30
0.0
 11
219.3543693507796
 21
-129.8824889552421
 31
0.0
  0
LINE
  5
48
330
1F
100
AcDbEntity
  8
1
  6
________________
 62
     7
370
     0
100
AcDbLine
 10
217.7218173466448
 20
-142.5
 30
0.0
 11
207.3543693507795
 21
-142.5
 31
0.0
  0
LINE
  5
49
330
1F
100
AcDbEntity
  8
1
  6
________________
 62
     7
370
     0
100
AcDbLine
 10
219.0000870472142
 20
-155.0938159793884
 30
0.0
 11
219.3543693507785
 21
-155.1175110447579
 31
0.0
  0
LINE
  5
4A
330
1F
100
AcDbEntity
  8
1
  6
________________
 62
     7
370
     0
100
AcDbLine
 10
219.0000870472142
 20
-155.0938159793884
 30
0.0
 11
207.3543693507796
 21
-154.8905392208614
 31
0.0
  0
LINE
  5
4B
330
1F
100
AcDbEntity
  8
1
  6
________________
 62
     7
370
     0
100
AcDbLine
 10
207.3543693507796
 20
-154.8905392208614
 30
0.0
 11
207.3543693507796
 21
-142.5
 31
0.0
  0
LINE
  5
4C
330
1F
100
AcDbEntity
  8
1
  6
________________
 62
     7
370
     0
100
AcDbLine
 10
219.3543693507796
 20
-155.1175110447579
 30
0.0
 11
219.3543693507796
 21
-151.2259303646875
 31
0.0
  0
ARC
  5
4D
330
1F
100
AcDbEntity
  8
1
  6
________________
 62
     7
370
     0
100
AcDbCircle
 10
-218.7113258485989
 20
-159.6358088573693
 30
0.0
 40
4.563827348744054
210
0.0
220
0.0
230
-1.0
100
AcDbArc
 50
98.09993160454047
 51
130.0114016487714
  0
ARC
  5
4E
330
1F
100
AcDbEntity
  8
1
  6
________________
 62
     7
370
     0
100
AcDbCircle
 10
-218.7103208107166
 20
-125.3619396801305
 30
0.0
 40
4.56619801045341
210
0.0
220
0.0
230
-1.0
100
AcDbArc
 50
229.9971030084904
 51
261.8915637381908
  0
ARC
  5
4F
330
1F
100
AcDbEntity
  8
1
  6
________________
 62
     7
370
     0
100
AcDbCircle
 10
218.1465152478497
 20
-157.0792214842974
 30
0.0
 40
2.000000000000002
100
AcDbArc
 50
28.21129889989119
 51
88.99999999999994
  0
ARC
  5
50
330
1F
100
AcDbEntity
  8
1
  6
________________
 62
     7
370
     0
100
AcDbCircle
 10
218.1465152478497
 20
-127.9207785157027
 30
0.0
 40
2.000000000000002
100
AcDbArc
 50
270.9999999999999
 51
331.7887011001086
  0
LINE
  5
51
330
1F
100
AcDbEntity
  8
1
  6
________________
 62
     7
370
     0
100
AcDbLine
 10
222.0622648675114
 20
-160.1478132961006
 30
0.0
 11
219.9089357408462
 21
-156.1337723815605
 31
0.0
  0
LINE
  5
52
330
1F
100
AcDbEntity
  8
1
  6
________________
 62
     7
370
     0
100
AcDbLine
 10
219.9089357408462
 20
-128.8662276184395
 30
0.0
 11
222.0622648675114
 21
-124.8521867038994
 31
0.0
  0
LINE
  5
53
330
1F
100
AcDbEntity
  8
1
  6
________________
 62
     7
370
     0
100
AcDbLine
 10
236.6938076485841
 20
-127.7676809686529
 30
0.0
 11
230.8762768671003
 21
-128.7860231159119
 31
0.0
  0
LINE
  5
54
330
1F
100
AcDbEntity
  8
1
  6
________________
 62
     7
370
     0
100
AcDbLine
 10
230.8762768671003
 20
-156.2139768840881
 30
0.0
 11
236.6938076485841
 21
-157.2323190313471
 31
0.0
  0
LINE
  5
55
330
1F
100
AcDbEntity
  8
1
  6
________________
 62
     7
370
     0
100
AcDbLine
 10
236.693807648584
 20
-127.7676809686529
 30
0.0
 11
239.0786232446055
 21
-127.350225810083
 31
0.0
  0
LINE
  5
56
330
1F
100
AcDbEntity
  8
1
  6
________________
 62
     7
370
     0
100
AcDbLine
 10
239.0786232446055
 20
-157.649774189917
 30
0.0
 11
236.693807648584
 21
-157.2323190313471
 31
0.0
  0
ARC
  5
57
330
1F
100
AcDbEntity
  8
1
  6
________________
 62
     7
370
     0
100
AcDbCircle
 10
-237.3543693507796
 20
-117.5
 30
0.0
 40
10.00000000000001
210
0.0
220
0.0
230
-1.0
100
AcDbArc
 50
212.3677211014583
 51
260.0711336379798
  0
ARC
  5
58
330
1F
100
AcDbEntity
  8
1
  6
________________
 62
     7
370
     0
100
AcDbCircle
 10
-237.3543693507796
 20
-167.5
 30
0.0
 40
10.00000000000001
210
0.0
220
0.0
230
-1.0
100
AcDbArc
 50
99.92886636202023
 51
147.6322788985417
  0
LINE
  5
59
330
1F
100
AcDbEntity
  8
1
  6
________________
 62
     7
370
     0
100
AcDbLine
 10
224.21601595718
 20
-120.8373592041879
 30
0.0
 11
222.0622648675114
 21
-124.8521867038994
 31
0.0
  0
LINE
  5
5A
330
1F
100
AcDbEntity
  8
1
  6
________________
 62
     7
370
     0
100
AcDbLine
 10
222.0622648675114
 20
-160.1478132961006
 30
0.0
 11
224.21601595718
 21
-164.1626407958121
 31
0.0
  0
ARC
  5
5B
330
1F
100
AcDbEntity
  8
1
  6
________________
 62
     7
370
     0
100
AcDbCircle
 10
-237.3543693507796
 20
-117.5
 30
0.0
 40
9.99999999999998
210
0.0
220
0.0
230
-1.0
100
AcDbArc
 50
180.0
 51
212.3677211014583
  0
ARC
  5
5C
330
1F
100
AcDbEntity
  8
1
  6
________________
 62
     7
370
     0
100
AcDbCircle
 10
-237.3543693507796
 20
-167.5
 30
0.0
 40
9.999999999999925
210
0.0
220
0.0
230
-1.0
100
AcDbArc
 50
147.6322788985416
 51
180.0
  0
ARC
  5
5D
330
1F
100
AcDbEntity
  8
1
  6
________________
 62
     7
370
     0
100
AcDbCircle
 10
-237.3544843939875
 20
-117.5001922662128
 30
0.0
 40
10.00019226687449
210
0.0
220
0.0
230
-1.0
100
AcDbArc
 50
28.2119580362456
 51
89.99934086364553
  0
ARC
  5
5E
330
1F
100
AcDbEntity
  8
1
  6
________________
 62
     7
370
     0
100
AcDbCircle
 10
-237.3544981199759
 20
-167.499784794199
 30
0.0
 40
10.00021520663005
210
0.0
220
0.0
230
-1.0
100
AcDbArc
 50
270.0007377772707
 51
331.7879633228379
  0
ARC
  5
5F
330
1F
100
AcDbEntity
  8
1
  6
________________
 62
     7
370
     0
100
AcDbCircle
 10
-243.3543379854207
 20
-111.5000313653589
 30
0.0
 40
4.000031365481882
210
0.0
220
0.0
230
-1.0
100
AcDbArc
 50
90.00044927214908
 51
179.9995507278508
  0
ARC
  5
60
330
1F
100
AcDbEntity
  8
1
  6
________________
 62
     7
370
     0
100
AcDbCircle
 10
-243.354334243547
 20
-173.4999648927674
 30
0.0
 40
4.00003510738664
210
0.0
220
0.0
230
-1.0
100
AcDbArc
 50
180.0005028696508
 51
269.9994971303491
  0
LINE
  5
61
330
1F
100
AcDbEntity
  8
1
  6
________________
 62
     7
370
     0
100
AcDbLine
 10
228.5422668857971
 20
-112.7727544863157
 30
0.0
 11
224.21601595718
 21
-120.837359204188
 31
0.0
  0
LINE
  5
62
330
1F
100
AcDbEntity
  8
1
  6
________________
 62
     7
370
     0
100
AcDbLine
 10
224.21601595718
 20
-164.1626407958121
 30
0.0
 11
228.5422668857971
 21
-172.2272455136844
 31
0.0
  0
LINE
  5
63
330
1F
100
AcDbEntity
  8
1
  6
________________
 62
     7
370
     0
100
AcDbLine
 10
237.3543693507796
 20
-107.5
 30
0.0
 11
243.3543693507795
 21
-107.5
 31
0.0
  0
LINE
  5
64
330
1F
100
AcDbEntity
  8
1
  6
________________
 62
     7
370
     0
100
AcDbLine
 10
243.3543693507796
 20
-177.5
 30
0.0
 11
237.3543693507796
 21
-177.5
 31
0.0
  0
LINE
  5
65
330
1F
100
AcDbEntity
  8
1
  6
________________
 62
     7
370
     0
100
AcDbLine
 10
247.3543693507796
 20
-117.5
 30
0.0
 11
247.3543693507796
 21
-111.5
 31
0.0
  0
LINE
  5
66
330
1F
100
AcDbEntity
  8
1
  6
________________
 62
     7
370
     0
100
AcDbLine
 10
247.3543693507796
 20
-173.4999999999999
 30
0.0
 11
247.3543693507796
 21
-167.5
 31
0.0
  0
LINE
  5
67
330
1F
100
AcDbEntity
  8
1
  6
________________
 62
     7
370
     0
100
AcDbLine
 10
198.3556306492204
 20
-189.5
 30
0.0
 11
198.3556306492204
 21
-95.5
 31
0.0
  0
LINE
  5
68
330
1F
100
AcDbEntity
  8
1
  6
________________
 62
     7
370
     0
100
AcDbLine
 10
205.3556306492204
 20
-98.57027724384464
 30
0.0
 11
205.3556306492204
 21
-186.4297227561554
 31
0.0
  0
LINE
  5
69
330
1F
100
AcDbEntity
  8
1
  6
________________
 62
     7
370
     0
100
AcDbLine
 10
207.3556306492204
 20
-132.5
 30
0.0
 11
207.3556306492204
 21
-152.5
 31
0.0
  0
LINE
  5
6A
330
1F
100
AcDbEntity
  8
1
  6
________________
 62
     7
370
     0
100
AcDbLine
 10
219.61
 20
-145.1556898159843
 30
0.0
 11
219.61
 21
-139.8443101840157
 31
0.0
  0
LINE
  5
6B
330
1F
100
AcDbEntity
  8
1
  6
________________
 62
     7
370
     0
100
AcDbLine
 10
148.3556306492204
 20
-180.5
 30
0.0
 11
148.3556306492204
 21
-104.5
 31
0.0
  0
LINE
  5
6C
330
1F
100
AcDbEntity
  8
1
  6
________________
 62
     7
370
     0
100
AcDbLine
 10
142.3556306492204
 20
-177.4471778210836
 30
0.0
 11
142.3556306492204
 21
-107.5528221789164
 31
0.0
  0
LINE
  5
6D
330
1F
100
AcDbEntity
  8
1
  6
________________
 62
     7
370
     0
100
AcDbLine
 10
142.3556306492204
 20
-116.5
 30
0.0
 11
137.268368617034
 21
-116.4112015109213
 31
0.0
  0
LINE
  5
6E
330
1F
100
AcDbEntity
  8
1
  6
________________
 62
     7
370
     0
100
AcDbLine
 10
142.3556306492204
 20
-112.5
 30
0.0
 11
137.268368617034
 21
-112.5887984890787
 31
0.0
  0
LINE
  5
6F
330
1F
100
AcDbEntity
  8
1
  6
________________
 62
     7
370
     0
100
AcDbLine
 10
132.3556306492204
 20
-116.3254493507178
 30
0.0
 11
132.3556306492204
 21
-112.6745506492822
 31
0.0
  0
LINE
  5
70
330
1F
100
AcDbEntity
  8
1
  6
________________
 62
     7
370
     0
100
AcDbLine
 10
137.268368617034
 20
-116.4112015109213
 30
0.0
 11
132.3556306492204
 21
-116.3254493507178
 31
0.0
  0
LINE
  5
71
330
1F
100
AcDbEntity
  8
1
  6
________________
 62
     7
370
     0
100
AcDbLine
 10
132.3556306492204
 20
-112.6745506492822
 30
0.0
 11
137.268368617034
 21
-112.5887984890787
 31
0.0
  0
LINE
  5
72
330
1F
100
AcDbEntity
  8
1
  6
________________
 62
     7
370
     0
100
AcDbLine
 10
198.3556306492204
 20
-189.5
 30
0.0
 11
202.4079878685323
 21
-189.4292658416246
 31
0.0
  0
LINE
  5
73
330
1F
100
AcDbEntity
  8
1
  6
________________
 62
     7
370
     0
100
AcDbLine
 10
202.4079878685323
 20
-95.57073415837544
 30
0.0
 11
198.3556306492204
 21
-95.50000000000003
 31
0.0
  0
ARC
  5
74
330
1F
100
AcDbEntity
  8
1
  6
________________
 62
     7
370
     0
100
AcDbCircle
 10
202.3556306492204
 20
-186.4297227561554
 30
0.0
 40
3.0
100
AcDbArc
 50
271.0
 51
0.0
  0
ARC
  5
75
330
1F
100
AcDbEntity
  8
1
  6
________________
 62
     7
370
     0
100
AcDbCircle
 10
202.3556306492204
 20
-98.5702772438446
 30
0.0
 40
2.999999999999999
100
AcDbArc
 50
0.0
 51
89.00000000000001
  0
LINE
  5
76
330
1F
100
AcDbEntity
  8
1
  6
________________
 62
     7
370
     0
100
AcDbLine
 10
205.3556306492204
 20
-152.5
 30
0.0
 11
207.3556306492204
 21
-152.5
 31
0.0
  0
LINE
  5
77
330
1F
100
AcDbEntity
  8
1
  6
________________
 62
     7
370
     0
100
AcDbLine
 10
207.3556306492204
 20
-132.5
 30
0.0
 11
205.3556306492204
 21
-132.5
 31
0.0
  0
LINE
  5
78
330
1F
100
AcDbEntity
  8
1
  6
________________
 62
     7
370
     0
100
AcDbLine
 10
198.3556306492204
 20
-104.5
 30
0.0
 11
148.3556306492204
 21
-104.5
 31
0.0
  0
LINE
  5
79
330
1F
100
AcDbEntity
  8
1
  6
________________
 62
     7
370
     0
100
AcDbLine
 10
148.3556306492204
 20
-180.5
 30
0.0
 11
198.3556306492204
 21
-180.5
 31
0.0
  0
LINE
  5
7A
330
1F
100
AcDbEntity
  8
1
  6
________________
 62
     7
370
     0
100
AcDbLine
 10
148.3556306492204
 20
-104.5
 30
0.0
 11
145.3032734299086
 21
-104.5532790934472
 31
0.0
  0
LINE
  5
7B
330
1F
100
AcDbEntity
  8
1
  6
________________
 62
     7
370
     0
100
AcDbLine
 10
145.3032734299086
 20
-180.4467209065528
 30
0.0
 11
148.3556306492204
 21
-180.5
 31
0.0
  0
ARC
  5
7C
330
1F
100
AcDbEntity
  8
1
  6
________________
 62
     7
370
     0
100
AcDbCircle
 10
145.3556306492204
 20
-177.4471778210836
 30
0.0
 40
3.000000000000003
100
AcDbArc
 50
180.0
 51
268.9999999999998
  0
ARC
  5
7D
330
1F
100
AcDbEntity
  8
1
  6
________________
 62
     7
370
     0
100
AcDbCircle
 10
145.3556306492204
 20
-107.5528221789164
 30
0.0
 40
3.000000000000007
100
AcDbArc
 50
90.99999999999996
 51
179.9999999999999
  0
CIRCLE
  5
7E
330
1F
100
AcDbEntity
  8
1
  6
________________
 62
     9
420
 12632256
370
     0
100
AcDbCircle
 10
325.8333333333334
 20
-142.5
 30
0.0
 40
5.000000000000004
  0
ARC
  5
7F
330
1F
100
AcDbEntity
  8
1
  6
________________
 62
     7
370
     0
100
AcDbCircle
 10
286.8130369558482
 20
-169.5689110867545
 30
0.0
 40
36.39496704345515
100
AcDbArc
 50
354.1234436683665
 51
3.088876559677544
  0
LINE
  5
80
330
1F
100
AcDbEntity
  8
1
  6
________________
 62
     7
370
     0
100
AcDbLine
 10
328.6499257387433
 20
-173.2952289471276
 30
0.0
 11
328.8955263739476
 21
-175.1910486259029
 31
0.0
  0
ARC
  5
81
330
1F
100
AcDbEntity
  8
1
  6
________________
 62
     7
370
     0
100
AcDbCircle
 10
326.9195331936851
 20
-175.5
 30
0.0
 40
2.000000000000002
100
AcDbArc
 50
269.9999999999998
 51
8.886389096351479
  0
ARC
  5
82
330
1F
100
AcDbEntity
  8
1
  6
________________
 62
     7
370
     0
100
AcDbCircle
 10
286.8130369558569
 20
-169.5689110867539
 30
0.0
 40
36.39496704344651
100
AcDbArc
 50
3.088876559677322
 51
9.522275464604848
  0
ARC
  5
83
330
1F
100
AcDbEntity
  8
1
  6
________________
 62
     7
370
     0
100
AcDbCircle
 10
364.8536297108184
 20
-169.5689110867545
 30
0.0
 40
36.39496704345518
100
AcDbArc
 50
176.9111234403226
 51
185.8765563316336
  0
LINE
  5
84
330
1F
100
AcDbEntity
  8
1
  6
________________
 62
     7
370
     0
100
AcDbLine
 10
323.0167409279234
 20
-111.7047710528725
 30
0.0
 11
322.7711402927191
 21
-109.8089513740972
 31
0.0
  0
ARC
  5
85
330
1F
100
AcDbEntity
  8
1
  6
________________
 62
     7
370
     0
100
AcDbCircle
 10
324.7471334729815
 20
-109.5
 30
0.0
 40
2.000000000000002
100
AcDbArc
 50
90.0000000000003
 51
188.8863890963515
  0
LINE
  5
86
330
1F
100
AcDbEntity
  8
1
  6
________________
 62
     7
370
     0
100
AcDbLine
 10
322.7711402927192
 20
-175.1910486259029
 30
0.0
 11
323.0167409279234
 21
-173.2952289471276
 31
0.0
  0
ARC
  5
87
330
1F
100
AcDbEntity
  8
1
  6
________________
 62
     7
370
     0
100
AcDbCircle
 10
324.7471334729815
 20
-175.5
 30
0.0
 40
1.999999999999973
100
AcDbArc
 50
171.1136109036497
 51
269.9999999999998
  0
ARC
  5
88
330
1F
100
AcDbEntity
  8
1
  6
________________
 62
     7
370
     0
100
AcDbCircle
 10
286.8130369558482
 20
-115.4310889132455
 30
0.0
 40
36.39496704345518
100
AcDbArc
 50
356.9111234403226
 51
5.876556331633594
  0
LINE
  5
89
330
1F
100
AcDbEntity
  8
1
  6
________________
 62
     7
370
     0
100
AcDbLine
 10
326.9195331936851
 20
-177.5
 30
0.0
 11
324.7471334729815
 21
-177.5
 31
0.0
  0
LINE
  5
8A
330
1F
100
AcDbEntity
  8
1
  6
________________
 62
     7
370
     0
100
AcDbLine
 10
328.8955263739476
 20
-109.8089513740972
 30
0.0
 11
328.6499257387433
 21
-111.7047710528725
 31
0.0
  0
ARC
  5
8B
330
1F
100
AcDbEntity
  8
1
  6
________________
 62
     7
370
     0
100
AcDbCircle
 10
326.9195331936851
 20
-109.5
 30
0.0
 40
1.999999999999987
100
AcDbArc
 50
351.1136109036468
 51
90.00000000000021
  0
LINE
  5
8C
330
1F
100
AcDbEntity
  8
1
  6
________________
 62
     7
370
     0
100
AcDbLine
 10
326.9195331936851
 20
-107.5
 30
0.0
 11
324.7471334729815
 21
-107.5
 31
0.0
  0
ARC
  5
8D
330
1F
100
AcDbEntity
  8
1
  6
________________
 62
     7
370
     0
100
AcDbCircle
 10
364.8536297108184
 20
-115.4310889132455
 30
0.0
 40
36.39496704345515
100
AcDbArc
 50
174.1234436683665
 51
183.0888765596775
  0
ARC
  5
8E
330
1F
100
AcDbEntity
  8
1
  6
________________
 62
     7
370
     0
100
AcDbCircle
 10
364.853629710811
 20
-169.568911086754
 30
0.0
 40
36.39496704344773
100
AcDbArc
 50
170.4777245353953
 51
176.9111234403226
  0
ARC
  5
8F
330
1F
100
AcDbEntity
  8
1
  6
________________
 62
     7
370
     0
100
AcDbCircle
 10
286.8130369558416
 20
-115.4310889132449
 30
0.0
 40
36.39496704346187
100
AcDbArc
 50
350.4777245353974
 51
356.9111234403221
  0
ARC
  5
90
330
1F
100
AcDbEntity
  8
1
  6
________________
 62
     7
370
     0
100
AcDbCircle
 10
364.8536297108141
 20
-115.4310889132457
 30
0.0
 40
36.3949670434508
100
AcDbArc
 50
183.0888765596777
 51
189.5222754646045
  0
ARC
  5
91
330
1F
100
AcDbEntity
  8
1
  6
________________
 62
     7
370
     0
100
AcDbCircle
 10
338.8223054128196
 20
-165.2023493627295
 30
0.0
 40
9.999954143342556
100
AcDbArc
 50
152.2760101867888
 51
170.4777666235415
  0
ARC
  5
92
330
1F
100
AcDbEntity
  8
1
  6
________________
 62
     7
370
     0
100
AcDbCircle
 10
312.8443489995751
 20
-119.7976465077487
 30
0.0
 40
9.999966911917202
100
AcDbArc
 50
332.2760219060775
 51
350.4777549042524
  0
ARC
  5
93
330
1F
100
AcDbEntity
  8
1
  6
________________
 62
     7
370
     0
100
AcDbCircle
 10
338.8223105575238
 20
-119.7976489035756
 30
0.0
 40
9.999959503966107
100
AcDbArc
 50
189.522238296565
 51
207.7239848931052
  0
ARC
  5
94
330
1F
100
AcDbEntity
  8
1
  6
________________
 62
     7
370
     0
100
AcDbCircle
 10
312.8443508047085
 20
-165.2023528839461
 30
0.0
 40
9.999965031023644
100
AcDbArc
 50
9.522243369422306
 51
27.72397982024749
  0
ARC
  5
95
330
1F
100
AcDbEntity
  8
1
  6
________________
 62
     7
370
     0
100
AcDbCircle
 10
338.822349422425
 20
-119.7976358066363
 30
0.0
 40
10.0
100
AcDbArc
 50
207.7239477250673
 51
210.0
  0
ARC
  5
96
330
1F
100
AcDbEntity
  8
1
  6
________________
 62
     7
370
     0
100
AcDbCircle
 10
312.8443172442418
 20
-119.7976358066363
 30
0.0
 40
10.0
100
AcDbArc
 50
330.0
 51
332.2760522749326
  0
ARC
  5
97
330
1F
100
AcDbEntity
  8
1
  6
________________
 62
     7
370
     0
100
AcDbCircle
 10
312.8443172442418
 20
-165.2023641933637
 30
0.0
 40
10.0
100
AcDbArc
 50
27.72394772506732
 51
30.00000000000005
  0
ARC
  5
98
330
1F
100
AcDbEntity
  8
1
  6
________________
 62
     7
370
     0
100
AcDbCircle
 10
338.822349422425
 20
-165.2023641933637
 30
0.0
 40
10.0
100
AcDbArc
 50
149.9999999999999
 51
152.2760522749327
  0
LINE
  5
99
330
1F
100
AcDbEntity
  8
1
  6
________________
 62
     7
370
     0
100
AcDbLine
 10
330.7500354974277
 20
-159.1840220461047
 30
0.0
 11
330.1620953845806
 21
-160.2023641933637
 31
0.0
  0
LINE
  5
9A
330
1F
100
AcDbEntity
  8
1
  6
________________
 62
     7
370
     0
100
AcDbLine
 10
320.916631169239
 20
-125.8159779538953
 30
0.0
 11
321.5045712820861
 21
-124.7976358066363
 31
0.0
  0
LINE
  5
9B
330
1F
100
AcDbEntity
  8
1
  6
________________
 62
     7
370
     0
100
AcDbLine
 10
321.5045712820861
 20
-160.2023641933637
 30
0.0
 11
320.916631169239
 21
-159.1840220461047
 31
0.0
  0
LINE
  5
9C
330
1F
100
AcDbEntity
  8
1
  6
________________
 62
     7
370
     0
100
AcDbLine
 10
330.1620953845806
 20
-124.7976358066363
 30
0.0
 11
330.7500354974277
 21
-125.8159779538953
 31
0.0
  0
LINE
  5
9D
330
1F
100
AcDbEntity
  8
1
  6
________________
 62
     7
370
     0
100
AcDbLine
 10
338.0731590401534
 20
-142.5
 30
0.0
 11
340.3496554225388
 21
-142.5
 31
0.0
  0
LINE
  5
9E
330
1F
100
AcDbEntity
  8
1
  6
________________
 62
     7
370
     0
100
AcDbLine
 10
340.3496554225388
 20
-142.5
 30
0.0
 11
335.3446418719295
 21
-151.2259303646877
 31
0.0
  0
LINE
  5
9F
330
1F
100
AcDbEntity
  8
1
  6
________________
 62
     7
370
     0
100
AcDbLine
 10
330.7500354974277
 20
-159.1840220461047
 30
0.0
 11
335.3446418719296
 21
-151.2259303646875
 31
0.0
  0
LINE
  5
A0
330
1F
100
AcDbEntity
  8
1
  6
________________
 62
     7
370
     0
100
AcDbLine
 10
313.5935076265133
 20
-142.5
 30
0.0
 11
311.3170112441279
 21
-142.5
 31
0.0
  0
LINE
  5
A1
330
1F
100
AcDbEntity
  8
1
  6
________________
 62
     7
370
     0
100
AcDbLine
 10
311.3170112441279
 20
-142.5
 30
0.0
 11
316.3220247947372
 21
-133.7740696353124
 31
0.0
  0
LINE
  5
A2
330
1F
100
AcDbEntity
  8
1
  6
________________
 62
     7
370
     0
100
AcDbLine
 10
320.916631169239
 20
-125.8159779538953
 30
0.0
 11
316.3220247947371
 21
-133.7740696353125
 31
0.0
  0
LINE
  5
A3
330
1F
100
AcDbEntity
  8
1
  6
________________
 62
     7
370
     0
100
AcDbLine
 10
335.3446418719297
 20
-133.7740696353125
 30
0.0
 11
340.3496554225388
 21
-142.5
 31
0.0
  0
LINE
  5
A4
330
1F
100
AcDbEntity
  8
1
  6
________________
 62
     7
370
     0
100
AcDbLine
 10
335.3446418719296
 20
-133.7740696353125
 30
0.0
 11
330.7500354974277
 21
-125.8159779538953
 31
0.0
  0
LINE
  5
A5
330
1F
100
AcDbEntity
  8
1
  6
________________
 62
     7
370
     0
100
AcDbLine
 10
316.322024794737
 20
-151.2259303646875
 30
0.0
 11
311.3170112441279
 21
-142.5
 31
0.0
  0
LINE
  5
A6
330
1F
100
AcDbEntity
  8
1
  6
________________
 62
     7
370
     0
100
AcDbLine
 10
316.3220247947371
 20
-151.2259303646875
 30
0.0
 11
320.916631169239
 21
-159.1840220461047
 31
0.0
  0
LWPOLYLINE
  5
A7
330
1F
100
AcDbEntity
  8
1
  6
________________
 62
     7
370
     0
100
AcDbPolyline
 90
       26
 70
     0
 43
0.0
 10
321.4149965511122
 20
-133.8473685130862
 10
321.3802262920029
 20
-133.847985733456
 10
321.3454916583532
 20
-133.8498292627834
 10
321.3108961564781
 20
-133.8528869033956
 10
321.2765432926925
 20
-133.8571464576198
 10
321.2413437308446
 20
-133.8628016476309
 10
321.2064706396039
 20
-133.8697069272699
 10
321.1720205603026
 20
-133.877824145168
 10
321.1380900342728
 20
-133.8871151499565
 10
321.0947169477841
 20
-133.9009517358667
 10
321.0522693358756
 20
-133.9166969020442
 10
321.0108731879171
 20
-133.9342340005437
 10
320.9706544932787
 20
-133.9534463834205
 10
320.9317392413308
 20
-133.9742174027292
 10
320.8942534214431
 20
-133.996430410525
 10
320.8587441622555
 20
-134.0196411584437
 10
320.8245402460801
 20
-134.0441444723369
 10
320.7916924215959
 20
-134.0698400311474
 10
320.7602514374815
 20
-134.0966275138181
 10
320.7293619630366
 20
-134.1252735929589
 10
320.6999260758249
 20
-134.1549753137385
 10
320.6719694847998
 20
-134.185642755491
 10
320.6455178989148
 20
-134.2171859975501
 10
320.6119361530116
 20
-134.2614100019771
 10
320.5810749210011
 20
-134.307071192155
 10
320.5529667394784
 20
-134.353984472011
  0
LWPOLYLINE
  5
A8
330
1F
100
AcDbEntity
  8
1
  6
________________
 62
     7
370
     0
100
AcDbPolyline
 90
        4
 70
     0
 43
0.0
 10
315.9029087032718
 20
-142.5
 10
317.5593696233436
 20
-139.6204159616863
 10
319.1320598253689
 20
-136.8653624318895
 10
320.5529667394791
 20
-134.3539844720113
  0
LWPOLYLINE
  5
A9
330
1F
100
AcDbEntity
  8
1
  6
________________
 62
     7
370
     0
100
AcDbPolyline
 90
        4
 70
     0
 43
0.0
 10
-315.9029087032719
 20
-142.5
 10
-317.5593696233437
 20
-145.3795840383137
 10
-319.1320598253689
 20
-148.1346375681105
 10
-320.5529667394791
 20
-150.6460155279887
210
0.0
220
0.0
230
-1.0
  0
LWPOLYLINE
  5
AA
330
1F
100
AcDbEntity
  8
1
  6
________________
 62
     7
370
     0
100
AcDbPolyline
 90
       26
 70
     0
 43
0.0
 10
-321.4149965511122
 20
-151.1526314869138
 10
-321.3802262920029
 20
-151.1520142665441
 10
-321.3454916583532
 20
-151.1501707372167
 10
-321.3108961564781
 20
-151.1471130966044
 10
-321.2765432926925
 20
-151.1428535423802
 10
-321.2413437308446
 20
-151.1371983523691
 10
-321.2064706396039
 20
-151.1302930727302
 10
-321.1720205603026
 20
-151.122175854832
 10
-321.1380900342728
 20
-151.1128848500435
 10
-321.0947169477841
 20
-151.0990482641333
 10
-321.0522693358756
 20
-151.0833030979559
 10
-321.0108731879171
 20
-151.0657659994563
 10
-320.9706544932787
 20
-151.0465536165796
 10
-320.9317392413308
 20
-151.0257825972708
 10
-320.8942534214431
 20
-151.0035695894751
 10
-320.8587441622555
 20
-150.9803588415564
 10
-320.8245402460801
 20
-150.9558555276631
 10
-320.7916924215959
 20
-150.9301599688526
 10
-320.7602514374815
 20
-150.9033724861819
 10
-320.7293619630366
 20
-150.8747264070411
 10
-320.6999260758249
 20
-150.8450246862615
 10
-320.6719694847998
 20
-150.8143572445091
 10
-320.6455178989148
 20
-150.7828140024499
 10
-320.6119361530116
 20
-150.7385899980229
 10
-320.5810749210011
 20
-150.692928807845
 10
-320.5529667394784
 20
-150.646015527989
210
0.0
220
0.0
230
-1.0
  0
LINE
  5
AB
330
1F
100
AcDbEntity
  8
1
  6
________________
 62
     7
370
     0
100
AcDbLine
 10
321.4149965511122
 20
-151.1526314869138
 30
0.0
 11
330.2516701155545
 21
-151.1526314869138
 31
0.0
  0
LWPOLYLINE
  5
AC
330
1F
100
AcDbEntity
  8
1
  6
________________
 62
     7
370
     0
100
AcDbPolyline
 90
       26
 70
     0
 43
0.0
 10
-331.1136999271877
 20
-150.6460155279887
 10
-331.084312144601
 20
-150.6949328988919
 10
-331.0519265531473
 20
-150.7424825524348
 10
-331.0165806046786
 20
-150.7884534115392
 10
-330.9873407101038
 20
-150.8226772435014
 10
-330.9563040091361
 20
-150.8558397980986
 10
-330.9235064585261
 20
-150.88782181851
 10
-330.8889840150238
 20
-150.9185040479149
 10
-330.8513383132673
 20
-150.9488749856609
 10
-330.8118187543677
 20
-150.9776781266727
 10
-330.7705099018833
 20
-151.0047530440396
 10
-330.7375004729291
 20
-151.0243439534937
 10
-330.7034372699554
 20
-151.0428007905827
 10
-330.6683913975467
 20
-151.0600431027142
 10
-330.6324339602875
 20
-151.0759904372962
 10
-330.6020711606072
 20
-151.0881421457897
 10
-330.5711059170765
 20
-151.0993524567845
 10
-330.5396015805739
 20
-151.1095789533651
 10
-330.5076215019778
 20
-151.1187792186155
 10
-330.4742684939472
 20
-151.1271373423863
 10
-330.440455501537
 20
-151.1343615755618
 10
-330.4062749673604
 20
-151.1404193118789
 10
-330.3718193340309
 20
-151.1452779450748
 10
-330.3319580340229
 20
-151.1493524504514
 10
-330.2918547295256
 20
-151.151809028887
 10
-330.2516701155545
 20
-151.1526314869139
210
0.0
220
0.0
230
-1.0
  0
LWPOLYLINE
  5
AD
330
1F
100
AcDbEntity
  8
1
  6
________________
 62
     7
370
     0
100
AcDbPolyline
 90
        4
 70
     0
 43
0.0
 10
-331.1136999271877
 20
-150.6460155279887
 10
-332.5346068412979
 20
-148.1346375681105
 10
-334.1072970433231
 20
-145.3795840383137
 10
-335.7637579633949
 20
-142.5
210
0.0
220
0.0
230
-1.0
  0
LWPOLYLINE
  5
AE
330
1F
100
AcDbEntity
  8
1
  6
________________
 62
     7
370
     0
100
AcDbPolyline
 90
        4
 70
     0
 43
0.0
 10
331.1136999271877
 20
-134.3539844720113
 10
332.5346068412979
 20
-136.8653624318895
 10
334.1072970433231
 20
-139.6204159616863
 10
335.7637579633949
 20
-142.5
  0
LWPOLYLINE
  5
AF
330
1F
100
AcDbEntity
  8
1
  6
________________
 62
     7
370
     0
100
AcDbPolyline
 90
       26
 70
     0
 43
0.0
 10
331.1136999271877
 20
-134.3539844720113
 10
331.084312144601
 20
-134.3050671011082
 10
331.0519265531473
 20
-134.2575174475652
 10
331.0165806046786
 20
-134.2115465884608
 10
330.9873407101038
 20
-134.1773227564986
 10
330.9563040091361
 20
-134.1441602019014
 10
330.9235064585261
 20
-134.11217818149
 10
330.8889840150238
 20
-134.0814959520851
 10
330.8513383132673
 20
-134.0511250143392
 10
330.8118187543677
 20
-134.0223218733274
 10
330.7705099018833
 20
-133.9952469559605
 10
330.7375004729291
 20
-133.9756560465063
 10
330.7034372699554
 20
-133.9571992094173
 10
330.6683913975467
 20
-133.9399568972858
 10
330.6324339602875
 20
-133.9240095627039
 10
330.6020711606072
 20
-133.9118578542104
 10
330.5711059170765
 20
-133.9006475432155
 10
330.5396015805739
 20
-133.890421046635
 10
330.5076215019778
 20
-133.8812207813845
 10
330.4742684939472
 20
-133.8728626576138
 10
330.440455501537
 20
-133.8656384244383
 10
330.4062749673604
 20
-133.8595806881211
 10
330.3718193340309
 20
-133.8547220549252
 10
330.3319580340229
 20
-133.8506475495486
 10
330.2918547295256
 20
-133.848190971113
 10
330.2516701155545
 20
-133.8473685130862
  0
LINE
  5
B0
330
1F
100
AcDbEntity
  8
1
  6
________________
 62
     7
370
     0
100
AcDbLine
 10
321.4149965511122
 20
-133.8473685130862
 30
0.0
 11
330.2516701155545
 21
-133.8473685130862
 31
0.0
  0
LWPOLYLINE
  5
B1
330
1F
100
AcDbEntity
  8
1
  6
________________
 62
     7
370
     0
100
AcDbPolyline
 90
        6
 70
     0
 43
0.0
 10
331.0065553248575
 20
-134.5395643670039
 10
330.8836920440251
 20
-134.3704557516909
 10
330.7283579590621
 20
-134.2305905907139
 10
330.5473396432048
 20
-134.1260796173255
 10
330.3485458182128
 20
-134.0614889341623
 10
330.1406618209367
 20
-134.0396405194257
  0
LWPOLYLINE
  5
B2
330
1F
100
AcDbEntity
  8
1
  6
________________
 62
     7
370
     0
100
AcDbPolyline
 90
        6
 70
     0
 43
0.0
 10
330.1406618209367
 20
-150.9603594805743
 10
330.3485458182128
 20
-150.9385110658377
 10
330.5473396432048
 20
-150.8739203826745
 10
330.7283579590621
 20
-150.7694094092861
 10
330.8836920440252
 20
-150.6295442483091
 10
331.0065553248575
 20
-150.4604356329961
  0
LWPOLYLINE
  5
B3
330
1F
100
AcDbEntity
  8
1
  6
________________
 62
     7
370
     0
100
AcDbPolyline
 90
        6
 70
     0
 43
0.0
 10
321.52600484573
 20
-134.0396405194257
 10
321.3181208484539
 20
-134.0614889341624
 10
321.1193270234619
 20
-134.1260796173255
 10
320.9383087076046
 20
-134.2305905907139
 10
320.7829746226415
 20
-134.3704557516909
 10
320.6601113418092
 20
-134.5395643670039
  0
LWPOLYLINE
  5
B4
330
1F
100
AcDbEntity
  8
1
  6
________________
 62
     7
370
     0
100
AcDbPolyline
 90
        6
 70
     0
 43
0.0
 10
320.6601113418092
 20
-150.4604356329961
 10
320.7829746226415
 20
-150.6295442483091
 10
320.9383087076046
 20
-150.7694094092861
 10
321.1193270234619
 20
-150.8739203826745
 10
321.3181208484539
 20
-150.9385110658377
 10
321.52600484573
 20
-150.9603594805743
  0
LINE
  5
B5
330
1F
100
AcDbEntity
  8
1
  6
________________
 62
     7
370
     0
100
AcDbLine
 10
321.52600484573
 20
-150.9603594805743
 30
0.0
 11
330.1406618209368
 21
-150.9603594805743
 31
0.0
  0
LINE
  5
B6
330
1F
100
AcDbEntity
  8
1
  6
________________
 62
     7
370
     0
100
AcDbLine
 10
330.1406618209367
 20
-134.0396405194257
 30
0.0
 11
321.52600484573
 21
-134.0396405194257
 31
0.0
  0
LINE
  5
B7
330
1F
100
AcDbEntity
  8
1
  6
________________
 62
     7
370
     0
100
AcDbLine
 10
316.1915398712454
 20
-142.9999238475782
 30
0.0
 11
315.9029087032718
 21
-142.5
 31
0.0
  0
LINE
  5
B8
330
1F
100
AcDbEntity
  8
1
  6
________________
 62
     7
370
     0
100
AcDbLine
 10
316.3527828542058
 20
-142.9999238475782
 30
0.0
 11
320.6601113418092
 21
-150.4604356329961
 31
0.0
  0
LINE
  5
B9
330
1F
100
AcDbEntity
  8
1
  6
________________
 62
     7
370
     0
100
AcDbLine
 10
320.6601113418092
 20
-134.5395643670039
 30
0.0
 11
316.3527828542058
 21
-142.0000761524218
 31
0.0
  0
LINE
  5
BA
330
1F
100
AcDbEntity
  8
1
  6
________________
 62
     7
370
     0
100
AcDbLine
 10
316.1915398712454
 20
-142.0000761524218
 30
0.0
 11
315.9029087032718
 21
-142.5
 31
0.0
  0
LINE
  5
BB
330
1F
100
AcDbEntity
  8
1
  6
________________
 62
     7
370
     0
100
AcDbLine
 10
331.0065553248575
 20
-150.4604356329961
 30
0.0
 11
335.3138838124609
 21
-142.9999238475782
 31
0.0
  0
LINE
  5
BC
330
1F
100
AcDbEntity
  8
1
  6
________________
 62
     7
370
     0
100
AcDbLine
 10
335.7637579633949
 20
-142.5
 30
0.0
 11
335.4751267954213
 21
-142.9999238475782
 31
0.0
  0
LINE
  5
BD
330
1F
100
AcDbEntity
  8
1
  6
________________
 62
     7
370
     0
100
AcDbLine
 10
335.3138838124609
 20
-142.0000761524218
 30
0.0
 11
331.0065553248575
 21
-134.5395643670039
 31
0.0
  0
LINE
  5
BE
330
1F
100
AcDbEntity
  8
1
  6
________________
 62
     7
370
     0
100
AcDbLine
 10
335.7637579633949
 20
-142.5
 30
0.0
 11
335.4751267954213
 21
-142.0000761524218
 31
0.0
  0
LWPOLYLINE
  5
BF
330
1F
100
AcDbEntity
  8
1
  6
________________
 62
     7
370
     0
100
AcDbPolyline
 90
        6
 70
     0
 43
0.0
 10
316.3527828542058
 20
-142.0000761524218
 10
316.2677621377621
 20
-142.1910331824714
 10
316.2243023977332
 20
-142.3954890266115
 10
316.2243023977332
 20
-142.6045109733884
 10
316.2677621377621
 20
-142.8089668175285
 10
316.3527828542058
 20
-142.9999238475782
  0
LWPOLYLINE
  5
C0
330
1F
100
AcDbEntity
  8
1
  6
________________
 62
     7
370
     0
100
AcDbPolyline
 90
        6
 70
     0
 43
0.0
 10
-316.1915398712453
 20
-142.9999238475782
 10
-316.1065191548016
 20
-142.8089668175286
 10
-316.0630594147727
 20
-142.6045109733884
 10
-316.0630594147727
 20
-142.3954890266116
 10
-316.1065191548016
 20
-142.1910331824714
 10
-316.1915398712453
 20
-142.0000761524218
210
0.0
220
0.0
230
-1.0
  0
LWPOLYLINE
  5
C1
330
1F
100
AcDbEntity
  8
1
  6
________________
 62
     7
370
     0
100
AcDbPolyline
 90
        6
 70
     0
 43
0.0
 10
335.3138838124609
 20
-142.9999238475782
 10
335.3989045289047
 20
-142.8089668175286
 10
335.4423642689335
 20
-142.6045109733884
 10
335.4423642689335
 20
-142.3954890266116
 10
335.3989045289047
 20
-142.1910331824714
 10
335.3138838124609
 20
-142.0000761524218
  0
LWPOLYLINE
  5
C2
330
1F
100
AcDbEntity
  8
1
  6
________________
 62
     7
370
     0
100
AcDbPolyline
 90
        6
 70
     0
 43
0.0
 10
-335.4751267954214
 20
-142.0000761524218
 10
-335.5601475118651
 20
-142.1910331824714
 10
-335.603607251894
 20
-142.3954890266116
 10
-335.603607251894
 20
-142.6045109733884
 10
-335.5601475118651
 20
-142.8089668175286
 10
-335.4751267954214
 20
-142.9999238475782
210
0.0
220
0.0
230
-1.0
  0
CIRCLE
  5
C3
330
1F
100
AcDbEntity
  8
1
  6
________________
 62
     7
370
     0
100
AcDbCircle
 10
-325.8333333333334
 20
-142.5
 30
0.0
 40
46.99999999999999
210
0.0
220
0.0
230
-1.0
  0
LINE
  5
C4
330
1F
100
AcDbEntity
  8
1
  6
________________
 62
     7
370
     0
100
AcDbLine
 10
321.2145311798163
 20
-150.5
 30
0.0
 11
318.9051301030578
 21
-146.5
 31
0.0
  0
ARC
  5
C5
330
1F
100
AcDbEntity
  8
1
  6
________________
 62
     7
370
     0
100
AcDbCircle
 10
325.8333333333334
 20
-142.5
 30
0.0
 40
8.000000000000032
100
AcDbArc
 50
210.0
 51
270.0
  0
LINE
  5
C6
330
1F
100
AcDbEntity
  8
1
  6
________________
 62
     7
370
     0
100
AcDbLine
 10
325.8333333333334
 20
-150.5
 30
0.0
 11
321.2145311798163
 21
-150.5
 31
0.0
  0
ARC
  5
C7
330
1F
100
AcDbEntity
  8
1
  6
________________
 62
     7
370
     0
100
AcDbCircle
 10
-325.8333333333334
 20
-142.5
 30
0.0
 40
8.000000000000032
210
0.0
220
0.0
230
-1.0
100
AcDbArc
 50
210.0
 51
270.0
  0
LINE
  5
C8
330
1F
100
AcDbEntity
  8
1
  6
________________
 62
     7
370
     0
100
AcDbLine
 10
332.7615365636089
 20
-146.5
 30
0.0
 11
330.4521354868504
 21
-150.5
 31
0.0
  0
LINE
  5
C9
330
1F
100
AcDbEntity
  8
1
  6
________________
 62
     7
370
     0
100
AcDbLine
 10
330.4521354868504
 20
-150.5
 30
0.0
 11
325.8333333333334
 21
-150.5
 31
0.0
  0
ARC
  5
CA
330
1F
100
AcDbEntity
  8
1
  6
________________
 62
     7
370
     0
100
AcDbCircle
 10
-325.8333333333334
 20
-142.5
 30
0.0
 40
8.000000000000032
210
0.0
220
0.0
230
-1.0
100
AcDbArc
 50
330.0
 51
30.00000000000005
  0
LINE
  5
CB
330
1F
100
AcDbEntity
  8
1
  6
________________
 62
     7
370
     0
100
AcDbLine
 10
318.9051301030578
 20
-146.5
 30
0.0
 11
316.5957290262994
 21
-142.5
 31
0.0
  0
LINE
  5
CC
330
1F
100
AcDbEntity
  8
1
  6
________________
 62
     7
370
     0
100
AcDbLine
 10
316.5957290262994
 20
-142.5
 30
0.0
 11
318.9051301030578
 21
-138.5
 31
0.0
  0
ARC
  5
CD
330
1F
100
AcDbEntity
  8
1
  6
________________
 62
     7
370
     0
100
AcDbCircle
 10
-325.8333333333334
 20
-142.5
 30
0.0
 40
8.000000000000032
210
0.0
220
0.0
230
-1.0
100
AcDbArc
 50
30.00000000000003
 51
90.00000000000001
  0
LINE
  5
CE
330
1F
100
AcDbEntity
  8
1
  6
________________
 62
     7
370
     0
100
AcDbLine
 10
321.2145311798163
 20
-134.5
 30
0.0
 11
325.8333333333334
 21
-134.5
 31
0.0
  0
LINE
  5
CF
330
1F
100
AcDbEntity
  8
1
  6
________________
 62
     7
370
     0
100
AcDbLine
 10
318.9051301030578
 20
-138.5
 30
0.0
 11
321.2145311798163
 21
-134.5
 31
0.0
  0
ARC
  5
D0
330
1F
100
AcDbEntity
  8
1
  6
________________
 62
     7
370
     0
100
AcDbCircle
 10
-325.8333333333334
 20
-142.5
 30
0.0
 40
8.000000000000032
210
0.0
220
0.0
230
-1.0
100
AcDbArc
 50
150.0
 51
210.0
  0
LINE
  5
D1
330
1F
100
AcDbEntity
  8
1
  6
________________
 62
     7
370
     0
100
AcDbLine
 10
332.7615365636089
 20
-138.5
 30
0.0
 11
335.0709376403674
 21
-142.5
 31
0.0
  0
LINE
  5
D2
330
1F
100
AcDbEntity
  8
1
  6
________________
 62
     7
370
     0
100
AcDbLine
 10
335.0709376403674
 20
-142.5
 30
0.0
 11
332.7615365636089
 21
-146.5
 31
0.0
  0
ARC
  5
D3
330
1F
100
AcDbEntity
  8
1
  6
________________
 62
     7
370
     0
100
AcDbCircle
 10
-325.8333333333334
 20
-142.5
 30
0.0
 40
8.000000000000007
210
0.0
220
0.0
230
-1.0
100
AcDbArc
 50
90.00000000000001
 51
150.0
  0
LINE
  5
D4
330
1F
100
AcDbEntity
  8
1
  6
________________
 62
     7
370
     0
100
AcDbLine
 10
330.4521354868504
 20
-134.5
 30
0.0
 11
332.7615365636089
 21
-138.5
 31
0.0
  0
LINE
  5
D5
330
1F
100
AcDbEntity
  8
1
  6
________________
 62
     7
370
     0
100
AcDbLine
 10
325.8333333333334
 20
-134.5
 30
0.0
 11
330.4521354868504
 21
-134.5
 31
0.0
  0
CIRCLE
  5
D6
330
1F
100
AcDbEntity
  8
1
  6
________________
 62
     7
370
     0
100
AcDbCircle
 10
-325.8333333333334
 20
-142.5
 30
0.0
 40
4.250000000000004
210
0.0
220
0.0
230
-1.0
  0
CIRCLE
  5
D7
330
1F
100
AcDbEntity
  8
1
  6
________________
 62
     7
370
     0
100
AcDbCircle
 10
59.16666666666667
 20
-142.5
 30
0.0
 40
46.99999999999999
  0
LINE
  5
D8
330
1F
100
AcDbEntity
  8
1
  6
________________
 62
     7
370
     0
100
AcDbLine
 10
49.92906235963267
 20
-142.5
 30
0.0
 11
54.54786451314967
 21
-150.5
 31
0.0
  0
LINE
  5
D9
330
1F
100
AcDbEntity
  8
1
  6
________________
 62
     7
370
     0
100
AcDbLine
 10
54.54786451314968
 20
-134.5
 30
0.0
 11
49.92906235963267
 21
-142.5
 31
0.0
  0
LINE
  5
DA
330
1F
100
AcDbEntity
  8
1
  6
________________
 62
     7
370
     0
100
AcDbLine
 10
54.54786451314966
 20
-150.5
 30
0.0
 11
63.78546882018368
 21
-150.5
 31
0.0
  0
LINE
  5
DB
330
1F
100
AcDbEntity
  8
1
  6
________________
 62
     7
370
     0
100
AcDbLine
 10
68.40427097370069
 20
-142.5
 30
0.0
 11
63.78546882018368
 21
-134.5
 31
0.0
  0
LINE
  5
DC
330
1F
100
AcDbEntity
  8
1
  6
________________
 62
     7
370
     0
100
AcDbLine
 10
63.78546882018368
 20
-150.5
 30
0.0
 11
68.40427097370069
 21
-142.5
 31
0.0
  0
LINE
  5
DD
330
1F
100
AcDbEntity
  8
1
  6
________________
 62
     7
370
     0
100
AcDbLine
 10
63.78546882018368
 20
-134.5
 30
0.0
 11
54.54786451314968
 21
-134.5
 31
0.0
  0
LINE
  5
DE
330
1F
100
AcDbEntity
  8
1
  6
________________
 62
     7
370
     0
100
AcDbLine
 10
59.16666666666666
 20
-116.3778145455025
 30
0.0
 11
62.16666666666667
 21
-116.4301797402871
 31
0.0
  0
LINE
  5
DF
330
1F
100
AcDbEntity
  8
1
  6
________________
 62
     7
370
     0
100
AcDbLine
 10
53.16666666666666
 20
-116.5
 30
0.0
 11
65.16666666666666
 21
-116.5
 31
0.0
  0
LINE
  5
E0
330
1F
100
AcDbEntity
  8
1
  6
________________
 62
     7
370
     0
100
AcDbLine
 10
53.16666666666666
 20
-116.5
 30
0.0
 11
53.25546515574533
 21
-116.4112015109213
 31
0.0
  0
LINE
  5
E1
330
1F
100
AcDbEntity
  8
1
  6
________________
 62
     7
370
     0
100
AcDbLine
 10
58.25470363152729
 20
-116.3254493507178
 30
0.0
 11
53.25546515574533
 21
-116.4112015109213
 31
0.0
  0
LINE
  5
E2
330
1F
100
AcDbEntity
  8
1
  6
________________
 62
     7
370
     0
100
AcDbLine
 10
58.25470363152729
 20
-116.3254493507178
 30
0.0
 11
60.07862970180604
 21
-116.3254493507178
 31
0.0
  0
LINE
  5
E3
330
1F
100
AcDbEntity
  8
1
  6
________________
 62
     7
370
     0
100
AcDbLine
 10
65.077868177588
 20
-116.4112015109213
 30
0.0
 11
60.07862970180604
 21
-116.3254493507178
 31
0.0
  0
LINE
  5
E4
330
1F
100
AcDbEntity
  8
1
  6
________________
 62
     7
370
     0
100
AcDbLine
 10
65.16666666666667
 20
-116.5
 30
0.0
 11
65.07786817758802
 21
-116.4112015109213
 31
0.0
  0
LINE
  5
E5
330
1F
100
AcDbEntity
  8
1
  6
________________
 62
     7
370
     0
100
AcDbLine
 10
60.07862970180604
 20
-112.6745506492822
 30
0.0
 11
65.077868177588
 21
-112.5887984890787
 31
0.0
  0
LINE
  5
E6
330
1F
100
AcDbEntity
  8
1
  6
________________
 62
     7
370
     0
100
AcDbLine
 10
53.25546515574533
 20
-112.5887984890787
 30
0.0
 11
58.25470363152729
 21
-112.6745506492822
 31
0.0
  0
LINE
  5
E7
330
1F
100
AcDbEntity
  8
1
  6
________________
 62
     7
370
     0
100
AcDbLine
 10
60.07862970180604
 20
-112.6745506492822
 30
0.0
 11
58.25470363152729
 21
-112.6745506492822
 31
0.0
  0
LINE
  5
E8
330
1F
100
AcDbEntity
  8
1
  6
________________
 62
     7
370
     0
100
AcDbLine
 10
59.16666666666666
 20
-112.5174550649282
 30
0.0
 11
62.16666666666667
 21
-112.5698202597129
 31
0.0
  0
LINE
  5
E9
330
1F
100
AcDbEntity
  8
1
  6
________________
 62
     7
370
     0
100
AcDbLine
 10
53.16666666666666
 20
-112.5
 30
0.0
 11
53.25546515574533
 21
-112.5887984890787
 31
0.0
  0
LINE
  5
EA
330
1F
100
AcDbEntity
  8
1
  6
________________
 62
     7
370
     0
100
AcDbLine
 10
65.16666666666667
 20
-112.5
 30
0.0
 11
53.16666666666668
 21
-112.5
 31
0.0
  0
LINE
  5
EB
330
1F
100
AcDbEntity
  8
1
  6
________________
 62
     7
370
     0
100
AcDbLine
 10
65.16666666666667
 20
-112.5
 30
0.0
 11
65.07786817758802
 21
-112.5887984890787
 31
0.0
  0
LINE
  5
EC
330
1F
100
AcDbEntity
  8
1
  6
________________
 62
     7
370
     0
100
AcDbLine
 10
56.16666666666666
 20
-116.4301797402871
 30
0.0
 11
59.16666666666666
 21
-116.3778145455025
 31
0.0
  0
ARC
  5
ED
330
1F
100
AcDbEntity
  8
1
  6
________________
 62
     7
370
     0
100
AcDbCircle
 10
-59.16666666666666
 20
-30.52141989152805
 30
0.0
 40
85.96112504354373
210
0.0
220
0.0
230
-1.0
100
AcDbArc
 50
268.0000000000003
 51
271.9999999999997
  0
LINE
  5
EE
330
1F
100
AcDbEntity
  8
1
  6
________________
 62
     7
370
     0
100
AcDbLine
 10
56.16666666666666
 20
-112.5698202597129
 30
0.0
 11
59.16666666666666
 21
-112.5174550649282
 31
0.0
  0
ARC
  5
EF
330
1F
100
AcDbEntity
  8
1
  6
________________
 62
     7
370
     0
100
AcDbCircle
 10
-59.16666666666666
 20
-26.66106041095378
 30
0.0
 40
85.96112504354373
210
0.0
220
0.0
230
-1.0
100
AcDbArc
 50
268.0000000000003
 51
271.9999999999997
  0
LINE
  5
F0
330
1F
100
AcDbEntity
  8
1
  6
________________
 62
     7
370
     0
100
AcDbLine
 10
53.16666666666666
 20
-112.5
 30
0.0
 11
53.16666666666666
 21
-116.5
 31
0.0
  0
LINE
  5
F1
330
1F
100
AcDbEntity
  8
1
  6
________________
 62
     7
370
     0
100
AcDbLine
 10
65.16666666666667
 20
-116.5
 30
0.0
 11
65.16666666666667
 21
-112.5
 31
0.0
  0
LINE
  5
F2
330
1F
100
AcDbEntity
  8
1
  6
________________
 62
     7
370
     0
100
AcDbLine
 10
64.13187898169745
 20
-151.1
 30
0.0
 11
69.09709129672822
 21
-142.5
 31
0.0
  0
LINE
  5
F3
330
1F
100
AcDbEntity
  8
1
  6
________________
 62
     7
370
     0
100
AcDbLine
 10
69.09709129672822
 20
-142.5
 30
0.0
 11
64.13187898169745
 21
-133.9
 31
0.0
  0
LINE
  5
F4
330
1F
100
AcDbEntity
  8
1
  6
________________
 62
     7
370
     0
100
AcDbLine
 10
64.13187898169745
 20
-133.9
 30
0.0
 11
54.20145435163588
 21
-133.9
 31
0.0
  0
LINE
  5
F5
330
1F
100
AcDbEntity
  8
1
  6
________________
 62
     7
370
     0
100
AcDbLine
 10
54.20145435163588
 20
-133.9
 30
0.0
 11
49.23624203660511
 21
-142.5
 31
0.0
  0
LINE
  5
F6
330
1F
100
AcDbEntity
  8
1
  6
________________
 62
     7
370
     0
100
AcDbLine
 10
49.23624203660511
 20
-142.5
 30
0.0
 11
54.20145435163588
 21
-151.1
 31
0.0
  0
LINE
  5
F7
330
1F
100
AcDbEntity
  8
1
  6
________________
 62
     7
370
     0
100
AcDbLine
 10
54.20145435163588
 20
-151.1
 30
0.0
 11
64.13187898169745
 21
-151.1
 31
0.0
  0
LINE
  5
F8
330
1F
100
AcDbEntity
  8
1
  6
________________
 62
     7
370
     0
100
AcDbLine
 10
69.09709129672822
 20
-142.5
 30
0.0
 11
68.93584831376775
 21
-142.5
 31
0.0
  0
LINE
  5
F9
330
1F
100
AcDbEntity
  8
1
  6
________________
 62
     7
370
     0
100
AcDbLine
 10
64.13187898169745
 20
-151.1
 30
0.0
 11
64.05125749021721
 21
-150.9603594805743
 31
0.0
  0
LINE
  5
FA
330
1F
100
AcDbEntity
  8
1
  6
________________
 62
     7
370
     0
100
AcDbLine
 10
64.05125749021721
 20
-150.9603594805743
 30
0.0
 11
68.93584831376776
 21
-142.5
 31
0.0
  0
LINE
  5
FB
330
1F
100
AcDbEntity
  8
1
  6
________________
 62
     7
370
     0
100
AcDbLine
 10
64.13187898169745
 20
-133.9
 30
0.0
 11
64.05125749021721
 21
-134.0396405194257
 31
0.0
  0
LINE
  5
FC
330
1F
100
AcDbEntity
  8
1
  6
________________
 62
     7
370
     0
100
AcDbLine
 10
68.93584831376776
 20
-142.5
 30
0.0
 11
64.05125749021722
 21
-134.0396405194257
 31
0.0
  0
LINE
  5
FD
330
1F
100
AcDbEntity
  8
1
  6
________________
 62
     7
370
     0
100
AcDbLine
 10
49.23624203660511
 20
-142.5
 30
0.0
 11
49.39748501956556
 21
-142.5
 31
0.0
  0
LINE
  5
FE
330
1F
100
AcDbEntity
  8
1
  6
________________
 62
     7
370
     0
100
AcDbLine
 10
54.20145435163588
 20
-133.9
 30
0.0
 11
54.28207584311612
 21
-134.0396405194257
 31
0.0
  0
LINE
  5
FF
330
1F
100
AcDbEntity
  8
1
  6
________________
 62
     7
370
     0
100
AcDbLine
 10
54.28207584311612
 20
-134.0396405194257
 30
0.0
 11
49.39748501956556
 21
-142.5
 31
0.0
  0
LINE
  5
100
330
1F
100
AcDbEntity
  8
1
  6
________________
 62
     7
370
     0
100
AcDbLine
 10
54.20145435163588
 20
-151.1
 30
0.0
 11
54.28207584311611
 21
-150.9603594805743
 31
0.0
  0
LINE
  5
101
330
1F
100
AcDbEntity
  8
1
  6
________________
 62
     7
370
     0
100
AcDbLine
 10
49.39748501956556
 20
-142.5
 30
0.0
 11
54.2820758431161
 21
-150.9603594805743
 31
0.0
  0
LINE
  5
102
330
1F
100
AcDbEntity
  8
1
  6
________________
 62
     7
370
     0
100
AcDbLine
 10
54.28207584311611
 20
-150.9603594805743
 30
0.0
 11
64.05125749021721
 21
-150.9603594805743
 31
0.0
  0
LINE
  5
103
330
1F
100
AcDbEntity
  8
1
  6
________________
 62
     7
370
     0
100
AcDbLine
 10
64.05125749021721
 20
-134.0396405194257
 30
0.0
 11
54.28207584311611
 21
-134.0396405194257
 31
0.0
  0
CIRCLE
  5
104
330
1F
100
AcDbEntity
  8
1
  6
________________
 62
     7
370
     0
100
AcDbCircle
 10
59.16666666666666
 20
-142.5
 30
0.0
 40
37.99999999999998
  0
ARC
  5
105
330
1F
100
AcDbEntity
  8
1
  6
________________
 62
     7
370
     0
100
AcDbCircle
 10
59.16666666666666
 20
-142.5
 30
0.0
 40
8.399999999999991
100
AcDbArc
 50
270.0
 51
287.7527901619466
  0
ARC
  5
106
330
1F
100
AcDbEntity
  8
1
  6
________________
 62
     7
370
     0
100
AcDbCircle
 10
59.16666666666666
 20
-142.5
 30
0.0
 40
8.399999999999993
100
AcDbArc
 50
312.2472098380534
 51
347.7527901619466
  0
ARC
  5
107
330
1F
100
AcDbEntity
  8
1
  6
________________
 62
     7
370
     0
100
AcDbCircle
 10
59.16666666666666
 20
-142.5
 30
0.0
 40
8.400000000000002
100
AcDbArc
 50
12.24720983805311
 51
47.75279016194685
  0
ARC
  5
108
330
1F
100
AcDbEntity
  8
1
  6
________________
 62
     7
370
     0
100
AcDbCircle
 10
59.16666666666666
 20
-142.5
 30
0.0
 40
8.400000000000023
100
AcDbArc
 50
72.24720983805291
 51
107.7527901619471
  0
ARC
  5
109
330
1F
100
AcDbEntity
  8
1
  6
________________
 62
     7
370
     0
100
AcDbCircle
 10
59.16666666666666
 20
-142.5
 30
0.0
 40
8.400000000000018
100
AcDbArc
 50
132.2472098380529
 51
167.7527901619471
  0
ARC
  5
10A
330
1F
100
AcDbEntity
  8
1
  6
________________
 62
     7
370
     0
100
AcDbCircle
 10
59.16666666666666
 20
-142.5
 30
0.0
 40
8.4
100
AcDbArc
 50
192.2472098380532
 51
227.752790161947
  0
ARC
  5
10B
330
1F
100
AcDbEntity
  8
1
  6
________________
 62
     7
370
     0
100
AcDbCircle
 10
59.16666666666666
 20
-142.5
 30
0.0
 40
8.400000000000006
100
AcDbArc
 50
252.2472098380533
 51
270.0
  0
MTEXT
  5
10C
330
1F
100
AcDbEntity
  8
1
 62
     7
100
AcDbMText
 10
179.9334545454546
 20
-214.4287878787879
 30
0.0
 40
6.0
 41
0.0
 46
0.0
 71
     1
 72
     1
  1
{\FＭＳ ゴシック;MWP-80M}
 73
     1
 44
1.0
  0
LINE
  5
10D
330
1F
100
AcDbEntity
  8
1
  6
______....__....
 62
     1
420
 16711680
370
     0
100
AcDbLine
 10
276.8333333333334
 20
-142.5
 30
0.0
 11
374.8333333333334
 21
-142.5
 31
0.0
  0
LINE
  5
10F
330
1F
100
AcDbEntity
  8
1
  6
______....__....
 62
     1
420
 16711680
370
     0
100
AcDbLine
 10
325.8333333333334
 20
-191.5
 30
0.0
 11
325.8333333333334
 21
-93.50000000000003
 31
0.0
  0
LINE
  5
110
330
1F
100
AcDbEntity
  8
1
  6
______....__....
 62
     1
420
 16711680
370
     0
100
AcDbLine
 10
10.16666666666669
 20
-142.5
 30
0.0
 11
108.1666666666667
 21
-142.5
 31
0.0
  0
LINE
  5
111
330
1F
100
AcDbEntity
  8
1
  6
______....__....
 62
     1
420
 16711680
370
     0
100
AcDbLine
 10
59.16666666666667
 20
-191.5
 30
0.0
 11
59.16666666666667
 21
-93.50000000000003
 31
0.0
  0
ENDSEC
  0
SECTION
  2
OBJECTS
  0
DICTIONARY
  5
C
330
0
100
AcDbDictionary
281
     1
  3
ACAD_GROUP
350
D
  3
ACAD_LAYOUT
350
1A
  3
ACAD_MLEADERSTYLE
350
113
  3
ACAD_MLINESTYLE
350
17
  3
ACAD_PLOTSETTINGS
350
19
  3
ACAD_PLOTSTYLENAME
350
E
  3
ACAD_TABLESTYLE
350
112
  3
ACAD_VISUALSTYLE
350
2A
  0
DICTIONARY
  5
D
102
{ACAD_REACTORS
330
C
102
}
330
C
100
AcDbDictionary
281
     1
  0
DICTIONARY
  5
1A
102
{ACAD_REACTORS
330
C
102
}
330
C
100
AcDbDictionary
281
     1
  3
Layout1
350
1E
  3
Layout2
350
26
  3
Model
350
22
  0
DICTIONARY
  5
113
102
{ACAD_REACTORS
330
C
102
}
330
C
100
AcDbDictionary
281
     1
  0
DICTIONARY
  5
17
102
{ACAD_REACTORS
330
C
102
}
330
C
100
AcDbDictionary
281
     1
  3
Standard
350
18
  0
DICTIONARY
  5
19
102
{ACAD_REACTORS
330
C
102
}
330
C
100
AcDbDictionary
281
     1
  0
ACDBDICTIONARYWDFLT
  5
E
102
{ACAD_REACTORS
330
C
102
}
330
C
100
AcDbDictionary
281
     1
  3
Normal
350
F
100
AcDbDictionaryWithDefault
340
F
  0
DICTIONARY
  5
112
102
{ACAD_REACTORS
330
C
102
}
330
C
100
AcDbDictionary
281
     1
  0
DICTIONARY
  5
2A
102
{ACAD_REACTORS
330
C
102
}
330
C
100
AcDbDictionary
281
     1
  3
2dWireframe
350
2F
  3
3D Hidden
350
31
  3
3dWireframe
350
30
  3
Basic
350
32
  3
Brighten
350
36
  3
ColorChange
350
3A
  3
Conceptual
350
34
  3
Dim
350
35
  3
Facepattern
350
39
  3
Flat
350
2B
  3
FlatWithEdges
350
2C
  3
Gouraud
350
2D
  3
GouraudWithEdges
350
2E
  3
Linepattern
350
38
  3
Realistic
350
33
  3
Thicken
350
37
  0
LAYOUT
  5
1E
102
{ACAD_REACTORS
330
1A
102
}
330
1A
100
AcDbPlotSettings
  1

  2
none_device
  4

  6

 40
0.0
 41
0.0
 42
0.0
 43
0.0
 44
0.0
 45
0.0
 46
0.0
 47
0.0
 48
0.0
 49
0.0
140
0.0
141
0.0
142
1.0
143
1.0
 70
   688
 72
     0
 73
     0
 74
     5
  7

 75
    16
 76
     0
 77
     2
 78
   300
147
1.0
148
0.0
149
0.0
100
AcDbLayout
  1
Layout1
 70
     1
 71
     1
 10
0.0
 20
0.0
 11
12.0
 21
9.0
 12
0.0
 22
0.0
 32
0.0
 14
1.000000000000000E+20
 24
1.000000000000000E+20
 34
1.000000000000000E+20
 15
-1.000000000000000E+20
 25
-1.000000000000000E+20
 35
-1.000000000000000E+20
146
0.0
 13
0.0
 23
0.0
 33
0.0
 16
1.0
 26
0.0
 36
0.0
 17
0.0
 27
1.0
 37
0.0
 76
     0
330
1B
  0
LAYOUT
  5
26
102
{ACAD_REACTORS
330
1A
102
}
330
1A
100
AcDbPlotSettings
  1

  2
none_device
  4

  6

 40
0.0
 41
0.0
 42
0.0
 43
0.0
 44
0.0
 45
0.0
 46
0.0
 47
0.0
 48
0.0
 49
0.0
140
0.0
141
0.0
142
1.0
143
1.0
 70
   688
 72
     0
 73
     0
 74
     5
  7

 75
    16
 76
     0
 77
     2
 78
   300
147
1.0
148
0.0
149
0.0
100
AcDbLayout
  1
Layout2
 70
     1
 71
     2
 10
0.0
 20
0.0
 11
0.0
 21
0.0
 12
0.0
 22
0.0
 32
0.0
 14
0.0
 24
0.0
 34
0.0
 15
0.0
 25
0.0
 35
0.0
146
0.0
 13
0.0
 23
0.0
 33
0.0
 16
1.0
 26
0.0
 36
0.0
 17
0.0
 27
1.0
 37
0.0
 76
     0
330
23
  0
LAYOUT
  5
22
102
{ACAD_REACTORS
330
1A
102
}
330
1A
100
AcDbPlotSettings
  1

  2
none_device
  4

  6

 40
0.0
 41
0.0
 42
0.0
 43
0.0
 44
0.0
 45
0.0
 46
0.0
 47
0.0
 48
0.0
 49
0.0
140
0.0
141
0.0
142
1.0
143
1.0
 70
  1712
 72
     0
 73
     0
 74
     0
  7

 75
     0
 76
     0
 77
     2
 78
   300
147
1.0
148
0.0
149
0.0
100
AcDbLayout
  1
Model
 70
     1
 71
     0
 10
0.0
 20
0.0
 11
12.0
 21
9.0
 12
0.0
 22
0.0
 32
0.0
 14
0.0
 24
-219.7469696969697
 34
0.0
 15
374.8333333333334
 25
10.0
 35
10.0
146
0.0
 13
0.0
 23
0.0
 33
0.0
 16
1.0
 26
0.0
 36
0.0
 17
0.0
 27
1.0
 37
0.0
 76
     0
330
1F
331
29
  0
MLINESTYLE
  5
18
102
{ACAD_REACTORS
330
17
102
}
330
17
100
AcDbMlineStyle
  2
Standard
 70
     0
  3

 62
   256
 51
90.0
 52
90.0
 71
     2
 49
0.5
 62
   256
  6
BYLAYER
 49
-0.5
 62
   256
  6
BYLAYER
  0
ACDBPLACEHOLDER
  5
F
102
{ACAD_REACTORS
330
E
102
}
330
E
  0
VISUALSTYLE
  5
2F
102
{ACAD_REACTORS
330
2A
102
}
330
2A
100
AcDbVisualStyle
  2
2dWireframe
 70
     4
 71
     0
 72
     2
 73
     0
 90
        0
 40
-0.6
 41
-30.0
 62
     5
 63
     7
421
 16777215
 74
     1
 91
        4
 64
     7
 65
   257
 75
     1
175
     1
 42
1.0
 92
        0
 66
   257
 43
1.0
 76
     1
 77
     6
 78
     2
 67
     7
 79
     5
170
     0
171
     0
290
     0
174
     0
 93
        1
 44
0.0
173
     0
291
     0
 45
0.0
  0
VISUALSTYLE
  5
31
102
{ACAD_REACTORS
330
2A
102
}
330
2A
100
AcDbVisualStyle
  2
3D Hidden
 70
     6
 71
     1
 72
     2
 73
     2
 90
        0
 40
-0.6
 41
-30.0
 62
     5
 63
     7
421
 16777215
 74
     2
 91
        2
 64
     7
 65
   257
 75
     2
175
     1
 42
40.0
 92
        0
 66
   257
 43
1.0
 76
     1
 77
     6
 78
     2
 67
     7
 79
     3
170
     0
171
     0
290
     0
174
     0
 93
        1
 44
0.0
173
     0
291
     0
 45
0.0
  0
VISUALSTYLE
  5
30
102
{ACAD_REACTORS
330
2A
102
}
330
2A
100
AcDbVisualStyle
  2
3dWireframe
 70
     5
 71
     0
 72
     2
 73
     0
 90
        0
 40
-0.6
 41
-30.0
 62
     5
 63
     7
421
 16777215
 74
     1
 91
        4
 64
     7
 65
   257
 75
     1
175
     1
 42
1.0
 92
        0
 66
   257
 43
1.0
 76
     1
 77
     6
 78
     2
 67
     7
 79
     5
170
     0
171
     0
290
     0
174
     0
 93
        1
 44
0.0
173
     0
291
     0
 45
0.0
  0
VISUALSTYLE
  5
32
102
{ACAD_REACTORS
330
2A
102
}
330
2A
100
AcDbVisualStyle
  2
Basic
 70
     7
 71
     1
 72
     0
 73
     1
 90
        0
 40
-0.6
 41
-30.0
 62
     5
 63
     7
421
 16777215
 74
     0
 91
        4
 64
     7
 65
   257
 75
     1
175
     1
 42
1.0
 92
        8
 66
     7
 43
1.0
 76
     1
 77
     6
 78
     2
 67
     7
 79
     5
170
     0
171
     0
290
     0
174
     0
 93
        1
 44
0.0
173
     0
291
     1
 45
0.0
  0
VISUALSTYLE
  5
36
102
{ACAD_REACTORS
330
2A
102
}
330
2A
100
AcDbVisualStyle
  2
Brighten
 70
    12
 71
     2
 72
     2
 73
     0
 90
        0
 40
-0.6
 41
-30.0
 62
     5
 63
     7
421
 16777215
 74
     1
 91
        4
 64
     7
 65
   257
 75
     1
175
     1
 42
1.0
 92
        8
 66
     7
 43
1.0
 76
     1
 77
     6
 78
     2
 67
     7
 79
     5
170
     0
171
     0
290
     0
174
     0
 93
        1
 44
50.0
173
     0
291
     1
 45
0.0
  0
VISUALSTYLE
  5
3A
102
{ACAD_REACTORS
330
2A
102
}
330
2A
100
AcDbVisualStyle
  2
ColorChange
 70
    16
 71
     2
 72
     2
 73
     3
 90
        0
 40
-0.6
 41
-30.0
 62
     5
 63
     8
421
  8421504
 74
     1
 91
        4
 64
     7
 65
   257
 75
     1
175
     1
 42
1.0
 92
        8
 66
     8
424
  8421504
 43
1.0
 76
     1
 77
     6
 78
     2
 67
     7
 79
     5
170
     0
171
     0
290
     0
174
     0
 93
        1
 44
0.0
173
     0
291
     1
 45
0.0
  0
VISUALSTYLE
  5
34
102
{ACAD_REACTORS
330
2A
102
}
330
2A
100
AcDbVisualStyle
  2
Conceptual
 70
     9
 71
     3
 72
     2
 73
     0
 90
        0
 40
-0.6
 41
-30.0
 62
     5
 63
     7
421
 16777215
 74
     2
 91
        2
 64
     7
 65
   257
 75
     1
175
     1
 42
40.0
 92
        8
 66
     7
 43
1.0
 76
     1
 77
     6
 78
     2
 67
     7
 79
     3
170
     0
171
     0
290
     0
174
     0
 93
        1
 44
0.0
173
     0
291
     0
 45
0.0
  0
VISUALSTYLE
  5
35
102
{ACAD_REACTORS
330
2A
102
}
330
2A
100
AcDbVisualStyle
  2
Dim
 70
    11
 71
     2
 72
     2
 73
     0
 90
        0
 40
-0.6
 41
-30.0
 62
     5
 63
     7
421
 16777215
 74
     1
 91
        4
 64
     7
 65
   257
 75
     1
175
     1
 42
1.0
 92
        8
 66
     7
 43
1.0
 76
     1
 77
     6
 78
     2
 67
     7
 79
     5
170
     0
171
     0
290
     0
174
     0
 93
        1
 44
-50.0
173
     0
291
     1
 45
0.0
  0
VISUALSTYLE
  5
39
102
{ACAD_REACTORS
330
2A
102
}
330
2A
100
AcDbVisualStyle
  2
Facepattern
 70
    15
 71
     2
 72
     2
 73
     0
 90
        0
 40
-0.6
 41
-30.0
 62
     5
 63
     7
421
 16777215
 74
     1
 91
        4
 64
     7
 65
   257
 75
     1
175
     1
 42
1.0
 92
        8
 66
     7
 43
1.0
 76
     1
 77
     6
 78
     2
 67
     7
 79
     5
170
     0
171
     0
290
     0
174
     0
 93
        1
 44
0.0
173
     0
291
     1
 45
0.0
  0
VISUALSTYLE
  5
2B
102
{ACAD_REACTORS
330
2A
102
}
330
2A
100
AcDbVisualStyle
  2
Flat
 70
     0
 71
     2
 72
     1
 73
     1
 90
        2
 40
-0.6
 41
30.0
 62
     5
 63
     7
421
 16777215
 74
     0
 91
        4
 64
     7
 65
   257
 75
     1
175
     1
 42
1.0
 92
        8
 66
     7
 43
1.0
 76
     1
 77
     6
 78
     2
 67
     7
 79
     5
170
     0
171
     0
290
     0
174
     0
 93
       13
 44
0.0
173
     0
291
     1
 45
0.0
  0
VISUALSTYLE
  5
2C
102
{ACAD_REACTORS
330
2A
102
}
330
2A
100
AcDbVisualStyle
  2
FlatWithEdges
 70
     1
 71
     2
 72
     1
 73
     1
 90
        2
 40
-0.6
 41
30.0
 62
     5
 63
     7
421
 16777215
 74
     1
 91
        4
 64
     7
 65
   257
 75
     1
175
     1
 42
1.0
 92
        0
 66
   257
 43
1.0
 76
     1
 77
     6
 78
     2
 67
     7
 79
     5
170
     0
171
     0
290
     0
174
     0
 93
       13
 44
0.0
173
     0
291
     1
 45
0.0
  0
VISUALSTYLE
  5
2D
102
{ACAD_REACTORS
330
2A
102
}
330
2A
100
AcDbVisualStyle
  2
Gouraud
 70
     2
 71
     2
 72
     2
 73
     1
 90
        2
 40
-0.6
 41
30.0
 62
     5
 63
     7
421
 16777215
 74
     0
 91
        4
 64
     7
 65
   257
 75
     1
175
     1
 42
1.0
 92
        0
 66
     7
 43
1.0
 76
     1
 77
     6
 78
     2
 67
     7
 79
     5
170
     0
171
     0
290
     0
174
     0
 93
       13
 44
0.0
173
     0
291
     1
 45
0.0
  0
VISUALSTYLE
  5
2E
102
{ACAD_REACTORS
330
2A
102
}
330
2A
100
AcDbVisualStyle
  2
GouraudWithEdges
 70
     3
 71
     2
 72
     2
 73
     1
 90
        2
 40
-0.6
 41
30.0
 62
     5
 63
     7
421
 16777215
 74
     1
 91
        4
 64
     7
 65
   257
 75
     1
175
     1
 42
1.0
 92
        0
 66
   257
 43
1.0
 76
     1
 77
     6
 78
     2
 67
     7
 79
     5
170
     0
171
     0
290
     0
174
     0
 93
       13
 44
0.0
173
     0
291
     1
 45
0.0
  0
VISUALSTYLE
  5
38
102
{ACAD_REACTORS
330
2A
102
}
330
2A
100
AcDbVisualStyle
  2
Linepattern
 70
    14
 71
     2
 72
     2
 73
     0
 90
        0
 40
-0.6
 41
-30.0
 62
     5
 63
     7
421
 16777215
 74
     1
 91
        4
 64
     7
 65
   257
 75
     7
175
     7
 42
1.0
 92
        8
 66
     7
 43
1.0
 76
     1
 77
     6
 78
     2
 67
     7
 79
     5
170
     0
171
     0
290
     0
174
     0
 93
        1
 44
0.0
173
     0
291
     1
 45
0.0
  0
VISUALSTYLE
  5
33
102
{ACAD_REACTORS
330
2A
102
}
330
2A
100
AcDbVisualStyle
  2
Realistic
 70
     8
 71
     2
 72
     2
 73
     0
 90
        0
 40
-0.6
 41
-30.0
 62
     5
 63
     7
421
 16777215
 74
     1
 91
        0
 64
     7
 65
   257
 75
     1
175
     1
 42
1.0
 92
        8
 66
     8
424
  7895160
 43
1.0
 76
     1
 77
     6
 78
     2
 67
     7
 79
     5
170
     0
171
     0
290
     0
174
     0
 93
       13
 44
0.0
173
     0
291
     0
 45
0.0
  0
VISUALSTYLE
  5
37
102
{ACAD_REACTORS
330
2A
102
}
330
2A
100
AcDbVisualStyle
  2
Thicken
 70
    13
 71
     2
 72
     2
 73
     0
 90
        0
 40
-0.6
 41
-30.0
 62
     5
 63
     7
421
 16777215
 74
     1
 91
        4
 64
     7
 65
   257
 75
     1
175
     1
 42
1.0
 92
       12
 66
     7
 43
1.0
 76
     1
 77
     6
 78
     2
 67
     7
 79
     5
170
     0
171
     0
290
     0
174
     0
 93
        1
 44
0.0
173
     0
291
     1
 45
0.0
  0
ENDSEC
  0
EOF
