  0
SECTION
  2
HEADER
  9
$ACADVER
  1
AC1021
  9
$ACADMAINTVER
 70
    25
  9
$DWGCODEPAGE
  3
ANSI_932
  9
$INSBASE
 10
0.0
 20
0.0
 30
0.0
  9
$EXTMIN
 10
706.6720066769
 20
-378.314606
 30
0.0
  9
$EXTMAX
 10
1436.8113537793
 20
-221.8812313877
 30
0.0
  9
$LIMMIN
 10
0.0
 20
0.0
  9
$LIMMAX
 10
12.0
 20
9.0
  9
$ORTHOMODE
 70
     0
  9
$REGENMODE
 70
     1
  9
$FILLMODE
 70
     1
  9
$QTEXTMODE
 70
     0
  9
$MIRRTEXT
 70
     1
  9
$LTSCALE
 40
1.0
  9
$ATTMODE
 70
     1
  9
$TEXTSIZE
 40
0.2
  9
$TRACEWID
 40
0.05
  9
$TEXTSTYLE
  7
Standard
  9
$CLAYER
  8
0
  9
$CELTYPE
  6
ByLayer
  9
$CECOLOR
 62
   256
  9
$CELTSCALE
 40
1.0
  9
$DISPSILH
 70
     0
  9
$DIMSCALE
 40
1.0
  9
$DIMASZ
 40
3.0
  9
$DIMEXO
 40
0.0625
  9
$DIMDLI
 40
0.38
  9
$DIMRND
 40
0.0
  9
$DIMDLE
 40
0.0
  9
$DIMEXE
 40
0.18
  9
$DIMTP
 40
0.0
  9
$DIMTM
 40
0.0
  9
$DIMTXT
 40
3.5
  9
$DIMCEN
 40
0.09
  9
$DIMTSZ
 40
0.0
  9
$DIMTOL
 70
     0
  9
$DIMLIM
 70
     0
  9
$DIMTIH
 70
     1
  9
$DIMTOH
 70
     1
  9
$DIMSE1
 70
     0
  9
$DIMSE2
 70
     0
  9
$DIMTAD
 70
     1
  9
$DIMZIN
 70
     0
  9
$DIMBLK
  1

  9
$DIMASO
 70
     1
  9
$DIMSHO
 70
     1
  9
$DIMPOST
  1

  9
$DIMAPOST
  1

  9
$DIMALT
 70
     0
  9
$DIMALTD
 70
     2
  9
$DIMALTF
 40
25.4
  9
$DIMLFAC
 40
1.0
  9
$DIMTOFL
 70
     0
  9
$DIMTVP
 40
0.0
  9
$DIMTIX
 70
     0
  9
$DIMSOXD
 70
     0
  9
$DIMSAH
 70
     0
  9
$DIMBLK1
  1

  9
$DIMBLK2
  1

  9
$DIMSTYLE
  2
Standard
  9
$DIMCLRD
 70
     0
  9
$DIMCLRE
 70
     0
  9
$DIMCLRT
 70
     0
  9
$DIMTFAC
 40
1.0
  9
$DIMGAP
 40
0.09
  9
$DIMJUST
 70
     0
  9
$DIMSD1
 70
     0
  9
$DIMSD2
 70
     0
  9
$DIMTOLJ
 70
     1
  9
$DIMTZIN
 70
     0
  9
$DIMALTZ
 70
     0
  9
$DIMALTTZ
 70
     0
  9
$DIMUPT
 70
     0
  9
$DIMDEC
 70
     2
  9
$DIMTDEC
 70
     4
  9
$DIMALTU
 70
     2
  9
$DIMALTTD
 70
     2
  9
$DIMTXSTY
  7
Standard
  9
$DIMAUNIT
 70
     0
  9
$DIMADEC
 70
     2
  9
$DIMALTRND
 40
0.0
  9
$DIMAZIN
 70
     0
  9
$DIMDSEP
 70
    46
  9
$DIMATFIT
 70
     3
  9
$DIMFRAC
 70
     0
  9
$DIMLDRBLK
  1

  9
$DIMLUNIT
 70
     2
  9
$DIMLWD
 70
    -2
  9
$DIMLWE
 70
    -2
  9
$DIMTMOVE
 70
     0
  9
$DIMFXL
 40
1.0
  9
$DIMFXLON
 70
     0
  9
$DIMJOGANG
 40
0.7853981633974483
  9
$DIMTFILL
 70
     0
  9
$DIMTFILLCLR
 70
     0
  9
$DIMARCSYM
 70
     0
  9
$DIMLTYPE
  6

  9
$DIMLTEX1
  6

  9
$DIMLTEX2
  6

  9
$LUNITS
 70
     2
  9
$LUPREC
 70
     4
  9
$SKETCHINC
 40
0.1
  9
$FILLETRAD
 40
0.5
  9
$AUNITS
 70
     0
  9
$AUPREC
 70
     0
  9
$MENU
  1
.
  9
$ELEVATION
 40
0.0
  9
$PELEVATION
 40
0.0
  9
$THICKNESS
 40
0.0
  9
$LIMCHECK
 70
     0
  9
$CHAMFERA
 40
0.5
  9
$CHAMFERB
 40
0.5
  9
$CHAMFERC
 40
1.0
  9
$CHAMFERD
 40
0.0
  9
$SKPOLY
 70
     0
  9
$TDCREATE
 40
2458620.725088912
  9
$TDUCREATE
 40
2458620.350088912
  9
$TDUPDATE
 40
2458620.725088924
  9
$TDUUPDATE
 40
2458620.350088924
  9
$TDINDWG
 40
0.0000000116
  9
$TDUSRTIMER
 40
0.0000000116
  9
$USRTIMER
 70
     1
  9
$ANGBASE
 50
0.0
  9
$ANGDIR
 70
     0
  9
$PDMODE
 70
     0
  9
$PDSIZE
 40
0.0
  9
$PLINEWID
 40
0.0
  9
$SPLFRAME
 70
     0
  9
$SPLINETYPE
 70
     6
  9
$SPLINESEGS
 70
     8
  9
$HANDSEED
  5
1E6
  9
$SURFTAB1
 70
     6
  9
$SURFTAB2
 70
     6
  9
$SURFTYPE
 70
     6
  9
$SURFU
 70
     6
  9
$SURFV
 70
     6
  9
$UCSBASE
  2

  9
$UCSNAME
  2

  9
$UCSORG
 10
0.0
 20
0.0
 30
0.0
  9
$UCSXDIR
 10
1.0
 20
0.0
 30
0.0
  9
$UCSYDIR
 10
0.0
 20
1.0
 30
0.0
  9
$UCSORTHOREF
  2

  9
$UCSORTHOVIEW
 70
     0
  9
$UCSORGTOP
 10
0.0
 20
0.0
 30
0.0
  9
$UCSORGBOTTOM
 10
0.0
 20
0.0
 30
0.0
  9
$UCSORGLEFT
 10
0.0
 20
0.0
 30
0.0
  9
$UCSORGRIGHT
 10
0.0
 20
0.0
 30
0.0
  9
$UCSORGFRONT
 10
0.0
 20
0.0
 30
0.0
  9
$UCSORGBACK
 10
0.0
 20
0.0
 30
0.0
  9
$PUCSBASE
  2

  9
$PUCSNAME
  2

  9
$PUCSORG
 10
0.0
 20
0.0
 30
0.0
  9
$PUCSXDIR
 10
1.0
 20
0.0
 30
0.0
  9
$PUCSYDIR
 10
0.0
 20
1.0
 30
0.0
  9
$PUCSORTHOREF
  2

  9
$PUCSORTHOVIEW
 70
     0
  9
$PUCSORGTOP
 10
0.0
 20
0.0
 30
0.0
  9
$PUCSORGBOTTOM
 10
0.0
 20
0.0
 30
0.0
  9
$PUCSORGLEFT
 10
0.0
 20
0.0
 30
0.0
  9
$PUCSORGRIGHT
 10
0.0
 20
0.0
 30
0.0
  9
$PUCSORGFRONT
 10
0.0
 20
0.0
 30
0.0
  9
$PUCSORGBACK
 10
0.0
 20
0.0
 30
0.0
  9
$USERI1
 70
     0
  9
$USERI2
 70
     0
  9
$USERI3
 70
     0
  9
$USERI4
 70
     0
  9
$USERI5
 70
     0
  9
$USERR1
 40
0.0
  9
$USERR2
 40
0.0
  9
$USERR3
 40
0.0
  9
$USERR4
 40
0.0
  9
$USERR5
 40
0.0
  9
$WORLDVIEW
 70
     1
  9
$SHADEDGE
 70
     3
  9
$SHADEDIF
 70
    70
  9
$TILEMODE
 70
     1
  9
$MAXACTVP
 70
    64
  9
$PINSBASE
 10
0.0
 20
0.0
 30
0.0
  9
$PLIMCHECK
 70
     0
  9
$PEXTMIN
 10
1.000000000000000E+20
 20
1.000000000000000E+20
 30
1.000000000000000E+20
  9
$PEXTMAX
 10
-1.000000000000000E+20
 20
-1.000000000000000E+20
 30
-1.000000000000000E+20
  9
$PLIMMIN
 10
0.0
 20
0.0
  9
$PLIMMAX
 10
12.0
 20
9.0
  9
$UNITMODE
 70
     0
  9
$VISRETAIN
 70
     1
  9
$PLINEGEN
 70
     0
  9
$PSLTSCALE
 70
     1
  9
$TREEDEPTH
 70
  3020
  9
$CMLSTYLE
  2
Standard
  9
$CMLJUST
 70
     0
  9
$CMLSCALE
 40
1.0
  9
$PROXYGRAPHICS
 70
     1
  9
$MEASUREMENT
 70
     1
  9
$CELWEIGHT
370
    -1
  9
$ENDCAPS
280
     0
  9
$JOINSTYLE
280
     0
  9
$LWDISPLAY
290
     1
  9
$INSUNITS
 70
     4
  9
$HYPERLINKBASE
  1

  9
$STYLESHEET
  1

  9
$XEDIT
290
     1
  9
$CEPSNTYPE
380
     0
  9
$PSTYLEMODE
290
     1
  9
$FINGERPRINTGUID
  2
{4AB29A0E-B26D-46C9-B2D3-041A4F84A169}
  9
$VERSIONGUID
  2
{FAEB1C32-E019-11D5-929B-00C0DF256EC4}
  9
$EXTNAMES
290
     1
  9
$PSVPSCALE
 40
0.0
  9
$OLESTARTUP
290
     0
  9
$SORTENTS
280
   127
  9
$INDEXCTL
280
     0
  9
$HIDETEXT
280
     1
  9
$XCLIPFRAME
290
     0
  9
$HALOGAP
280
     0
  9
$OBSCOLOR
 70
   257
  9
$OBSLTYPE
280
     0
  9
$INTERSECTIONDISPLAY
280
     0
  9
$INTERSECTIONCOLOR
 70
   257
  9
$DIMASSOC
280
     2
  9
$PROJECTNAME
  1

  9
$CAMERADISPLAY
290
     0
  9
$LENSLENGTH
 40
50.0
  9
$CAMERAHEIGHT
 40
0.0
  9
$STEPSPERSEC
 40
2.0
  9
$STEPSIZE
 40
6.0
  9
$3DDWFPREC
 40
2.0
  9
$PSOLWIDTH
 40
0.25
  9
$PSOLHEIGHT
 40
4.0
  9
$LOFTANG1
 40
1.570796326794897
  9
$LOFTANG2
 40
1.570796326794897
  9
$LOFTMAG1
 40
0.0
  9
$LOFTMAG2
 40
0.0
  9
$LOFTPARAM
 70
     7
  9
$LOFTNORMALS
280
     1
  9
$LATITUDE
 40
37.795
  9
$LONGITUDE
 40
-122.394
  9
$NORTHDIRECTION
 40
0.0
  9
$TIMEZONE
 70
 -8000
  9
$LIGHTGLYPHDISPLAY
280
     1
  9
$TILEMODELIGHTSYNCH
280
     1
  9
$SOLIDHIST
280
     1
  9
$SHOWHIST
280
     1
  9
$DWFFRAME
280
     2
  9
$DGNFRAME
280
     2
  9
$REALWORLDSCALE
290
     1
  9
$INTERFERECOLOR
 62
   256
  9
$CSHADOW
280
     0
  9
$SHADOWPLANELOCATION
 40
0.0
  0
ENDSEC
  0
SECTION
  2
CLASSES
  0
CLASS
  1
ACDBDICTIONARYWDFLT
  2
AcDbDictionaryWithDefault
  3
ObjectDBX Classes
 90
        0
 91
        4
280
     0
281
     0
  0
CLASS
  1
VISUALSTYLE
  2
AcDbVisualStyle
  3
ObjectDBX Classes
 90
     4095
 91
        4
280
     0
281
     0
  0
ENDSEC
  0
SECTION
  2
TABLES
  0
TABLE
  2
VPORT
  5
8
330
0
100
AcDbSymbolTable
 70
     1
  0
VPORT
  5
29
330
8
100
AcDbSymbolTableRecord
100
AcDbViewportTableRecord
  2
*Active
 70
     0
 10
0.0
 20
0.0
 11
1.0
 21
1.0
 12
1071.7416802281
 22
-300.09791869385
 13
0.0
 23
0.0
 14
0.5
 24
0.5
 15
0.5
 25
0.5
 16
0.0
 26
0.0
 36
1.0
 17
0.0
 27
0.0
 37
0.0
 40
156.4333746123
 41
1.6
 42
50.0
 43
0.0
 44
0.0
 50
0.0
 51
0.0
 71
     0
 72
   100
 73
     1
 74
     3
 75
     0
 76
     0
 77
     0
 78
     0
281
     0
 65
     1
110
0.0
120
0.0
130
0.0
111
1.0
121
0.0
131
0.0
112
0.0
122
1.0
132
0.0
 79
     0
146
0.0
 60
     3
 61
     5
292
     1
282
     1
141
0.0
142
0.0
 63
   250
  0
ENDTAB
  0
TABLE
  2
LTYPE
  5
5
330
0
100
AcDbSymbolTable
 70
     3
  0
LTYPE
  5
14
330
5
100
AcDbSymbolTableRecord
100
AcDbLinetypeTableRecord
  2
ByBlock
 70
     0
  3

 72
    65
 73
     0
 40
0.0
  0
LTYPE
  5
15
330
5
100
AcDbSymbolTableRecord
100
AcDbLinetypeTableRecord
  2
ByLayer
 70
     0
  3

 72
    65
 73
     0
 40
0.0
  0
LTYPE
  5
16
330
5
100
AcDbSymbolTableRecord
100
AcDbLinetypeTableRecord
  2
Continuous
 70
     0
  3
Solid line
 72
    65
 73
     0
 40
0.0
  0
LTYPE
  5
3D
330
5
100
AcDbSymbolTableRecord
100
AcDbLinetypeTableRecord
  2
________________
 70
     0
  3

 72
    65
 73
     0
 40
0.0
  0
LTYPE
  5
40
330
5
100
AcDbSymbolTableRecord
100
AcDbLinetypeTableRecord
  2
________...._...
 70
     0
  3

 72
    65
 73
     4
 40
6.0000000300003
 49
3.0
 74
     0
 49
-1.5
 74
     0
 49
0.0000000300003
 74
     0
 49
-1.5
 74
     0
  0
ENDTAB
  0
TABLE
  2
LAYER
  5
2
330
0
100
AcDbSymbolTable
 70
     2
  0
LAYER
  5
10
330
2
100
AcDbSymbolTableRecord
100
AcDbLayerTableRecord
  2
0
 70
     0
 62
     7
  6
Continuous
370
    -3
390
F
347
0
  0
LAYER
  5
3B
330
2
100
AcDbSymbolTableRecord
100
AcDbLayerTableRecord
  2
1
 70
     0
 62
     7
  6
Continuous
370
    -3
390
F
347
0
  0
ENDTAB
  0
TABLE
  2
STYLE
  5
3
330
0
100
AcDbSymbolTable
 70
     1
  0
STYLE
  5
11
330
3
100
AcDbSymbolTableRecord
100
AcDbTextStyleTableRecord
  2
Standard
 70
     0
 40
0.0
 41
1.0
 50
0.0
 71
     0
 42
0.2
  3
txt
  4

  0
ENDTAB
  0
TABLE
  2
VIEW
  5
6
330
0
100
AcDbSymbolTable
 70
     0
  0
ENDTAB
  0
TABLE
  2
UCS
  5
7
330
0
100
AcDbSymbolTable
 70
     0
  0
ENDTAB
  0
TABLE
  2
APPID
  5
9
330
0
100
AcDbSymbolTable
 70
     1
  0
APPID
  5
12
330
9
100
AcDbSymbolTableRecord
100
AcDbRegAppTableRecord
  2
ACAD
 70
     0
  0
ENDTAB
  0
TABLE
  2
DIMSTYLE
  5
A
330
0
100
AcDbSymbolTable
 70
     1
100
AcDbDimStyleTable
  0
DIMSTYLE
105
27
330
A
100
AcDbSymbolTableRecord
100
AcDbDimStyleTableRecord
  2
Standard
 70
     0
340
11
  0
ENDTAB
  0
TABLE
  2
BLOCK_RECORD
  5
1
330
0
100
AcDbSymbolTable
 70
     1
  0
BLOCK_RECORD
  5
1F
330
1
100
AcDbSymbolTableRecord
100
AcDbBlockTableRecord
  2
*Model_Space
340
22
 70
     0
280
     1
281
     0
  0
BLOCK_RECORD
  5
1B
330
1
100
AcDbSymbolTableRecord
100
AcDbBlockTableRecord
  2
*Paper_Space
340
1E
 70
     0
280
     1
281
     0
  0
BLOCK_RECORD
  5
23
330
1
100
AcDbSymbolTableRecord
100
AcDbBlockTableRecord
  2
*Paper_Space0
340
26
 70
     0
280
     1
281
     0
  0
ENDTAB
  0
ENDSEC
  0
SECTION
  2
BLOCKS
  0
BLOCK
  5
20
330
1F
100
AcDbEntity
  8
0
100
AcDbBlockBegin
  2
*Model_Space
 70
     0
 10
0.0
 20
0.0
 30
0.0
  3
*Model_Space
  1

  0
ENDBLK
  5
21
330
1F
100
AcDbEntity
  8
0
100
AcDbBlockEnd
  0
BLOCK
  5
1C
330
1B
100
AcDbEntity
 67
     1
  8
0
100
AcDbBlockBegin
  2
*Paper_Space
 70
     0
 10
0.0
 20
0.0
 30
0.0
  3
*Paper_Space
  1

  0
ENDBLK
  5
1D
330
1B
100
AcDbEntity
 67
     1
  8
0
100
AcDbBlockEnd
  0
BLOCK
  5
24
330
23
100
AcDbEntity
  8
0
100
AcDbBlockBegin
  2
*Paper_Space0
 70
     0
 10
0.0
 20
0.0
 30
0.0
  3
*Paper_Space0
  1

  0
ENDBLK
  5
25
330
23
100
AcDbEntity
  8
0
100
AcDbBlockEnd
  0
ENDSEC
  0
SECTION
  2
ENTITIES
  0
LINE
  5
3C
330
1F
100
AcDbEntity
  8
1
  6
________________
 62
     7
370
     9
100
AcDbLine
 10
1133.7326791445
 20
-233.1348068304
 30
0.0
 11
1133.7326791445
 21
-359.6276872634
 31
0.0
  0
LINE
  5
3E
330
1F
100
AcDbEntity
  8
1
  6
________________
 62
     7
370
     9
100
AcDbLine
 10
1119.7326791445
 20
-359.6276872634
 30
0.0
 11
1119.7326791445
 21
-233.1348068304
 31
0.0
  0
LINE
  5
3F
330
1F
100
AcDbEntity
  8
1
  6
________...._...
 62
     7
370
     9
100
AcDbLine
 10
1251.148037505
 20
-296.3812470469
 30
0.0
 11
706.6720066769
 21
-296.3812470469
 31
0.0
  0
ARC
  5
41
330
1F
100
AcDbEntity
  8
1
  6
________________
 62
     7
370
     9
100
AcDbCircle
 10
1122.7137599154
 20
-357.2711734321
 30
0.0
 40
3.8
100
AcDbArc
 50
192.5
 51
261.1763425161
  0
ARC
  5
42
330
1F
100
AcDbEntity
  8
1
  6
________________
 62
     7
370
     9
100
AcDbCircle
 10
1130.7515983736
 20
-357.2711734321
 30
0.0
 40
3.8
100
AcDbArc
 50
278.8236574839
 51
347.5
  0
ARC
  5
43
330
1F
100
AcDbEntity
  8
1
  6
________________
 62
     7
370
     9
100
AcDbCircle
 10
1126.7326791445
 20
-331.3812470469
 30
0.0
 40
30.0
100
AcDbArc
 50
261.1763425161
 51
278.8236574838999
  0
LINE
  5
44
330
1F
100
AcDbEntity
  8
1
  6
________________
 62
     7
370
     9
100
AcDbLine
 10
1117.6067179352
 20
-351.7916557418
 30
0.0
 11
1119.0038350884
 21
-358.093643965
 31
0.0
  0
ARC
  5
45
330
1F
100
AcDbEntity
  8
1
  6
________________
 62
     7
370
     9
100
AcDbCircle
 10
1115.8493851224
 20
-352.1812470469
 30
0.0
 40
1.8
100
AcDbArc
 50
12.5
 51
90.0
  0
LINE
  5
46
330
1F
100
AcDbEntity
  8
1
  6
________________
 62
     7
370
     9
100
AcDbLine
 10
1135.8586403538
 20
-351.7916557418
 30
0.0
 11
1134.4615232006
 21
-358.093643965
 31
0.0
  0
LINE
  5
47
330
1F
100
AcDbEntity
  8
1
  6
________________
 62
     7
370
     9
100
AcDbLine
 10
1142.2493851224
 20
-350.3812470469
 30
0.0
 11
1137.6159731666
 21
-350.3812470469
 31
0.0
  0
ARC
  5
48
330
1F
100
AcDbEntity
  8
1
  6
________________
 62
     7
370
     9
100
AcDbCircle
 10
1137.6159731666
 20
-352.1812470469
 30
0.0
 40
1.8
100
AcDbArc
 50
90.0
 51
167.5
  0
LINE
  5
49
330
1F
100
AcDbEntity
  8
1
  6
________________
 62
     7
370
     9
100
AcDbLine
 10
1160.1326791445
 20
-233.1348068304
 30
0.0
 11
1160.1326791445
 21
-359.6276872634
 31
0.0
  0
LINE
  5
4A
330
1F
100
AcDbEntity
  8
1
  6
________________
 62
     7
370
     9
100
AcDbLine
 10
1146.1326791445
 20
-359.6276872634
 30
0.0
 11
1146.1326791445
 21
-233.1348068304
 31
0.0
  0
ARC
  5
4B
330
1F
100
AcDbEntity
  8
1
  6
________________
 62
     7
370
     9
100
AcDbCircle
 10
1149.1137599154
 20
-357.2711734321
 30
0.0
 40
3.8
100
AcDbArc
 50
192.5
 51
261.1763425161
  0
ARC
  5
4C
330
1F
100
AcDbEntity
  8
1
  6
________________
 62
     7
370
     9
100
AcDbCircle
 10
1157.1515983736
 20
-357.2711734321
 30
0.0
 40
3.8
100
AcDbArc
 50
278.8236574839
 51
347.5
  0
ARC
  5
4D
330
1F
100
AcDbEntity
  8
1
  6
________________
 62
     7
370
     9
100
AcDbCircle
 10
1153.1326791445
 20
-331.3812470469
 30
0.0
 40
30.0
100
AcDbArc
 50
261.1763425161
 51
278.8236574838999
  0
LINE
  5
4E
330
1F
100
AcDbEntity
  8
1
  6
________________
 62
     7
370
     9
100
AcDbLine
 10
1144.0067179352
 20
-351.7916557418
 30
0.0
 11
1145.4038350884
 21
-358.093643965
 31
0.0
  0
ARC
  5
4F
330
1F
100
AcDbEntity
  8
1
  6
________________
 62
     7
370
     9
100
AcDbCircle
 10
1142.2493851224
 20
-352.1812470469
 30
0.0
 40
1.8
100
AcDbArc
 50
12.5
 51
90.0
  0
LINE
  5
50
330
1F
100
AcDbEntity
  8
1
  6
________________
 62
     7
370
     9
100
AcDbLine
 10
1162.2586403538
 20
-351.7916557418
 30
0.0
 11
1160.8615232006
 21
-358.093643965
 31
0.0
  0
LINE
  5
51
330
1F
100
AcDbEntity
  8
1
  6
________________
 62
     7
370
     9
100
AcDbLine
 10
1168.6493851224
 20
-350.3812470469
 30
0.0
 11
1164.0159731666
 21
-350.3812470469
 31
0.0
  0
ARC
  5
52
330
1F
100
AcDbEntity
  8
1
  6
________________
 62
     7
370
     9
100
AcDbCircle
 10
1164.0159731666
 20
-352.1812470469
 30
0.0
 40
1.8
100
AcDbArc
 50
90.0
 51
167.5
  0
LINE
  5
53
330
1F
100
AcDbEntity
  8
1
  6
________________
 62
     7
370
     9
100
AcDbLine
 10
1186.5326791445
 20
-233.1348068304
 30
0.0
 11
1186.5326791445
 21
-359.6276872634
 31
0.0
  0
LINE
  5
54
330
1F
100
AcDbEntity
  8
1
  6
________________
 62
     7
370
     9
100
AcDbLine
 10
1172.5326791445
 20
-359.6276872634
 30
0.0
 11
1172.5326791445
 21
-233.1348068304
 31
0.0
  0
ARC
  5
55
330
1F
100
AcDbEntity
  8
1
  6
________________
 62
     7
370
     9
100
AcDbCircle
 10
1175.5137599154
 20
-357.2711734321
 30
0.0
 40
3.8
100
AcDbArc
 50
192.5
 51
261.1763425161
  0
ARC
  5
56
330
1F
100
AcDbEntity
  8
1
  6
________________
 62
     7
370
     9
100
AcDbCircle
 10
1183.5515983736
 20
-357.2711734321
 30
0.0
 40
3.8
100
AcDbArc
 50
278.8236574839
 51
347.5
  0
ARC
  5
57
330
1F
100
AcDbEntity
  8
1
  6
________________
 62
     7
370
     9
100
AcDbCircle
 10
1179.5326791445
 20
-331.3812470469
 30
0.0
 40
30.0
100
AcDbArc
 50
261.1763425161
 51
278.8236574838999
  0
LINE
  5
58
330
1F
100
AcDbEntity
  8
1
  6
________________
 62
     7
370
     9
100
AcDbLine
 10
1170.4067179352
 20
-351.7916557418
 30
0.0
 11
1171.8038350884
 21
-358.093643965
 31
0.0
  0
ARC
  5
59
330
1F
100
AcDbEntity
  8
1
  6
________________
 62
     7
370
     9
100
AcDbCircle
 10
1168.6493851224
 20
-352.1812470469
 30
0.0
 40
1.8
100
AcDbArc
 50
12.5
 51
90.0
  0
LINE
  5
5A
330
1F
100
AcDbEntity
  8
1
  6
________________
 62
     7
370
     9
100
AcDbLine
 10
1188.6586403538
 20
-351.7916557418
 30
0.0
 11
1187.2615232006
 21
-358.093643965
 31
0.0
  0
LINE
  5
5B
330
1F
100
AcDbEntity
  8
1
  6
________________
 62
     7
370
     9
100
AcDbLine
 10
1195.0493851224
 20
-350.3812470469
 30
0.0
 11
1190.4159731666
 21
-350.3812470469
 31
0.0
  0
ARC
  5
5C
330
1F
100
AcDbEntity
  8
1
  6
________________
 62
     7
370
     9
100
AcDbCircle
 10
1190.4159731666
 20
-352.1812470469
 30
0.0
 40
1.8
100
AcDbArc
 50
90.0
 51
167.5
  0
LINE
  5
5D
330
1F
100
AcDbEntity
  8
1
  6
________________
 62
     7
370
     9
100
AcDbLine
 10
1212.9326791445
 20
-233.1348068304
 30
0.0
 11
1212.9326791445
 21
-359.6276872634
 31
0.0
  0
LINE
  5
5E
330
1F
100
AcDbEntity
  8
1
  6
________________
 62
     7
370
     9
100
AcDbLine
 10
1198.9326791445
 20
-359.6276872634
 30
0.0
 11
1198.9326791445
 21
-233.1348068304
 31
0.0
  0
ARC
  5
5F
330
1F
100
AcDbEntity
  8
1
  6
________________
 62
     7
370
     9
100
AcDbCircle
 10
1201.9137599154
 20
-357.2711734321
 30
0.0
 40
3.8
100
AcDbArc
 50
192.5
 51
261.1763425161
  0
ARC
  5
60
330
1F
100
AcDbEntity
  8
1
  6
________________
 62
     7
370
     9
100
AcDbCircle
 10
1209.9515983736
 20
-357.2711734321
 30
0.0
 40
3.8
100
AcDbArc
 50
278.8236574839
 51
347.5
  0
ARC
  5
61
330
1F
100
AcDbEntity
  8
1
  6
________________
 62
     7
370
     9
100
AcDbCircle
 10
1205.9326791445
 20
-331.3812470469
 30
0.0
 40
30.0
100
AcDbArc
 50
261.1763425161
 51
278.8236574838999
  0
LINE
  5
62
330
1F
100
AcDbEntity
  8
1
  6
________________
 62
     7
370
     9
100
AcDbLine
 10
1196.8067179352
 20
-351.7916557418
 30
0.0
 11
1198.2038350884
 21
-358.093643965
 31
0.0
  0
ARC
  5
63
330
1F
100
AcDbEntity
  8
1
  6
________________
 62
     7
370
     9
100
AcDbCircle
 10
1195.0493851224
 20
-352.1812470469
 30
0.0
 40
1.8
100
AcDbArc
 50
12.5
 51
90.0
  0
LINE
  5
64
330
1F
100
AcDbEntity
  8
1
  6
________________
 62
     7
370
     9
100
AcDbLine
 10
1215.0586403538
 20
-351.7916557418
 30
0.0
 11
1213.6615232006
 21
-358.093643965
 31
0.0
  0
LINE
  5
65
330
1F
100
AcDbEntity
  8
1
  6
________________
 62
     7
370
     9
100
AcDbLine
 10
1221.4493851224
 20
-350.3812470469
 30
0.0
 11
1216.8159731666
 21
-350.3812470469
 31
0.0
  0
ARC
  5
66
330
1F
100
AcDbEntity
  8
1
  6
________________
 62
     7
370
     9
100
AcDbCircle
 10
1216.8159731666
 20
-352.1812470469
 30
0.0
 40
1.8
100
AcDbArc
 50
90.0
 51
167.5
  0
LINE
  5
67
330
1F
100
AcDbEntity
  8
1
  6
________________
 62
     7
370
     9
100
AcDbLine
 10
1239.3326791445
 20
-233.1348068304
 30
0.0
 11
1239.3326791445
 21
-359.6276872634
 31
0.0
  0
LINE
  5
68
330
1F
100
AcDbEntity
  8
1
  6
________________
 62
     7
370
     9
100
AcDbLine
 10
1225.3326791445
 20
-359.6276872634
 30
0.0
 11
1225.3326791445
 21
-233.1348068304
 31
0.0
  0
ARC
  5
69
330
1F
100
AcDbEntity
  8
1
  6
________________
 62
     7
370
     9
100
AcDbCircle
 10
1228.3137599154
 20
-357.2711734321
 30
0.0
 40
3.8
100
AcDbArc
 50
192.5
 51
261.1763425161
  0
ARC
  5
6A
330
1F
100
AcDbEntity
  8
1
  6
________________
 62
     7
370
     9
100
AcDbCircle
 10
1236.3515983736
 20
-357.2711734321
 30
0.0
 40
3.8
100
AcDbArc
 50
278.8236574839
 51
347.5
  0
ARC
  5
6B
330
1F
100
AcDbEntity
  8
1
  6
________________
 62
     7
370
     9
100
AcDbCircle
 10
1232.3326791445
 20
-331.3812470469
 30
0.0
 40
30.0
100
AcDbArc
 50
261.1763425161
 51
278.8236574838999
  0
LINE
  5
6C
330
1F
100
AcDbEntity
  8
1
  6
________________
 62
     7
370
     9
100
AcDbLine
 10
1223.2067179352
 20
-351.7916557418
 30
0.0
 11
1224.6038350884
 21
-358.093643965
 31
0.0
  0
ARC
  5
6D
330
1F
100
AcDbEntity
  8
1
  6
________________
 62
     7
370
     9
100
AcDbCircle
 10
1221.4493851224
 20
-352.1812470469
 30
0.0
 40
1.8
100
AcDbArc
 50
12.5
 51
90.0
  0
LINE
  5
6E
330
1F
100
AcDbEntity
  8
1
  6
________________
 62
     7
370
     9
100
AcDbLine
 10
1241.4586403538
 20
-351.7916557418
 30
0.0
 11
1240.0615232006
 21
-358.093643965
 31
0.0
  0
ARC
  5
6F
330
1F
100
AcDbEntity
  8
1
  6
________________
 62
     7
370
     9
100
AcDbCircle
 10
1243.2159731666
 20
-352.1812470469
 30
0.0
 40
1.8
100
AcDbArc
 50
90.0
 51
167.5
  0
LINE
  5
70
330
1F
100
AcDbEntity
  8
1
  6
________________
 62
     7
370
     9
100
AcDbLine
 10
1247.2159731666
 20
-368.8812372331
 30
0.0
 11
1247.2159731666
 21
-223.8812372331
 31
0.0
  0
ARC
  5
71
330
1F
100
AcDbEntity
  8
1
  6
________________
 62
     7
370
     9
100
AcDbCircle
 10
1243.2159731666
 20
-242.381247047
 30
0.0
 40
4.0
100
AcDbArc
 50
270.0000000193
 51
0.0
  0
ARC
  5
72
330
1F
100
AcDbEntity
  8
1
  6
________________
 62
     7
370
     9
100
AcDbCircle
 10
1243.2159731666
 20
-350.3812470469
 30
0.0
 40
4.0
100
AcDbArc
 50
0.0
 51
89.999999981
  0
CIRCLE
  5
73
330
1F
100
AcDbEntity
  8
1
  6
________________
 62
     7
370
     9
100
AcDbCircle
 10
1362.3113694385
 20
-296.3812470469
 30
0.0
 40
72.5
  0
CIRCLE
  5
74
330
1F
100
AcDbEntity
  8
1
  6
________________
 62
     7
370
     9
100
AcDbCircle
 10
1362.3113694385
 20
-296.3812470469
 30
0.0
 40
44.389
  0
LINE
  5
75
330
1F
100
AcDbEntity
  8
1
  6
________...._...
 62
     7
370
     9
100
AcDbLine
 10
1362.3113694385
 20
-221.8812313877
 30
0.0
 11
1362.3113694385
 21
-370.8812313877
 31
0.0
  0
LINE
  5
76
330
1F
100
AcDbEntity
  8
1
  6
________________
 62
     7
370
     9
100
AcDbLine
 10
1309.3088517643
 20
-246.9142568393
 30
0.0
 11
1314.9352181544
 21
-252.5406235579
 31
0.0
  0
LINE
  5
77
330
1F
100
AcDbEntity
  8
1
  6
________________
 62
     7
370
     9
100
AcDbLine
 10
1318.4707520604
 20
-249.0050896519
 30
0.0
 11
1312.8443858924
 21
-243.3787231555
 31
0.0
  0
LINE
  5
78
330
1F
100
AcDbEntity
  8
1
  6
________________
 62
     7
370
     9
100
AcDbLine
 10
1247.2159731666
 20
-223.8812372331
 30
0.0
 11
1250.2254828039
 21
-223.8812372328
 31
0.0
  0
LINE
  5
79
330
1F
100
AcDbEntity
  8
1
  6
________________
 62
     7
370
     9
100
AcDbLine
 10
1253.2159731666
 20
-226.881222073
 30
0.0
 11
1253.2159731666
 21
-245.5013604187
 31
0.0
  0
LINE
  5
7A
330
1F
100
AcDbEntity
  8
1
  6
________________
 62
     7
370
     9
100
AcDbLine
 10
1253.2159731666
 20
-249.0368940973
 30
0.0
 11
1253.2159731666
 21
-343.7255999965
 31
0.0
  0
LINE
  5
7B
330
1F
100
AcDbEntity
  8
1
  6
________________
 62
     7
370
     9
100
AcDbLine
 10
1253.2159731666
 20
-347.2611336751
 30
0.0
 11
1253.2159731666
 21
-365.8812717359
 31
0.0
  0
LINE
  5
7C
330
1F
100
AcDbEntity
  8
1
  6
________________
 62
     7
370
     9
100
AcDbLine
 10
1247.2159731666
 20
-368.8812372331
 30
0.0
 11
1250.2159386636
 21
-368.8812717357
 31
0.0
  0
ARC
  5
7D
330
1F
100
AcDbEntity
  8
1
  6
________________
 62
     7
370
     9
100
AcDbCircle
 10
1250.2159731666
 20
-365.8812717359
 30
0.0
 40
3.0
100
AcDbArc
 50
269.999341042
 51
0.0
  0
ARC
  5
7E
330
1F
100
AcDbEntity
  8
1
  6
________________
 62
     7
370
     9
100
AcDbCircle
 10
1250.2159731666
 20
-226.881222073
 30
0.0
 40
3.0
100
AcDbArc
 50
0.0
 51
89.81837899550001
  0
LINE
  5
7F
330
1F
100
AcDbEntity
  8
1
  6
________...._...
 62
     7
370
     9
100
AcDbLine
 10
1287.8113537793
 20
-296.3812470469
 30
0.0
 11
1436.8113537793
 21
-296.3812470469
 31
0.0
  0
LINE
  5
80
330
1F
100
AcDbEntity
  8
1
  6
________________
 62
     7
370
     9
100
AcDbLine
 10
1318.4707520604
 20
-249.0050896519
 30
0.0
 11
1314.9352181544
 21
-252.5406235579
 31
0.0
  0
LINE
  5
81
330
1F
100
AcDbEntity
  8
1
  6
________________
 62
     7
370
     9
100
AcDbLine
 10
1312.8443792309
 20
-349.3837647211
 30
0.0
 11
1318.4707459495
 21
-343.7573983309
 31
0.0
  0
LINE
  5
82
330
1F
100
AcDbEntity
  8
1
  6
________________
 62
     7
370
     9
100
AcDbLine
 10
1314.9352120435
 20
-340.221864425
 30
0.0
 11
1309.3088455472
 21
-345.848230593
 31
0.0
  0
LINE
  5
83
330
1F
100
AcDbEntity
  8
1
  6
________________
 62
     7
370
     9
100
AcDbLine
 10
1314.9352120435
 20
-340.221864425
 30
0.0
 11
1318.4707459495
 21
-343.7573983309
 31
0.0
  0
LINE
  5
84
330
1F
100
AcDbEntity
  8
1
  6
________________
 62
     7
370
     9
100
AcDbLine
 10
1415.3138871127
 20
-345.8482372545
 30
0.0
 11
1409.6875207225
 21
-340.2218705359
 31
0.0
  0
LINE
  5
85
330
1F
100
AcDbEntity
  8
1
  6
________________
 62
     7
370
     9
100
AcDbLine
 10
1406.1519868166
 20
-343.7574044418
 30
0.0
 11
1411.7783529846
 21
-349.3837709382
 31
0.0
  0
LINE
  5
86
330
1F
100
AcDbEntity
  8
1
  6
________________
 62
     7
370
     9
100
AcDbLine
 10
1406.1519868166
 20
-343.7574044418
 30
0.0
 11
1409.6875207225
 21
-340.2218705359
 31
0.0
  0
LINE
  5
87
330
1F
100
AcDbEntity
  8
1
  6
________________
 62
     7
370
     9
100
AcDbLine
 10
1411.7783596461
 20
-243.3787293727
 30
0.0
 11
1406.1519929275
 21
-249.0050957628
 31
0.0
  0
LINE
  5
88
330
1F
100
AcDbEntity
  8
1
  6
________________
 62
     7
370
     9
100
AcDbLine
 10
1409.6875268334
 20
-252.5406296688
 30
0.0
 11
1415.3138933298
 21
-246.9142635008
 31
0.0
  0
LINE
  5
89
330
1F
100
AcDbEntity
  8
1
  6
________________
 62
     7
370
     9
100
AcDbLine
 10
1409.6875268334
 20
-252.5406296688
 30
0.0
 11
1406.1519929275
 21
-249.0050957628
 31
0.0
  0
ARC
  5
8A
330
1F
100
AcDbEntity
  8
1
  6
________________
 62
     7
370
     9
100
AcDbCircle
 10
1251.575708012
 20
-245.5211524472
 30
0.0
 40
1.6403845591
100
AcDbArc
 50
0.6913179089
 51
36.2105555969
  0
ARC
  5
8B
330
1F
100
AcDbEntity
  8
1
  6
________________
 62
     7
370
     9
100
AcDbCircle
 10
1251.0053401296
 20
-245.9193143449
 30
0.0
 40
2.3358552923
100
AcDbArc
 50
35.825701076
 51
55.23437255719999
  0
ARC
  5
8C
330
1F
100
AcDbEntity
  8
1
  6
________________
 62
     7
370
     9
100
AcDbCircle
 10
1250.508270871
 20
-246.6237150605
 30
0.0
 40
3.1979606685
100
AcDbArc
 50
55.1147957223
 51
70.8447578208
  0
ARC
  5
8D
330
1F
100
AcDbEntity
  8
1
  6
________________
 62
     7
370
     9
100
AcDbCircle
 10
1250.2293030846
 20
-247.4271571651
 30
0.0
 40
4.0484559547
100
AcDbArc
 50
70.8463194472
 51
90.18865202699999
  0
ARC
  5
8E
330
1F
100
AcDbEntity
  8
1
  6
________________
 62
     7
370
     9
100
AcDbCircle
 10
1251.5757080186
 20
-249.056686126
 30
0.0
 40
1.6403845525
100
AcDbArc
 50
0.6913179171000001
 51
36.2105556721
  0
ARC
  5
8F
330
1F
100
AcDbEntity
  8
1
  6
________________
 62
     7
370
     9
100
AcDbCircle
 10
1251.0053401337
 20
-249.4548480265
 30
0.0
 40
2.3358552894
100
AcDbArc
 50
35.8257011487
 51
55.23437262980001
  0
ARC
  5
90
330
1F
100
AcDbEntity
  8
1
  6
________________
 62
     7
370
     9
100
AcDbCircle
 10
1250.5082708722
 20
-250.1592487474
 30
0.0
 40
3.1979606716
100
AcDbArc
 50
55.11479578619999
 51
70.8447578619
  0
ARC
  5
91
330
1F
100
AcDbEntity
  8
1
  6
________________
 62
     7
370
     9
100
AcDbCircle
 10
1250.2293030848
 20
-250.9626908581
 30
0.0
 40
4.0484559638
100
AcDbArc
 50
70.8463194949
 51
90.1886520292
  0
ARC
  5
92
330
1F
100
AcDbEntity
  8
1
  6
________________
 62
     7
370
     9
100
AcDbCircle
 10
1249.6692338582
 20
-244.0928543212
 30
0.0
 40
0.5467791154
100
AcDbArc
 50
0.6913753367
 51
36.2110957499
  0
ARC
  5
93
330
1F
100
AcDbEntity
  8
1
  6
________________
 62
     7
370
     9
100
AcDbCircle
 10
1249.4791046059
 20
-244.2255819131
 30
0.0
 40
0.7786121038
100
AcDbArc
 50
35.8262024949
 51
55.2348661714
  0
ARC
  5
94
330
1F
100
AcDbEntity
  8
1
  6
________________
 62
     7
370
     9
100
AcDbCircle
 10
1249.3134091063
 20
-244.4603944034
 30
0.0
 40
1.0659938854
100
AcDbArc
 50
55.11527880400001
 51
70.8450802709
  0
ARC
  5
95
330
1F
100
AcDbEntity
  8
1
  6
________________
 62
     7
370
     9
100
AcDbCircle
 10
1249.2204166246
 20
-244.7282223913
 30
0.0
 40
1.3495065513
100
AcDbArc
 50
70.8466393936
 51
90.18865551320002
  0
LINE
  5
96
330
1F
100
AcDbEntity
  8
1
  6
________________
 62
     7
370
     9
100
AcDbLine
 10
1250.2159731665
 20
-243.3787231555
 30
0.0
 11
1249.2159731666
 21
-243.3787231555
 31
0.0
  0
LINE
  5
97
330
1F
100
AcDbEntity
  8
1
  6
________________
 62
     7
370
     9
100
AcDbLine
 10
1250.2159731666
 20
-244.0862566202
 30
0.0
 11
1250.2159731666
 21
-246.9142568393
 31
0.0
  0
LINE
  5
98
330
1F
100
AcDbEntity
  8
1
  6
________________
 62
     7
370
     9
100
AcDbLine
 10
1250.2159731666
 20
-246.9142568393
 30
0.0
 11
1249.2159731666
 21
-246.9142568393
 31
0.0
  0
LINE
  5
99
330
1F
100
AcDbEntity
  8
1
  6
________________
 62
     7
370
     9
100
AcDbLine
 10
1253.2159731666
 20
-245.5013604187
 30
0.0
 11
1252.6406279509
 21
-247.7869090032
 31
0.0
  0
ARC
  5
9A
330
1F
100
AcDbEntity
  8
1
  6
________________
 62
     7
370
     9
100
AcDbCircle
 10
1250.2293011589
 20
-345.335336915
 30
0.0
 40
4.048455955
100
AcDbArc
 50
269.8114052664
 51
289.1537378462
  0
ARC
  5
9B
330
1F
100
AcDbEntity
  8
1
  6
________________
 62
     7
370
     9
100
AcDbCircle
 10
1250.5082697487
 20
-346.1387787409
 30
0.0
 40
3.1979606686
100
AcDbArc
 50
289.1552994758
 51
304.8852615742001
  0
ARC
  5
9C
330
1F
100
AcDbEntity
  8
1
  6
________________
 62
     7
370
     9
100
AcDbCircle
 10
1251.0053397119
 20
-346.8431789596
 30
0.0
 40
2.3358552921
100
AcDbArc
 50
304.7656847376
 51
324.1743562187
  0
ARC
  5
9D
330
1F
100
AcDbEntity
  8
1
  6
________________
 62
     7
370
     9
100
AcDbCircle
 10
1251.5757126753
 20
-347.2413417868
 30
0.0
 40
1.6403798945
100
AcDbArc
 50
323.7894473415
 51
359.3086850294
  0
ARC
  5
9E
330
1F
100
AcDbEntity
  8
1
  6
________________
 62
     7
370
     9
100
AcDbCircle
 10
1250.2293011588
 20
-341.7998032221
 30
0.0
 40
4.0484559641
100
AcDbArc
 50
269.8114052684
 51
289.1537378027
  0
ARC
  5
9F
330
1F
100
AcDbEntity
  8
1
  6
________________
 62
     7
370
     9
100
AcDbCircle
 10
1250.5082697502
 20
-342.6032450541
 30
0.0
 40
3.1979606716
100
AcDbArc
 50
289.1552994288
 51
304.8852615045
  0
ARC
  5
A0
330
1F
100
AcDbEntity
  8
1
  6
________________
 62
     7
370
     9
100
AcDbCircle
 10
1251.0053397154
 20
-343.307645278
 30
0.0
 40
2.3358552896
100
AcDbArc
 50
304.7656846753
 51
324.1743561563
  0
ARC
  5
A1
330
1F
100
AcDbEntity
  8
1
  6
________________
 62
     7
370
     9
100
AcDbCircle
 10
1251.575712682
 20
-343.705808108
 30
0.0
 40
1.6403798878
100
AcDbArc
 50
323.7894472645
 51
359.3086850194999
  0
ARC
  5
A2
330
1F
100
AcDbEntity
  8
1
  6
________________
 62
     7
370
     9
100
AcDbCircle
 10
1249.2204166246
 20
-348.0342717024
 30
0.0
 40
1.3495065513
100
AcDbArc
 50
269.8113444868
 51
289.1533606064
  0
ARC
  5
A3
330
1F
100
AcDbEntity
  8
1
  6
________________
 62
     7
370
     9
100
AcDbCircle
 10
1249.3134091066
 20
-348.3020996903
 30
0.0
 40
1.0659938852
100
AcDbArc
 50
289.1549197116
 51
304.8847211785
  0
ARC
  5
A4
330
1F
100
AcDbEntity
  8
1
  6
________________
 62
     7
370
     9
100
AcDbCircle
 10
1249.4791046056
 20
-348.5369121806
 30
0.0
 40
0.778612104
100
AcDbArc
 50
304.7651338441
 51
324.1737975207
  0
ARC
  5
A5
330
1F
100
AcDbEntity
  8
1
  6
________________
 62
     7
370
     9
100
AcDbCircle
 10
1249.6692338583
 20
-348.6696397726
 30
0.0
 40
0.5467791152
100
AcDbArc
 50
323.7889042446999
 51
359.3086246579
  0
LINE
  5
A6
330
1F
100
AcDbEntity
  8
1
  6
________________
 62
     7
370
     9
100
AcDbLine
 10
1250.2159731665
 20
-349.3837709382
 30
0.0
 11
1249.2159731666
 21
-349.3837709382
 31
0.0
  0
LINE
  5
A7
330
1F
100
AcDbEntity
  8
1
  6
________________
 62
     7
370
     9
100
AcDbLine
 10
1250.2159731666
 20
-348.6762374736
 30
0.0
 11
1250.2159731666
 21
-345.8482372545
 31
0.0
  0
LINE
  5
A8
330
1F
100
AcDbEntity
  8
1
  6
________________
 62
     7
370
     9
100
AcDbLine
 10
1250.2159731666
 20
-345.8482372545
 30
0.0
 11
1249.2159731666
 21
-345.8482372545
 31
0.0
  0
LINE
  5
A9
330
1F
100
AcDbEntity
  8
1
  6
________________
 62
     7
370
     9
100
AcDbLine
 10
1253.2159731666
 20
-347.261133675
 30
0.0
 11
1252.6406279509
 21
-344.9755850906
 31
0.0
  0
ARC
  5
AA
330
1F
100
AcDbEntity
  8
1
  6
________________
 62
     7
370
     9
100
AcDbCircle
 10
1122.7137599154
 20
-235.4913206617
 30
0.0
 40
3.8
100
AcDbArc
 50
98.8236574839
 51
167.5
  0
ARC
  5
AB
330
1F
100
AcDbEntity
  8
1
  6
________________
 62
     7
370
     9
100
AcDbCircle
 10
1130.7515983736
 20
-235.4913206617
 30
0.0
 40
3.8
100
AcDbArc
 50
12.5
 51
81.17634251610001
  0
ARC
  5
AC
330
1F
100
AcDbEntity
  8
1
  6
________________
 62
     7
370
     9
100
AcDbCircle
 10
1126.7326791445
 20
-261.3812470469
 30
0.0
 40
30.0
100
AcDbArc
 50
81.1763425161
 51
98.8236574839
  0
LINE
  5
AD
330
1F
100
AcDbEntity
  8
1
  6
________________
 62
     7
370
     9
100
AcDbLine
 10
1117.6067179352
 20
-240.970838352
 30
0.0
 11
1119.0038350884
 21
-234.6688501287
 31
0.0
  0
ARC
  5
AE
330
1F
100
AcDbEntity
  8
1
  6
________________
 62
     7
370
     9
100
AcDbCircle
 10
1115.8493851224
 20
-240.5812470469
 30
0.0
 40
1.8
100
AcDbArc
 50
270.0
 51
347.5
  0
LINE
  5
AF
330
1F
100
AcDbEntity
  8
1
  6
________________
 62
     7
370
     9
100
AcDbLine
 10
1135.8586403538
 20
-240.970838352
 30
0.0
 11
1134.4615232006
 21
-234.6688501287
 31
0.0
  0
LINE
  5
B0
330
1F
100
AcDbEntity
  8
1
  6
________________
 62
     7
370
     9
100
AcDbLine
 10
1142.2493851224
 20
-242.3812470469
 30
0.0
 11
1137.6159731666
 21
-242.3812470469
 31
0.0
  0
ARC
  5
B1
330
1F
100
AcDbEntity
  8
1
  6
________________
 62
     7
370
     9
100
AcDbCircle
 10
1137.6159731666
 20
-240.5812470469
 30
0.0
 40
1.8
100
AcDbArc
 50
192.5
 51
270.0
  0
ARC
  5
B2
330
1F
100
AcDbEntity
  8
1
  6
________________
 62
     7
370
     9
100
AcDbCircle
 10
1149.1137599154
 20
-235.4913206617
 30
0.0
 40
3.8
100
AcDbArc
 50
98.8236574839
 51
167.5
  0
ARC
  5
B3
330
1F
100
AcDbEntity
  8
1
  6
________________
 62
     7
370
     9
100
AcDbCircle
 10
1157.1515983736
 20
-235.4913206617
 30
0.0
 40
3.8
100
AcDbArc
 50
12.5
 51
81.17634251610001
  0
ARC
  5
B4
330
1F
100
AcDbEntity
  8
1
  6
________________
 62
     7
370
     9
100
AcDbCircle
 10
1153.1326791445
 20
-261.3812470469
 30
0.0
 40
30.0
100
AcDbArc
 50
81.1763425161
 51
98.8236574839
  0
LINE
  5
B5
330
1F
100
AcDbEntity
  8
1
  6
________________
 62
     7
370
     9
100
AcDbLine
 10
1144.0067179352
 20
-240.970838352
 30
0.0
 11
1145.4038350884
 21
-234.6688501287
 31
0.0
  0
ARC
  5
B6
330
1F
100
AcDbEntity
  8
1
  6
________________
 62
     7
370
     9
100
AcDbCircle
 10
1142.2493851224
 20
-240.5812470469
 30
0.0
 40
1.8
100
AcDbArc
 50
270.0
 51
347.5
  0
LINE
  5
B7
330
1F
100
AcDbEntity
  8
1
  6
________________
 62
     7
370
     9
100
AcDbLine
 10
1162.2586403538
 20
-240.970838352
 30
0.0
 11
1160.8615232006
 21
-234.6688501287
 31
0.0
  0
LINE
  5
B8
330
1F
100
AcDbEntity
  8
1
  6
________________
 62
     7
370
     9
100
AcDbLine
 10
1168.6493851224
 20
-242.3812470469
 30
0.0
 11
1164.0159731666
 21
-242.3812470469
 31
0.0
  0
ARC
  5
B9
330
1F
100
AcDbEntity
  8
1
  6
________________
 62
     7
370
     9
100
AcDbCircle
 10
1164.0159731666
 20
-240.5812470469
 30
0.0
 40
1.8
100
AcDbArc
 50
192.5
 51
270.0
  0
ARC
  5
BA
330
1F
100
AcDbEntity
  8
1
  6
________________
 62
     7
370
     9
100
AcDbCircle
 10
1175.5137599154
 20
-235.4913206617
 30
0.0
 40
3.8
100
AcDbArc
 50
98.8236574839
 51
167.5
  0
ARC
  5
BB
330
1F
100
AcDbEntity
  8
1
  6
________________
 62
     7
370
     9
100
AcDbCircle
 10
1183.5515983736
 20
-235.4913206617
 30
0.0
 40
3.8
100
AcDbArc
 50
12.5
 51
81.17634251610001
  0
ARC
  5
BC
330
1F
100
AcDbEntity
  8
1
  6
________________
 62
     7
370
     9
100
AcDbCircle
 10
1179.5326791445
 20
-261.3812470469
 30
0.0
 40
30.0
100
AcDbArc
 50
81.1763425161
 51
98.8236574839
  0
LINE
  5
BD
330
1F
100
AcDbEntity
  8
1
  6
________________
 62
     7
370
     9
100
AcDbLine
 10
1170.4067179352
 20
-240.970838352
 30
0.0
 11
1171.8038350884
 21
-234.6688501287
 31
0.0
  0
ARC
  5
BE
330
1F
100
AcDbEntity
  8
1
  6
________________
 62
     7
370
     9
100
AcDbCircle
 10
1168.6493851224
 20
-240.5812470469
 30
0.0
 40
1.8
100
AcDbArc
 50
270.0
 51
347.5
  0
LINE
  5
BF
330
1F
100
AcDbEntity
  8
1
  6
________________
 62
     7
370
     9
100
AcDbLine
 10
1188.6586403538
 20
-240.970838352
 30
0.0
 11
1187.2615232006
 21
-234.6688501287
 31
0.0
  0
LINE
  5
C0
330
1F
100
AcDbEntity
  8
1
  6
________________
 62
     7
370
     9
100
AcDbLine
 10
1195.0493851224
 20
-242.3812470469
 30
0.0
 11
1190.4159731666
 21
-242.3812470469
 31
0.0
  0
ARC
  5
C1
330
1F
100
AcDbEntity
  8
1
  6
________________
 62
     7
370
     9
100
AcDbCircle
 10
1190.4159731666
 20
-240.5812470469
 30
0.0
 40
1.8
100
AcDbArc
 50
192.5
 51
270.0
  0
ARC
  5
C2
330
1F
100
AcDbEntity
  8
1
  6
________________
 62
     7
370
     9
100
AcDbCircle
 10
1201.9137599154
 20
-235.4913206617
 30
0.0
 40
3.8
100
AcDbArc
 50
98.8236574839
 51
167.5
  0
ARC
  5
C3
330
1F
100
AcDbEntity
  8
1
  6
________________
 62
     7
370
     9
100
AcDbCircle
 10
1209.9515983736
 20
-235.4913206617
 30
0.0
 40
3.8
100
AcDbArc
 50
12.5
 51
81.17634251610001
  0
ARC
  5
C4
330
1F
100
AcDbEntity
  8
1
  6
________________
 62
     7
370
     9
100
AcDbCircle
 10
1205.9326791445
 20
-261.3812470469
 30
0.0
 40
30.0
100
AcDbArc
 50
81.1763425161
 51
98.8236574839
  0
LINE
  5
C5
330
1F
100
AcDbEntity
  8
1
  6
________________
 62
     7
370
     9
100
AcDbLine
 10
1196.8067179352
 20
-240.970838352
 30
0.0
 11
1198.2038350884
 21
-234.6688501287
 31
0.0
  0
ARC
  5
C6
330
1F
100
AcDbEntity
  8
1
  6
________________
 62
     7
370
     9
100
AcDbCircle
 10
1195.0493851224
 20
-240.5812470469
 30
0.0
 40
1.8
100
AcDbArc
 50
270.0
 51
347.5
  0
LINE
  5
C7
330
1F
100
AcDbEntity
  8
1
  6
________________
 62
     7
370
     9
100
AcDbLine
 10
1215.0586403538
 20
-240.970838352
 30
0.0
 11
1213.6615232006
 21
-234.6688501287
 31
0.0
  0
LINE
  5
C8
330
1F
100
AcDbEntity
  8
1
  6
________________
 62
     7
370
     9
100
AcDbLine
 10
1221.4493851224
 20
-242.3812470469
 30
0.0
 11
1216.8159731666
 21
-242.3812470469
 31
0.0
  0
ARC
  5
C9
330
1F
100
AcDbEntity
  8
1
  6
________________
 62
     7
370
     9
100
AcDbCircle
 10
1216.8159731666
 20
-240.5812470469
 30
0.0
 40
1.8
100
AcDbArc
 50
192.5
 51
270.0
  0
ARC
  5
CA
330
1F
100
AcDbEntity
  8
1
  6
________________
 62
     7
370
     9
100
AcDbCircle
 10
1228.3137599154
 20
-235.4913206617
 30
0.0
 40
3.8
100
AcDbArc
 50
98.8236574839
 51
167.5
  0
ARC
  5
CB
330
1F
100
AcDbEntity
  8
1
  6
________________
 62
     7
370
     9
100
AcDbCircle
 10
1236.3515983736
 20
-235.4913206617
 30
0.0
 40
3.8
100
AcDbArc
 50
12.5
 51
81.17634251610001
  0
ARC
  5
CC
330
1F
100
AcDbEntity
  8
1
  6
________________
 62
     7
370
     9
100
AcDbCircle
 10
1232.3326791445
 20
-261.3812470469
 30
0.0
 40
30.0
100
AcDbArc
 50
81.1763425161
 51
98.8236574839
  0
LINE
  5
CD
330
1F
100
AcDbEntity
  8
1
  6
________________
 62
     7
370
     9
100
AcDbLine
 10
1223.2067179352
 20
-240.970838352
 30
0.0
 11
1224.6038350884
 21
-234.6688501287
 31
0.0
  0
ARC
  5
CE
330
1F
100
AcDbEntity
  8
1
  6
________________
 62
     7
370
     9
100
AcDbCircle
 10
1221.4493851224
 20
-240.5812470469
 30
0.0
 40
1.8
100
AcDbArc
 50
270.0
 51
347.5
  0
LINE
  5
CF
330
1F
100
AcDbEntity
  8
1
  6
________________
 62
     7
370
     9
100
AcDbLine
 10
1241.4586403538
 20
-240.970838352
 30
0.0
 11
1240.0615232006
 21
-234.6688501287
 31
0.0
  0
ARC
  5
D0
330
1F
100
AcDbEntity
  8
1
  6
________________
 62
     7
370
     9
100
AcDbCircle
 10
1243.2159731666
 20
-240.5812470469
 30
0.0
 40
1.8
100
AcDbArc
 50
192.5
 51
270.0
  0
LINE
  5
D1
330
1F
100
AcDbEntity
  8
1
  6
________________
 62
     7
370
     9
100
AcDbLine
 10
1028.1326791445
 20
-233.1348068304
 30
0.0
 11
1028.1326791445
 21
-359.6276872634
 31
0.0
  0
LINE
  5
D2
330
1F
100
AcDbEntity
  8
1
  6
________________
 62
     7
370
     9
100
AcDbLine
 10
1014.1326791445
 20
-359.6276872634
 30
0.0
 11
1014.1326791445
 21
-233.1348068304
 31
0.0
  0
ARC
  5
D3
330
1F
100
AcDbEntity
  8
1
  6
________________
 62
     7
370
     9
100
AcDbCircle
 10
1017.1137599154
 20
-357.2711734321
 30
0.0
 40
3.8
100
AcDbArc
 50
192.5
 51
261.1763425161
  0
ARC
  5
D4
330
1F
100
AcDbEntity
  8
1
  6
________________
 62
     7
370
     9
100
AcDbCircle
 10
1025.1515983736
 20
-357.2711734321
 30
0.0
 40
3.8
100
AcDbArc
 50
278.8236574839
 51
347.5
  0
ARC
  5
D5
330
1F
100
AcDbEntity
  8
1
  6
________________
 62
     7
370
     9
100
AcDbCircle
 10
1021.1326791445
 20
-331.3812470469
 30
0.0
 40
30.0
100
AcDbArc
 50
261.1763425161
 51
278.8236574838999
  0
LINE
  5
D6
330
1F
100
AcDbEntity
  8
1
  6
________________
 62
     7
370
     9
100
AcDbLine
 10
1012.0067179352
 20
-351.7916557418
 30
0.0
 11
1013.4038350884
 21
-358.093643965
 31
0.0
  0
ARC
  5
D7
330
1F
100
AcDbEntity
  8
1
  6
________________
 62
     7
370
     9
100
AcDbCircle
 10
1010.2493851224
 20
-352.1812470469
 30
0.0
 40
1.8
100
AcDbArc
 50
12.5
 51
90.0
  0
LINE
  5
D8
330
1F
100
AcDbEntity
  8
1
  6
________________
 62
     7
370
     9
100
AcDbLine
 10
1030.2586403538
 20
-351.7916557418
 30
0.0
 11
1028.8615232006
 21
-358.093643965
 31
0.0
  0
LINE
  5
D9
330
1F
100
AcDbEntity
  8
1
  6
________________
 62
     7
370
     9
100
AcDbLine
 10
1036.6493851224
 20
-350.3812470469
 30
0.0
 11
1032.0159731666
 21
-350.3812470469
 31
0.0
  0
ARC
  5
DA
330
1F
100
AcDbEntity
  8
1
  6
________________
 62
     7
370
     9
100
AcDbCircle
 10
1032.0159731666
 20
-352.1812470469
 30
0.0
 40
1.8
100
AcDbArc
 50
90.0
 51
167.5
  0
LINE
  5
DB
330
1F
100
AcDbEntity
  8
1
  6
________________
 62
     7
370
     9
100
AcDbLine
 10
1054.5326791445
 20
-233.1348068304
 30
0.0
 11
1054.5326791445
 21
-359.6276872634
 31
0.0
  0
LINE
  5
DC
330
1F
100
AcDbEntity
  8
1
  6
________________
 62
     7
370
     9
100
AcDbLine
 10
1040.5326791445
 20
-359.6276872634
 30
0.0
 11
1040.5326791445
 21
-233.1348068304
 31
0.0
  0
ARC
  5
DD
330
1F
100
AcDbEntity
  8
1
  6
________________
 62
     7
370
     9
100
AcDbCircle
 10
1043.5137599154
 20
-357.2711734321
 30
0.0
 40
3.8
100
AcDbArc
 50
192.5
 51
261.1763425161
  0
ARC
  5
DE
330
1F
100
AcDbEntity
  8
1
  6
________________
 62
     7
370
     9
100
AcDbCircle
 10
1051.5515983736
 20
-357.2711734321
 30
0.0
 40
3.8
100
AcDbArc
 50
278.8236574839
 51
347.5
  0
ARC
  5
DF
330
1F
100
AcDbEntity
  8
1
  6
________________
 62
     7
370
     9
100
AcDbCircle
 10
1047.5326791445
 20
-331.3812470469
 30
0.0
 40
30.0
100
AcDbArc
 50
261.1763425161
 51
278.8236574838999
  0
LINE
  5
E0
330
1F
100
AcDbEntity
  8
1
  6
________________
 62
     7
370
     9
100
AcDbLine
 10
1038.4067179352
 20
-351.7916557418
 30
0.0
 11
1039.8038350884
 21
-358.093643965
 31
0.0
  0
ARC
  5
E1
330
1F
100
AcDbEntity
  8
1
  6
________________
 62
     7
370
     9
100
AcDbCircle
 10
1036.6493851224
 20
-352.1812470469
 30
0.0
 40
1.8
100
AcDbArc
 50
12.5
 51
90.0
  0
LINE
  5
E2
330
1F
100
AcDbEntity
  8
1
  6
________________
 62
     7
370
     9
100
AcDbLine
 10
1056.6586403538
 20
-351.7916557418
 30
0.0
 11
1055.2615232006
 21
-358.093643965
 31
0.0
  0
LINE
  5
E3
330
1F
100
AcDbEntity
  8
1
  6
________________
 62
     7
370
     9
100
AcDbLine
 10
1063.0493851224
 20
-350.3812470469
 30
0.0
 11
1058.4159731666
 21
-350.3812470469
 31
0.0
  0
ARC
  5
E4
330
1F
100
AcDbEntity
  8
1
  6
________________
 62
     7
370
     9
100
AcDbCircle
 10
1058.4159731666
 20
-352.1812470469
 30
0.0
 40
1.8
100
AcDbArc
 50
90.0
 51
167.5
  0
LINE
  5
E5
330
1F
100
AcDbEntity
  8
1
  6
________________
 62
     7
370
     9
100
AcDbLine
 10
1080.9326791445
 20
-233.1348068304
 30
0.0
 11
1080.9326791445
 21
-359.6276872634
 31
0.0
  0
LINE
  5
E6
330
1F
100
AcDbEntity
  8
1
  6
________________
 62
     7
370
     9
100
AcDbLine
 10
1066.9326791445
 20
-359.6276872634
 30
0.0
 11
1066.9326791445
 21
-233.1348068304
 31
0.0
  0
ARC
  5
E7
330
1F
100
AcDbEntity
  8
1
  6
________________
 62
     7
370
     9
100
AcDbCircle
 10
1069.9137599154
 20
-357.2711734321
 30
0.0
 40
3.8
100
AcDbArc
 50
192.5
 51
261.1763425161
  0
ARC
  5
E8
330
1F
100
AcDbEntity
  8
1
  6
________________
 62
     7
370
     9
100
AcDbCircle
 10
1077.9515983736
 20
-357.2711734321
 30
0.0
 40
3.8
100
AcDbArc
 50
278.8236574839
 51
347.5
  0
ARC
  5
E9
330
1F
100
AcDbEntity
  8
1
  6
________________
 62
     7
370
     9
100
AcDbCircle
 10
1073.9326791445
 20
-331.3812470469
 30
0.0
 40
30.0
100
AcDbArc
 50
261.1763425161
 51
278.8236574838999
  0
LINE
  5
EA
330
1F
100
AcDbEntity
  8
1
  6
________________
 62
     7
370
     9
100
AcDbLine
 10
1064.8067179352
 20
-351.7916557418
 30
0.0
 11
1066.2038350884
 21
-358.093643965
 31
0.0
  0
ARC
  5
EB
330
1F
100
AcDbEntity
  8
1
  6
________________
 62
     7
370
     9
100
AcDbCircle
 10
1063.0493851224
 20
-352.1812470469
 30
0.0
 40
1.8
100
AcDbArc
 50
12.5
 51
90.0
  0
LINE
  5
EC
330
1F
100
AcDbEntity
  8
1
  6
________________
 62
     7
370
     9
100
AcDbLine
 10
1083.0586403538
 20
-351.7916557418
 30
0.0
 11
1081.6615232006
 21
-358.093643965
 31
0.0
  0
LINE
  5
ED
330
1F
100
AcDbEntity
  8
1
  6
________________
 62
     7
370
     9
100
AcDbLine
 10
1089.4493851224
 20
-350.3812470469
 30
0.0
 11
1084.8159731666
 21
-350.3812470469
 31
0.0
  0
ARC
  5
EE
330
1F
100
AcDbEntity
  8
1
  6
________________
 62
     7
370
     9
100
AcDbCircle
 10
1084.8159731666
 20
-352.1812470469
 30
0.0
 40
1.8
100
AcDbArc
 50
90.0
 51
167.5
  0
LINE
  5
EF
330
1F
100
AcDbEntity
  8
1
  6
________________
 62
     7
370
     9
100
AcDbLine
 10
1107.3326791445
 20
-233.1348068304
 30
0.0
 11
1107.3326791445
 21
-359.6276872634
 31
0.0
  0
LINE
  5
F0
330
1F
100
AcDbEntity
  8
1
  6
________________
 62
     7
370
     9
100
AcDbLine
 10
1093.3326791445
 20
-359.6276872634
 30
0.0
 11
1093.3326791445
 21
-233.1348068304
 31
0.0
  0
ARC
  5
F1
330
1F
100
AcDbEntity
  8
1
  6
________________
 62
     7
370
     9
100
AcDbCircle
 10
1096.3137599154
 20
-357.2711734321
 30
0.0
 40
3.8
100
AcDbArc
 50
192.5
 51
261.1763425161
  0
ARC
  5
F2
330
1F
100
AcDbEntity
  8
1
  6
________________
 62
     7
370
     9
100
AcDbCircle
 10
1104.3515983736
 20
-357.2711734321
 30
0.0
 40
3.8
100
AcDbArc
 50
278.8236574839
 51
347.5
  0
ARC
  5
F3
330
1F
100
AcDbEntity
  8
1
  6
________________
 62
     7
370
     9
100
AcDbCircle
 10
1100.3326791445
 20
-331.3812470469
 30
0.0
 40
30.0
100
AcDbArc
 50
261.1763425161
 51
278.8236574838999
  0
LINE
  5
F4
330
1F
100
AcDbEntity
  8
1
  6
________________
 62
     7
370
     9
100
AcDbLine
 10
1091.2067179352
 20
-351.7916557418
 30
0.0
 11
1092.6038350884
 21
-358.093643965
 31
0.0
  0
ARC
  5
F5
330
1F
100
AcDbEntity
  8
1
  6
________________
 62
     7
370
     9
100
AcDbCircle
 10
1089.4493851224
 20
-352.1812470469
 30
0.0
 40
1.8
100
AcDbArc
 50
12.5
 51
90.0
  0
LINE
  5
F6
330
1F
100
AcDbEntity
  8
1
  6
________________
 62
     7
370
     9
100
AcDbLine
 10
1109.4586403538
 20
-351.7916557418
 30
0.0
 11
1108.0615232006
 21
-358.093643965
 31
0.0
  0
LINE
  5
F7
330
1F
100
AcDbEntity
  8
1
  6
________________
 62
     7
370
     9
100
AcDbLine
 10
1115.8493851224
 20
-350.3812470469
 30
0.0
 11
1111.2159731666
 21
-350.3812470469
 31
0.0
  0
ARC
  5
F8
330
1F
100
AcDbEntity
  8
1
  6
________________
 62
     7
370
     9
100
AcDbCircle
 10
1111.2159731666
 20
-352.1812470469
 30
0.0
 40
1.8
100
AcDbArc
 50
90.0
 51
167.5
  0
ARC
  5
F9
330
1F
100
AcDbEntity
  8
1
  6
________________
 62
     7
370
     9
100
AcDbCircle
 10
1017.1137599154
 20
-235.4913206617
 30
0.0
 40
3.8
100
AcDbArc
 50
98.8236574839
 51
167.5
  0
ARC
  5
FA
330
1F
100
AcDbEntity
  8
1
  6
________________
 62
     7
370
     9
100
AcDbCircle
 10
1025.1515983736
 20
-235.4913206617
 30
0.0
 40
3.8
100
AcDbArc
 50
12.5
 51
81.17634251610001
  0
ARC
  5
FB
330
1F
100
AcDbEntity
  8
1
  6
________________
 62
     7
370
     9
100
AcDbCircle
 10
1021.1326791445
 20
-261.3812470469
 30
0.0
 40
30.0
100
AcDbArc
 50
81.1763425161
 51
98.8236574839
  0
LINE
  5
FC
330
1F
100
AcDbEntity
  8
1
  6
________________
 62
     7
370
     9
100
AcDbLine
 10
1012.0067179352
 20
-240.970838352
 30
0.0
 11
1013.4038350884
 21
-234.6688501287
 31
0.0
  0
ARC
  5
FD
330
1F
100
AcDbEntity
  8
1
  6
________________
 62
     7
370
     9
100
AcDbCircle
 10
1010.2493851224
 20
-240.5812470469
 30
0.0
 40
1.8
100
AcDbArc
 50
270.0
 51
347.5
  0
LINE
  5
FE
330
1F
100
AcDbEntity
  8
1
  6
________________
 62
     7
370
     9
100
AcDbLine
 10
1030.2586403538
 20
-240.970838352
 30
0.0
 11
1028.8615232006
 21
-234.6688501287
 31
0.0
  0
LINE
  5
FF
330
1F
100
AcDbEntity
  8
1
  6
________________
 62
     7
370
     9
100
AcDbLine
 10
1036.6493851224
 20
-242.3812470469
 30
0.0
 11
1032.0159731666
 21
-242.3812470469
 31
0.0
  0
ARC
  5
100
330
1F
100
AcDbEntity
  8
1
  6
________________
 62
     7
370
     9
100
AcDbCircle
 10
1032.0159731666
 20
-240.5812470469
 30
0.0
 40
1.8
100
AcDbArc
 50
192.5
 51
270.0
  0
ARC
  5
101
330
1F
100
AcDbEntity
  8
1
  6
________________
 62
     7
370
     9
100
AcDbCircle
 10
1043.5137599154
 20
-235.4913206617
 30
0.0
 40
3.8
100
AcDbArc
 50
98.8236574839
 51
167.5
  0
ARC
  5
102
330
1F
100
AcDbEntity
  8
1
  6
________________
 62
     7
370
     9
100
AcDbCircle
 10
1051.5515983736
 20
-235.4913206617
 30
0.0
 40
3.8
100
AcDbArc
 50
12.5
 51
81.17634251610001
  0
ARC
  5
103
330
1F
100
AcDbEntity
  8
1
  6
________________
 62
     7
370
     9
100
AcDbCircle
 10
1047.5326791445
 20
-261.3812470469
 30
0.0
 40
30.0
100
AcDbArc
 50
81.1763425161
 51
98.8236574839
  0
LINE
  5
104
330
1F
100
AcDbEntity
  8
1
  6
________________
 62
     7
370
     9
100
AcDbLine
 10
1038.4067179352
 20
-240.970838352
 30
0.0
 11
1039.8038350884
 21
-234.6688501287
 31
0.0
  0
ARC
  5
105
330
1F
100
AcDbEntity
  8
1
  6
________________
 62
     7
370
     9
100
AcDbCircle
 10
1036.6493851224
 20
-240.5812470469
 30
0.0
 40
1.8
100
AcDbArc
 50
270.0
 51
347.5
  0
LINE
  5
106
330
1F
100
AcDbEntity
  8
1
  6
________________
 62
     7
370
     9
100
AcDbLine
 10
1056.6586403538
 20
-240.970838352
 30
0.0
 11
1055.2615232006
 21
-234.6688501287
 31
0.0
  0
LINE
  5
107
330
1F
100
AcDbEntity
  8
1
  6
________________
 62
     7
370
     9
100
AcDbLine
 10
1063.0493851224
 20
-242.3812470469
 30
0.0
 11
1058.4159731666
 21
-242.3812470469
 31
0.0
  0
ARC
  5
108
330
1F
100
AcDbEntity
  8
1
  6
________________
 62
     7
370
     9
100
AcDbCircle
 10
1058.4159731666
 20
-240.5812470469
 30
0.0
 40
1.8
100
AcDbArc
 50
192.5
 51
270.0
  0
ARC
  5
109
330
1F
100
AcDbEntity
  8
1
  6
________________
 62
     7
370
     9
100
AcDbCircle
 10
1069.9137599154
 20
-235.4913206617
 30
0.0
 40
3.8
100
AcDbArc
 50
98.8236574839
 51
167.5
  0
ARC
  5
10A
330
1F
100
AcDbEntity
  8
1
  6
________________
 62
     7
370
     9
100
AcDbCircle
 10
1077.9515983736
 20
-235.4913206617
 30
0.0
 40
3.8
100
AcDbArc
 50
12.5
 51
81.17634251610001
  0
ARC
  5
10B
330
1F
100
AcDbEntity
  8
1
  6
________________
 62
     7
370
     9
100
AcDbCircle
 10
1073.9326791445
 20
-261.3812470469
 30
0.0
 40
30.0
100
AcDbArc
 50
81.1763425161
 51
98.8236574839
  0
LINE
  5
10C
330
1F
100
AcDbEntity
  8
1
  6
________________
 62
     7
370
     9
100
AcDbLine
 10
1064.8067179352
 20
-240.970838352
 30
0.0
 11
1066.2038350884
 21
-234.6688501287
 31
0.0
  0
ARC
  5
10D
330
1F
100
AcDbEntity
  8
1
  6
________________
 62
     7
370
     9
100
AcDbCircle
 10
1063.0493851224
 20
-240.5812470469
 30
0.0
 40
1.8
100
AcDbArc
 50
270.0
 51
347.5
  0
LINE
  5
10E
330
1F
100
AcDbEntity
  8
1
  6
________________
 62
     7
370
     9
100
AcDbLine
 10
1083.0586403538
 20
-240.970838352
 30
0.0
 11
1081.6615232006
 21
-234.6688501287
 31
0.0
  0
LINE
  5
10F
330
1F
100
AcDbEntity
  8
1
  6
________________
 62
     7
370
     9
100
AcDbLine
 10
1089.4493851224
 20
-242.3812470469
 30
0.0
 11
1084.8159731666
 21
-242.3812470469
 31
0.0
  0
ARC
  5
110
330
1F
100
AcDbEntity
  8
1
  6
________________
 62
     7
370
     9
100
AcDbCircle
 10
1084.8159731666
 20
-240.5812470469
 30
0.0
 40
1.8
100
AcDbArc
 50
192.5
 51
270.0
  0
ARC
  5
111
330
1F
100
AcDbEntity
  8
1
  6
________________
 62
     7
370
     9
100
AcDbCircle
 10
1096.3137599154
 20
-235.4913206617
 30
0.0
 40
3.8
100
AcDbArc
 50
98.8236574839
 51
167.5
  0
ARC
  5
112
330
1F
100
AcDbEntity
  8
1
  6
________________
 62
     7
370
     9
100
AcDbCircle
 10
1104.3515983736
 20
-235.4913206617
 30
0.0
 40
3.8
100
AcDbArc
 50
12.5
 51
81.17634251610001
  0
ARC
  5
113
330
1F
100
AcDbEntity
  8
1
  6
________________
 62
     7
370
     9
100
AcDbCircle
 10
1100.3326791445
 20
-261.3812470469
 30
0.0
 40
30.0
100
AcDbArc
 50
81.1763425161
 51
98.8236574839
  0
LINE
  5
114
330
1F
100
AcDbEntity
  8
1
  6
________________
 62
     7
370
     9
100
AcDbLine
 10
1091.2067179352
 20
-240.970838352
 30
0.0
 11
1092.6038350884
 21
-234.6688501287
 31
0.0
  0
ARC
  5
115
330
1F
100
AcDbEntity
  8
1
  6
________________
 62
     7
370
     9
100
AcDbCircle
 10
1089.4493851224
 20
-240.5812470469
 30
0.0
 40
1.8
100
AcDbArc
 50
270.0
 51
347.5
  0
LINE
  5
116
330
1F
100
AcDbEntity
  8
1
  6
________________
 62
     7
370
     9
100
AcDbLine
 10
1109.4586403538
 20
-240.970838352
 30
0.0
 11
1108.0615232006
 21
-234.6688501287
 31
0.0
  0
LINE
  5
117
330
1F
100
AcDbEntity
  8
1
  6
________________
 62
     7
370
     9
100
AcDbLine
 10
1115.8493851224
 20
-242.3812470469
 30
0.0
 11
1111.2159731666
 21
-242.3812470469
 31
0.0
  0
ARC
  5
118
330
1F
100
AcDbEntity
  8
1
  6
________________
 62
     7
370
     9
100
AcDbCircle
 10
1111.2159731666
 20
-240.5812470469
 30
0.0
 40
1.8
100
AcDbArc
 50
192.5
 51
270.0
  0
LINE
  5
119
330
1F
100
AcDbEntity
  8
1
  6
________________
 62
     7
370
     9
100
AcDbLine
 10
922.5326791445
 20
-233.1348068304
 30
0.0
 11
922.5326791445
 21
-359.6276872634
 31
0.0
  0
LINE
  5
11A
330
1F
100
AcDbEntity
  8
1
  6
________________
 62
     7
370
     9
100
AcDbLine
 10
908.5326791445
 20
-359.6276872634
 30
0.0
 11
908.5326791445
 21
-233.1348068304
 31
0.0
  0
ARC
  5
11B
330
1F
100
AcDbEntity
  8
1
  6
________________
 62
     7
370
     9
100
AcDbCircle
 10
911.5137599154
 20
-357.2711734321
 30
0.0
 40
3.8
100
AcDbArc
 50
192.5
 51
261.1763425161
  0
ARC
  5
11C
330
1F
100
AcDbEntity
  8
1
  6
________________
 62
     7
370
     9
100
AcDbCircle
 10
919.5515983736
 20
-357.2711734321
 30
0.0
 40
3.8
100
AcDbArc
 50
278.8236574839
 51
347.5
  0
ARC
  5
11D
330
1F
100
AcDbEntity
  8
1
  6
________________
 62
     7
370
     9
100
AcDbCircle
 10
915.5326791445
 20
-331.3812470469
 30
0.0
 40
30.0
100
AcDbArc
 50
261.1763425161
 51
278.8236574838999
  0
LINE
  5
11E
330
1F
100
AcDbEntity
  8
1
  6
________________
 62
     7
370
     9
100
AcDbLine
 10
906.4067179352
 20
-351.7916557418
 30
0.0
 11
907.8038350884
 21
-358.093643965
 31
0.0
  0
ARC
  5
11F
330
1F
100
AcDbEntity
  8
1
  6
________________
 62
     7
370
     9
100
AcDbCircle
 10
904.6493851224
 20
-352.1812470469
 30
0.0
 40
1.8
100
AcDbArc
 50
12.5
 51
90.0
  0
LINE
  5
120
330
1F
100
AcDbEntity
  8
1
  6
________________
 62
     7
370
     9
100
AcDbLine
 10
924.6586403538
 20
-351.7916557418
 30
0.0
 11
923.2615232006
 21
-358.093643965
 31
0.0
  0
LINE
  5
121
330
1F
100
AcDbEntity
  8
1
  6
________________
 62
     7
370
     9
100
AcDbLine
 10
931.0493851224
 20
-350.3812470469
 30
0.0
 11
926.4159731666
 21
-350.3812470469
 31
0.0
  0
ARC
  5
122
330
1F
100
AcDbEntity
  8
1
  6
________________
 62
     7
370
     9
100
AcDbCircle
 10
926.4159731666
 20
-352.1812470469
 30
0.0
 40
1.8
100
AcDbArc
 50
90.0
 51
167.5
  0
LINE
  5
123
330
1F
100
AcDbEntity
  8
1
  6
________________
 62
     7
370
     9
100
AcDbLine
 10
948.9326791445
 20
-233.1348068304
 30
0.0
 11
948.9326791445
 21
-359.6276872634
 31
0.0
  0
LINE
  5
124
330
1F
100
AcDbEntity
  8
1
  6
________________
 62
     7
370
     9
100
AcDbLine
 10
934.9326791445
 20
-359.6276872634
 30
0.0
 11
934.9326791445
 21
-233.1348068304
 31
0.0
  0
ARC
  5
125
330
1F
100
AcDbEntity
  8
1
  6
________________
 62
     7
370
     9
100
AcDbCircle
 10
937.9137599154
 20
-357.2711734321
 30
0.0
 40
3.8
100
AcDbArc
 50
192.5
 51
261.1763425161
  0
ARC
  5
126
330
1F
100
AcDbEntity
  8
1
  6
________________
 62
     7
370
     9
100
AcDbCircle
 10
945.9515983736
 20
-357.2711734321
 30
0.0
 40
3.8
100
AcDbArc
 50
278.8236574839
 51
347.5
  0
ARC
  5
127
330
1F
100
AcDbEntity
  8
1
  6
________________
 62
     7
370
     9
100
AcDbCircle
 10
941.9326791445
 20
-331.3812470469
 30
0.0
 40
30.0
100
AcDbArc
 50
261.1763425161
 51
278.8236574838999
  0
LINE
  5
128
330
1F
100
AcDbEntity
  8
1
  6
________________
 62
     7
370
     9
100
AcDbLine
 10
932.8067179352
 20
-351.7916557418
 30
0.0
 11
934.2038350884
 21
-358.093643965
 31
0.0
  0
ARC
  5
129
330
1F
100
AcDbEntity
  8
1
  6
________________
 62
     7
370
     9
100
AcDbCircle
 10
931.0493851224
 20
-352.1812470469
 30
0.0
 40
1.8
100
AcDbArc
 50
12.5
 51
90.0
  0
LINE
  5
12A
330
1F
100
AcDbEntity
  8
1
  6
________________
 62
     7
370
     9
100
AcDbLine
 10
951.0586403538
 20
-351.7916557418
 30
0.0
 11
949.6615232006
 21
-358.093643965
 31
0.0
  0
LINE
  5
12B
330
1F
100
AcDbEntity
  8
1
  6
________________
 62
     7
370
     9
100
AcDbLine
 10
957.4493851224
 20
-350.3812470469
 30
0.0
 11
952.8159731666
 21
-350.3812470469
 31
0.0
  0
ARC
  5
12C
330
1F
100
AcDbEntity
  8
1
  6
________________
 62
     7
370
     9
100
AcDbCircle
 10
952.8159731666
 20
-352.1812470469
 30
0.0
 40
1.8
100
AcDbArc
 50
90.0
 51
167.5
  0
LINE
  5
12D
330
1F
100
AcDbEntity
  8
1
  6
________________
 62
     7
370
     9
100
AcDbLine
 10
975.3326791445
 20
-233.1348068304
 30
0.0
 11
975.3326791445
 21
-359.6276872634
 31
0.0
  0
LINE
  5
12E
330
1F
100
AcDbEntity
  8
1
  6
________________
 62
     7
370
     9
100
AcDbLine
 10
961.3326791445
 20
-359.6276872634
 30
0.0
 11
961.3326791445
 21
-233.1348068304
 31
0.0
  0
ARC
  5
12F
330
1F
100
AcDbEntity
  8
1
  6
________________
 62
     7
370
     9
100
AcDbCircle
 10
964.3137599154
 20
-357.2711734321
 30
0.0
 40
3.8
100
AcDbArc
 50
192.5
 51
261.1763425161
  0
ARC
  5
130
330
1F
100
AcDbEntity
  8
1
  6
________________
 62
     7
370
     9
100
AcDbCircle
 10
972.3515983736
 20
-357.2711734321
 30
0.0
 40
3.8
100
AcDbArc
 50
278.8236574839
 51
347.5
  0
ARC
  5
131
330
1F
100
AcDbEntity
  8
1
  6
________________
 62
     7
370
     9
100
AcDbCircle
 10
968.3326791445
 20
-331.3812470469
 30
0.0
 40
30.0
100
AcDbArc
 50
261.1763425161
 51
278.8236574838999
  0
LINE
  5
132
330
1F
100
AcDbEntity
  8
1
  6
________________
 62
     7
370
     9
100
AcDbLine
 10
959.2067179352
 20
-351.7916557418
 30
0.0
 11
960.6038350884
 21
-358.093643965
 31
0.0
  0
ARC
  5
133
330
1F
100
AcDbEntity
  8
1
  6
________________
 62
     7
370
     9
100
AcDbCircle
 10
957.4493851224
 20
-352.1812470469
 30
0.0
 40
1.8
100
AcDbArc
 50
12.5
 51
90.0
  0
LINE
  5
134
330
1F
100
AcDbEntity
  8
1
  6
________________
 62
     7
370
     9
100
AcDbLine
 10
977.4586403538
 20
-351.7916557418
 30
0.0
 11
976.0615232006
 21
-358.093643965
 31
0.0
  0
LINE
  5
135
330
1F
100
AcDbEntity
  8
1
  6
________________
 62
     7
370
     9
100
AcDbLine
 10
983.8493851224
 20
-350.3812470469
 30
0.0
 11
979.2159731666
 21
-350.3812470469
 31
0.0
  0
ARC
  5
136
330
1F
100
AcDbEntity
  8
1
  6
________________
 62
     7
370
     9
100
AcDbCircle
 10
979.2159731666
 20
-352.1812470469
 30
0.0
 40
1.8
100
AcDbArc
 50
90.0
 51
167.5
  0
LINE
  5
137
330
1F
100
AcDbEntity
  8
1
  6
________________
 62
     7
370
     9
100
AcDbLine
 10
1001.7326791445
 20
-233.1348068304
 30
0.0
 11
1001.7326791445
 21
-359.6276872634
 31
0.0
  0
LINE
  5
138
330
1F
100
AcDbEntity
  8
1
  6
________________
 62
     7
370
     9
100
AcDbLine
 10
987.7326791445
 20
-359.6276872634
 30
0.0
 11
987.7326791445
 21
-233.1348068304
 31
0.0
  0
ARC
  5
139
330
1F
100
AcDbEntity
  8
1
  6
________________
 62
     7
370
     9
100
AcDbCircle
 10
990.7137599154
 20
-357.2711734321
 30
0.0
 40
3.8
100
AcDbArc
 50
192.5
 51
261.1763425161
  0
ARC
  5
13A
330
1F
100
AcDbEntity
  8
1
  6
________________
 62
     7
370
     9
100
AcDbCircle
 10
998.7515983736
 20
-357.2711734321
 30
0.0
 40
3.8
100
AcDbArc
 50
278.8236574839
 51
347.5
  0
ARC
  5
13B
330
1F
100
AcDbEntity
  8
1
  6
________________
 62
     7
370
     9
100
AcDbCircle
 10
994.7326791445
 20
-331.3812470469
 30
0.0
 40
30.0
100
AcDbArc
 50
261.1763425161
 51
278.8236574838999
  0
LINE
  5
13C
330
1F
100
AcDbEntity
  8
1
  6
________________
 62
     7
370
     9
100
AcDbLine
 10
985.6067179352
 20
-351.7916557418
 30
0.0
 11
987.0038350884
 21
-358.093643965
 31
0.0
  0
ARC
  5
13D
330
1F
100
AcDbEntity
  8
1
  6
________________
 62
     7
370
     9
100
AcDbCircle
 10
983.8493851224
 20
-352.1812470469
 30
0.0
 40
1.8
100
AcDbArc
 50
12.5
 51
90.0
  0
LINE
  5
13E
330
1F
100
AcDbEntity
  8
1
  6
________________
 62
     7
370
     9
100
AcDbLine
 10
1003.8586403538
 20
-351.7916557418
 30
0.0
 11
1002.4615232006
 21
-358.093643965
 31
0.0
  0
LINE
  5
13F
330
1F
100
AcDbEntity
  8
1
  6
________________
 62
     7
370
     9
100
AcDbLine
 10
1010.2493851224
 20
-350.3812470469
 30
0.0
 11
1005.6159731666
 21
-350.3812470469
 31
0.0
  0
ARC
  5
140
330
1F
100
AcDbEntity
  8
1
  6
________________
 62
     7
370
     9
100
AcDbCircle
 10
1005.6159731666
 20
-352.1812470469
 30
0.0
 40
1.8
100
AcDbArc
 50
90.0
 51
167.5
  0
ARC
  5
141
330
1F
100
AcDbEntity
  8
1
  6
________________
 62
     7
370
     9
100
AcDbCircle
 10
911.5137599154
 20
-235.4913206617
 30
0.0
 40
3.8
100
AcDbArc
 50
98.8236574839
 51
167.5
  0
ARC
  5
142
330
1F
100
AcDbEntity
  8
1
  6
________________
 62
     7
370
     9
100
AcDbCircle
 10
919.5515983736
 20
-235.4913206617
 30
0.0
 40
3.8
100
AcDbArc
 50
12.5
 51
81.17634251610001
  0
ARC
  5
143
330
1F
100
AcDbEntity
  8
1
  6
________________
 62
     7
370
     9
100
AcDbCircle
 10
915.5326791445
 20
-261.3812470469
 30
0.0
 40
30.0
100
AcDbArc
 50
81.1763425161
 51
98.8236574839
  0
LINE
  5
144
330
1F
100
AcDbEntity
  8
1
  6
________________
 62
     7
370
     9
100
AcDbLine
 10
906.4067179352
 20
-240.970838352
 30
0.0
 11
907.8038350884
 21
-234.6688501287
 31
0.0
  0
ARC
  5
145
330
1F
100
AcDbEntity
  8
1
  6
________________
 62
     7
370
     9
100
AcDbCircle
 10
904.6493851224
 20
-240.5812470469
 30
0.0
 40
1.8
100
AcDbArc
 50
270.0
 51
347.5
  0
LINE
  5
146
330
1F
100
AcDbEntity
  8
1
  6
________________
 62
     7
370
     9
100
AcDbLine
 10
924.6586403538
 20
-240.970838352
 30
0.0
 11
923.2615232006
 21
-234.6688501287
 31
0.0
  0
LINE
  5
147
330
1F
100
AcDbEntity
  8
1
  6
________________
 62
     7
370
     9
100
AcDbLine
 10
931.0493851224
 20
-242.3812470469
 30
0.0
 11
926.4159731666
 21
-242.3812470469
 31
0.0
  0
ARC
  5
148
330
1F
100
AcDbEntity
  8
1
  6
________________
 62
     7
370
     9
100
AcDbCircle
 10
926.4159731666
 20
-240.5812470469
 30
0.0
 40
1.8
100
AcDbArc
 50
192.5
 51
270.0
  0
ARC
  5
149
330
1F
100
AcDbEntity
  8
1
  6
________________
 62
     7
370
     9
100
AcDbCircle
 10
937.9137599154
 20
-235.4913206617
 30
0.0
 40
3.8
100
AcDbArc
 50
98.8236574839
 51
167.5
  0
ARC
  5
14A
330
1F
100
AcDbEntity
  8
1
  6
________________
 62
     7
370
     9
100
AcDbCircle
 10
945.9515983736
 20
-235.4913206617
 30
0.0
 40
3.8
100
AcDbArc
 50
12.5
 51
81.17634251610001
  0
ARC
  5
14B
330
1F
100
AcDbEntity
  8
1
  6
________________
 62
     7
370
     9
100
AcDbCircle
 10
941.9326791445
 20
-261.3812470469
 30
0.0
 40
30.0
100
AcDbArc
 50
81.1763425161
 51
98.8236574839
  0
LINE
  5
14C
330
1F
100
AcDbEntity
  8
1
  6
________________
 62
     7
370
     9
100
AcDbLine
 10
932.8067179352
 20
-240.970838352
 30
0.0
 11
934.2038350884
 21
-234.6688501287
 31
0.0
  0
ARC
  5
14D
330
1F
100
AcDbEntity
  8
1
  6
________________
 62
     7
370
     9
100
AcDbCircle
 10
931.0493851224
 20
-240.5812470469
 30
0.0
 40
1.8
100
AcDbArc
 50
270.0
 51
347.5
  0
LINE
  5
14E
330
1F
100
AcDbEntity
  8
1
  6
________________
 62
     7
370
     9
100
AcDbLine
 10
951.0586403538
 20
-240.970838352
 30
0.0
 11
949.6615232006
 21
-234.6688501287
 31
0.0
  0
LINE
  5
14F
330
1F
100
AcDbEntity
  8
1
  6
________________
 62
     7
370
     9
100
AcDbLine
 10
957.4493851224
 20
-242.3812470469
 30
0.0
 11
952.8159731666
 21
-242.3812470469
 31
0.0
  0
ARC
  5
150
330
1F
100
AcDbEntity
  8
1
  6
________________
 62
     7
370
     9
100
AcDbCircle
 10
952.8159731666
 20
-240.5812470469
 30
0.0
 40
1.8
100
AcDbArc
 50
192.5
 51
270.0
  0
ARC
  5
151
330
1F
100
AcDbEntity
  8
1
  6
________________
 62
     7
370
     9
100
AcDbCircle
 10
964.3137599154
 20
-235.4913206617
 30
0.0
 40
3.8
100
AcDbArc
 50
98.8236574839
 51
167.5
  0
ARC
  5
152
330
1F
100
AcDbEntity
  8
1
  6
________________
 62
     7
370
     9
100
AcDbCircle
 10
972.3515983736
 20
-235.4913206617
 30
0.0
 40
3.8
100
AcDbArc
 50
12.5
 51
81.17634251610001
  0
ARC
  5
153
330
1F
100
AcDbEntity
  8
1
  6
________________
 62
     7
370
     9
100
AcDbCircle
 10
968.3326791445
 20
-261.3812470469
 30
0.0
 40
30.0
100
AcDbArc
 50
81.1763425161
 51
98.8236574839
  0
LINE
  5
154
330
1F
100
AcDbEntity
  8
1
  6
________________
 62
     7
370
     9
100
AcDbLine
 10
959.2067179352
 20
-240.970838352
 30
0.0
 11
960.6038350884
 21
-234.6688501287
 31
0.0
  0
ARC
  5
155
330
1F
100
AcDbEntity
  8
1
  6
________________
 62
     7
370
     9
100
AcDbCircle
 10
957.4493851224
 20
-240.5812470469
 30
0.0
 40
1.8
100
AcDbArc
 50
270.0
 51
347.5
  0
LINE
  5
156
330
1F
100
AcDbEntity
  8
1
  6
________________
 62
     7
370
     9
100
AcDbLine
 10
977.4586403538
 20
-240.970838352
 30
0.0
 11
976.0615232006
 21
-234.6688501287
 31
0.0
  0
LINE
  5
157
330
1F
100
AcDbEntity
  8
1
  6
________________
 62
     7
370
     9
100
AcDbLine
 10
983.8493851224
 20
-242.3812470469
 30
0.0
 11
979.2159731666
 21
-242.3812470469
 31
0.0
  0
ARC
  5
158
330
1F
100
AcDbEntity
  8
1
  6
________________
 62
     7
370
     9
100
AcDbCircle
 10
979.2159731666
 20
-240.5812470469
 30
0.0
 40
1.8
100
AcDbArc
 50
192.5
 51
270.0
  0
ARC
  5
159
330
1F
100
AcDbEntity
  8
1
  6
________________
 62
     7
370
     9
100
AcDbCircle
 10
990.7137599154
 20
-235.4913206617
 30
0.0
 40
3.8
100
AcDbArc
 50
98.8236574839
 51
167.5
  0
ARC
  5
15A
330
1F
100
AcDbEntity
  8
1
  6
________________
 62
     7
370
     9
100
AcDbCircle
 10
998.7515983736
 20
-235.4913206617
 30
0.0
 40
3.8
100
AcDbArc
 50
12.5
 51
81.17634251610001
  0
ARC
  5
15B
330
1F
100
AcDbEntity
  8
1
  6
________________
 62
     7
370
     9
100
AcDbCircle
 10
994.7326791445
 20
-261.3812470469
 30
0.0
 40
30.0
100
AcDbArc
 50
81.1763425161
 51
98.8236574839
  0
LINE
  5
15C
330
1F
100
AcDbEntity
  8
1
  6
________________
 62
     7
370
     9
100
AcDbLine
 10
985.6067179352
 20
-240.970838352
 30
0.0
 11
987.0038350884
 21
-234.6688501287
 31
0.0
  0
ARC
  5
15D
330
1F
100
AcDbEntity
  8
1
  6
________________
 62
     7
370
     9
100
AcDbCircle
 10
983.8493851224
 20
-240.5812470469
 30
0.0
 40
1.8
100
AcDbArc
 50
270.0
 51
347.5
  0
LINE
  5
15E
330
1F
100
AcDbEntity
  8
1
  6
________________
 62
     7
370
     9
100
AcDbLine
 10
1003.8586403538
 20
-240.970838352
 30
0.0
 11
1002.4615232006
 21
-234.6688501287
 31
0.0
  0
LINE
  5
15F
330
1F
100
AcDbEntity
  8
1
  6
________________
 62
     7
370
     9
100
AcDbLine
 10
1010.2493851224
 20
-242.3812470469
 30
0.0
 11
1005.6159731666
 21
-242.3812470469
 31
0.0
  0
ARC
  5
160
330
1F
100
AcDbEntity
  8
1
  6
________________
 62
     7
370
     9
100
AcDbCircle
 10
1005.6159731666
 20
-240.5812470469
 30
0.0
 40
1.8
100
AcDbArc
 50
192.5
 51
270.0
  0
LINE
  5
161
330
1F
100
AcDbEntity
  8
1
  6
________________
 62
     7
370
     9
100
AcDbLine
 10
816.9326791445
 20
-233.1348068304
 30
0.0
 11
816.9326791445
 21
-359.6276872634
 31
0.0
  0
LINE
  5
162
330
1F
100
AcDbEntity
  8
1
  6
________________
 62
     7
370
     9
100
AcDbLine
 10
802.9326791445
 20
-359.6276872634
 30
0.0
 11
802.9326791445
 21
-233.1348068304
 31
0.0
  0
ARC
  5
163
330
1F
100
AcDbEntity
  8
1
  6
________________
 62
     7
370
     9
100
AcDbCircle
 10
805.9137599154
 20
-357.2711734321
 30
0.0
 40
3.8
100
AcDbArc
 50
192.5
 51
261.1763425161
  0
ARC
  5
164
330
1F
100
AcDbEntity
  8
1
  6
________________
 62
     7
370
     9
100
AcDbCircle
 10
813.9515983736
 20
-357.2711734321
 30
0.0
 40
3.8
100
AcDbArc
 50
278.8236574839
 51
347.5
  0
ARC
  5
165
330
1F
100
AcDbEntity
  8
1
  6
________________
 62
     7
370
     9
100
AcDbCircle
 10
809.9326791445
 20
-331.3812470469
 30
0.0
 40
30.0
100
AcDbArc
 50
261.1763425161
 51
278.8236574838999
  0
LINE
  5
166
330
1F
100
AcDbEntity
  8
1
  6
________________
 62
     7
370
     9
100
AcDbLine
 10
800.8067179352
 20
-351.7916557418
 30
0.0
 11
802.2038350884
 21
-358.093643965
 31
0.0
  0
ARC
  5
167
330
1F
100
AcDbEntity
  8
1
  6
________________
 62
     7
370
     9
100
AcDbCircle
 10
799.0493851224
 20
-352.1812470469
 30
0.0
 40
1.8
100
AcDbArc
 50
12.5
 51
90.0
  0
LINE
  5
168
330
1F
100
AcDbEntity
  8
1
  6
________________
 62
     7
370
     9
100
AcDbLine
 10
819.0586403538
 20
-351.7916557418
 30
0.0
 11
817.6615232006
 21
-358.093643965
 31
0.0
  0
LINE
  5
169
330
1F
100
AcDbEntity
  8
1
  6
________________
 62
     7
370
     9
100
AcDbLine
 10
825.4493851224
 20
-350.3812470469
 30
0.0
 11
820.8159731666
 21
-350.3812470469
 31
0.0
  0
ARC
  5
16A
330
1F
100
AcDbEntity
  8
1
  6
________________
 62
     7
370
     9
100
AcDbCircle
 10
820.8159731666
 20
-352.1812470469
 30
0.0
 40
1.8
100
AcDbArc
 50
90.0
 51
167.5
  0
LINE
  5
16B
330
1F
100
AcDbEntity
  8
1
  6
________________
 62
     7
370
     9
100
AcDbLine
 10
843.3326791445
 20
-233.1348068304
 30
0.0
 11
843.3326791445
 21
-359.6276872634
 31
0.0
  0
LINE
  5
16C
330
1F
100
AcDbEntity
  8
1
  6
________________
 62
     7
370
     9
100
AcDbLine
 10
829.3326791445
 20
-359.6276872634
 30
0.0
 11
829.3326791445
 21
-233.1348068304
 31
0.0
  0
ARC
  5
16D
330
1F
100
AcDbEntity
  8
1
  6
________________
 62
     7
370
     9
100
AcDbCircle
 10
832.3137599154
 20
-357.2711734321
 30
0.0
 40
3.8
100
AcDbArc
 50
192.5
 51
261.1763425161
  0
ARC
  5
16E
330
1F
100
AcDbEntity
  8
1
  6
________________
 62
     7
370
     9
100
AcDbCircle
 10
840.3515983736
 20
-357.2711734321
 30
0.0
 40
3.8
100
AcDbArc
 50
278.8236574839
 51
347.5
  0
ARC
  5
16F
330
1F
100
AcDbEntity
  8
1
  6
________________
 62
     7
370
     9
100
AcDbCircle
 10
836.3326791445
 20
-331.3812470469
 30
0.0
 40
30.0
100
AcDbArc
 50
261.1763425161
 51
278.8236574838999
  0
LINE
  5
170
330
1F
100
AcDbEntity
  8
1
  6
________________
 62
     7
370
     9
100
AcDbLine
 10
827.2067179352
 20
-351.7916557418
 30
0.0
 11
828.6038350884
 21
-358.093643965
 31
0.0
  0
ARC
  5
171
330
1F
100
AcDbEntity
  8
1
  6
________________
 62
     7
370
     9
100
AcDbCircle
 10
825.4493851224
 20
-352.1812470469
 30
0.0
 40
1.8
100
AcDbArc
 50
12.5
 51
90.0
  0
LINE
  5
172
330
1F
100
AcDbEntity
  8
1
  6
________________
 62
     7
370
     9
100
AcDbLine
 10
845.4586403538
 20
-351.7916557418
 30
0.0
 11
844.0615232006
 21
-358.093643965
 31
0.0
  0
LINE
  5
173
330
1F
100
AcDbEntity
  8
1
  6
________________
 62
     7
370
     9
100
AcDbLine
 10
851.8493851224
 20
-350.3812470469
 30
0.0
 11
847.2159731666
 21
-350.3812470469
 31
0.0
  0
ARC
  5
174
330
1F
100
AcDbEntity
  8
1
  6
________________
 62
     7
370
     9
100
AcDbCircle
 10
847.2159731666
 20
-352.1812470469
 30
0.0
 40
1.8
100
AcDbArc
 50
90.0
 51
167.5
  0
LINE
  5
175
330
1F
100
AcDbEntity
  8
1
  6
________________
 62
     7
370
     9
100
AcDbLine
 10
869.7326791445
 20
-233.1348068304
 30
0.0
 11
869.7326791445
 21
-359.6276872634
 31
0.0
  0
LINE
  5
176
330
1F
100
AcDbEntity
  8
1
  6
________________
 62
     7
370
     9
100
AcDbLine
 10
855.7326791445
 20
-359.6276872634
 30
0.0
 11
855.7326791445
 21
-233.1348068304
 31
0.0
  0
ARC
  5
177
330
1F
100
AcDbEntity
  8
1
  6
________________
 62
     7
370
     9
100
AcDbCircle
 10
858.7137599154
 20
-357.2711734321
 30
0.0
 40
3.8
100
AcDbArc
 50
192.5
 51
261.1763425161
  0
ARC
  5
178
330
1F
100
AcDbEntity
  8
1
  6
________________
 62
     7
370
     9
100
AcDbCircle
 10
866.7515983736
 20
-357.2711734321
 30
0.0
 40
3.8
100
AcDbArc
 50
278.8236574839
 51
347.5
  0
ARC
  5
179
330
1F
100
AcDbEntity
  8
1
  6
________________
 62
     7
370
     9
100
AcDbCircle
 10
862.7326791445
 20
-331.3812470469
 30
0.0
 40
30.0
100
AcDbArc
 50
261.1763425161
 51
278.8236574838999
  0
LINE
  5
17A
330
1F
100
AcDbEntity
  8
1
  6
________________
 62
     7
370
     9
100
AcDbLine
 10
853.6067179352
 20
-351.7916557418
 30
0.0
 11
855.0038350884
 21
-358.093643965
 31
0.0
  0
ARC
  5
17B
330
1F
100
AcDbEntity
  8
1
  6
________________
 62
     7
370
     9
100
AcDbCircle
 10
851.8493851224
 20
-352.1812470469
 30
0.0
 40
1.8
100
AcDbArc
 50
12.5
 51
90.0
  0
LINE
  5
17C
330
1F
100
AcDbEntity
  8
1
  6
________________
 62
     7
370
     9
100
AcDbLine
 10
871.8586403538
 20
-351.7916557418
 30
0.0
 11
870.4615232006
 21
-358.093643965
 31
0.0
  0
LINE
  5
17D
330
1F
100
AcDbEntity
  8
1
  6
________________
 62
     7
370
     9
100
AcDbLine
 10
878.2493851224
 20
-350.3812470469
 30
0.0
 11
873.6159731666
 21
-350.3812470469
 31
0.0
  0
ARC
  5
17E
330
1F
100
AcDbEntity
  8
1
  6
________________
 62
     7
370
     9
100
AcDbCircle
 10
873.6159731666
 20
-352.1812470469
 30
0.0
 40
1.8
100
AcDbArc
 50
90.0
 51
167.5
  0
LINE
  5
17F
330
1F
100
AcDbEntity
  8
1
  6
________________
 62
     7
370
     9
100
AcDbLine
 10
896.1326791445
 20
-233.1348068304
 30
0.0
 11
896.1326791445
 21
-359.6276872634
 31
0.0
  0
LINE
  5
180
330
1F
100
AcDbEntity
  8
1
  6
________________
 62
     7
370
     9
100
AcDbLine
 10
882.1326791445
 20
-359.6276872634
 30
0.0
 11
882.1326791445
 21
-233.1348068304
 31
0.0
  0
ARC
  5
181
330
1F
100
AcDbEntity
  8
1
  6
________________
 62
     7
370
     9
100
AcDbCircle
 10
885.1137599154
 20
-357.2711734321
 30
0.0
 40
3.8
100
AcDbArc
 50
192.5
 51
261.1763425161
  0
ARC
  5
182
330
1F
100
AcDbEntity
  8
1
  6
________________
 62
     7
370
     9
100
AcDbCircle
 10
893.1515983736
 20
-357.2711734321
 30
0.0
 40
3.8
100
AcDbArc
 50
278.8236574839
 51
347.5
  0
ARC
  5
183
330
1F
100
AcDbEntity
  8
1
  6
________________
 62
     7
370
     9
100
AcDbCircle
 10
889.1326791445
 20
-331.3812470469
 30
0.0
 40
30.0
100
AcDbArc
 50
261.1763425161
 51
278.8236574838999
  0
LINE
  5
184
330
1F
100
AcDbEntity
  8
1
  6
________________
 62
     7
370
     9
100
AcDbLine
 10
880.0067179352
 20
-351.7916557418
 30
0.0
 11
881.4038350884
 21
-358.093643965
 31
0.0
  0
ARC
  5
185
330
1F
100
AcDbEntity
  8
1
  6
________________
 62
     7
370
     9
100
AcDbCircle
 10
878.2493851224
 20
-352.1812470469
 30
0.0
 40
1.8
100
AcDbArc
 50
12.5
 51
90.0
  0
LINE
  5
186
330
1F
100
AcDbEntity
  8
1
  6
________________
 62
     7
370
     9
100
AcDbLine
 10
898.2586403538
 20
-351.7916557418
 30
0.0
 11
896.8615232006
 21
-358.093643965
 31
0.0
  0
LINE
  5
187
330
1F
100
AcDbEntity
  8
1
  6
________________
 62
     7
370
     9
100
AcDbLine
 10
904.6493851224
 20
-350.3812470469
 30
0.0
 11
900.0159731666
 21
-350.3812470469
 31
0.0
  0
ARC
  5
188
330
1F
100
AcDbEntity
  8
1
  6
________________
 62
     7
370
     9
100
AcDbCircle
 10
900.0159731666
 20
-352.1812470469
 30
0.0
 40
1.8
100
AcDbArc
 50
90.0
 51
167.5
  0
ARC
  5
189
330
1F
100
AcDbEntity
  8
1
  6
________________
 62
     7
370
     9
100
AcDbCircle
 10
805.9137599154
 20
-235.4913206617
 30
0.0
 40
3.8
100
AcDbArc
 50
98.8236574839
 51
167.5
  0
ARC
  5
18A
330
1F
100
AcDbEntity
  8
1
  6
________________
 62
     7
370
     9
100
AcDbCircle
 10
813.9515983736
 20
-235.4913206617
 30
0.0
 40
3.8
100
AcDbArc
 50
12.5
 51
81.17634251610001
  0
ARC
  5
18B
330
1F
100
AcDbEntity
  8
1
  6
________________
 62
     7
370
     9
100
AcDbCircle
 10
809.9326791445
 20
-261.3812470469
 30
0.0
 40
30.0
100
AcDbArc
 50
81.1763425161
 51
98.8236574839
  0
LINE
  5
18C
330
1F
100
AcDbEntity
  8
1
  6
________________
 62
     7
370
     9
100
AcDbLine
 10
800.8067179352
 20
-240.970838352
 30
0.0
 11
802.2038350884
 21
-234.6688501287
 31
0.0
  0
ARC
  5
18D
330
1F
100
AcDbEntity
  8
1
  6
________________
 62
     7
370
     9
100
AcDbCircle
 10
799.0493851224
 20
-240.5812470469
 30
0.0
 40
1.8
100
AcDbArc
 50
270.0
 51
347.5
  0
LINE
  5
18E
330
1F
100
AcDbEntity
  8
1
  6
________________
 62
     7
370
     9
100
AcDbLine
 10
819.0586403538
 20
-240.970838352
 30
0.0
 11
817.6615232006
 21
-234.6688501287
 31
0.0
  0
LINE
  5
18F
330
1F
100
AcDbEntity
  8
1
  6
________________
 62
     7
370
     9
100
AcDbLine
 10
825.4493851224
 20
-242.3812470469
 30
0.0
 11
820.8159731666
 21
-242.3812470469
 31
0.0
  0
ARC
  5
190
330
1F
100
AcDbEntity
  8
1
  6
________________
 62
     7
370
     9
100
AcDbCircle
 10
820.8159731666
 20
-240.5812470469
 30
0.0
 40
1.8
100
AcDbArc
 50
192.5
 51
270.0
  0
ARC
  5
191
330
1F
100
AcDbEntity
  8
1
  6
________________
 62
     7
370
     9
100
AcDbCircle
 10
832.3137599154
 20
-235.4913206617
 30
0.0
 40
3.8
100
AcDbArc
 50
98.8236574839
 51
167.5
  0
ARC
  5
192
330
1F
100
AcDbEntity
  8
1
  6
________________
 62
     7
370
     9
100
AcDbCircle
 10
840.3515983736
 20
-235.4913206617
 30
0.0
 40
3.8
100
AcDbArc
 50
12.5
 51
81.17634251610001
  0
ARC
  5
193
330
1F
100
AcDbEntity
  8
1
  6
________________
 62
     7
370
     9
100
AcDbCircle
 10
836.3326791445
 20
-261.3812470469
 30
0.0
 40
30.0
100
AcDbArc
 50
81.1763425161
 51
98.8236574839
  0
LINE
  5
194
330
1F
100
AcDbEntity
  8
1
  6
________________
 62
     7
370
     9
100
AcDbLine
 10
827.2067179352
 20
-240.970838352
 30
0.0
 11
828.6038350884
 21
-234.6688501287
 31
0.0
  0
ARC
  5
195
330
1F
100
AcDbEntity
  8
1
  6
________________
 62
     7
370
     9
100
AcDbCircle
 10
825.4493851224
 20
-240.5812470469
 30
0.0
 40
1.8
100
AcDbArc
 50
270.0
 51
347.5
  0
LINE
  5
196
330
1F
100
AcDbEntity
  8
1
  6
________________
 62
     7
370
     9
100
AcDbLine
 10
845.4586403538
 20
-240.970838352
 30
0.0
 11
844.0615232006
 21
-234.6688501287
 31
0.0
  0
LINE
  5
197
330
1F
100
AcDbEntity
  8
1
  6
________________
 62
     7
370
     9
100
AcDbLine
 10
851.8493851224
 20
-242.3812470469
 30
0.0
 11
847.2159731666
 21
-242.3812470469
 31
0.0
  0
ARC
  5
198
330
1F
100
AcDbEntity
  8
1
  6
________________
 62
     7
370
     9
100
AcDbCircle
 10
847.2159731666
 20
-240.5812470469
 30
0.0
 40
1.8
100
AcDbArc
 50
192.5
 51
270.0
  0
ARC
  5
199
330
1F
100
AcDbEntity
  8
1
  6
________________
 62
     7
370
     9
100
AcDbCircle
 10
858.7137599154
 20
-235.4913206617
 30
0.0
 40
3.8
100
AcDbArc
 50
98.8236574839
 51
167.5
  0
ARC
  5
19A
330
1F
100
AcDbEntity
  8
1
  6
________________
 62
     7
370
     9
100
AcDbCircle
 10
866.7515983736
 20
-235.4913206617
 30
0.0
 40
3.8
100
AcDbArc
 50
12.5
 51
81.17634251610001
  0
ARC
  5
19B
330
1F
100
AcDbEntity
  8
1
  6
________________
 62
     7
370
     9
100
AcDbCircle
 10
862.7326791445
 20
-261.3812470469
 30
0.0
 40
30.0
100
AcDbArc
 50
81.1763425161
 51
98.8236574839
  0
LINE
  5
19C
330
1F
100
AcDbEntity
  8
1
  6
________________
 62
     7
370
     9
100
AcDbLine
 10
853.6067179352
 20
-240.970838352
 30
0.0
 11
855.0038350884
 21
-234.6688501287
 31
0.0
  0
ARC
  5
19D
330
1F
100
AcDbEntity
  8
1
  6
________________
 62
     7
370
     9
100
AcDbCircle
 10
851.8493851224
 20
-240.5812470469
 30
0.0
 40
1.8
100
AcDbArc
 50
270.0
 51
347.5
  0
LINE
  5
19E
330
1F
100
AcDbEntity
  8
1
  6
________________
 62
     7
370
     9
100
AcDbLine
 10
871.8586403538
 20
-240.970838352
 30
0.0
 11
870.4615232006
 21
-234.6688501287
 31
0.0
  0
LINE
  5
19F
330
1F
100
AcDbEntity
  8
1
  6
________________
 62
     7
370
     9
100
AcDbLine
 10
878.2493851224
 20
-242.3812470469
 30
0.0
 11
873.6159731666
 21
-242.3812470469
 31
0.0
  0
ARC
  5
1A0
330
1F
100
AcDbEntity
  8
1
  6
________________
 62
     7
370
     9
100
AcDbCircle
 10
873.6159731666
 20
-240.5812470469
 30
0.0
 40
1.8
100
AcDbArc
 50
192.5
 51
270.0
  0
ARC
  5
1A1
330
1F
100
AcDbEntity
  8
1
  6
________________
 62
     7
370
     9
100
AcDbCircle
 10
885.1137599154
 20
-235.4913206617
 30
0.0
 40
3.8
100
AcDbArc
 50
98.8236574839
 51
167.5
  0
ARC
  5
1A2
330
1F
100
AcDbEntity
  8
1
  6
________________
 62
     7
370
     9
100
AcDbCircle
 10
893.1515983736
 20
-235.4913206617
 30
0.0
 40
3.8
100
AcDbArc
 50
12.5
 51
81.17634251610001
  0
ARC
  5
1A3
330
1F
100
AcDbEntity
  8
1
  6
________________
 62
     7
370
     9
100
AcDbCircle
 10
889.1326791445
 20
-261.3812470469
 30
0.0
 40
30.0
100
AcDbArc
 50
81.1763425161
 51
98.8236574839
  0
LINE
  5
1A4
330
1F
100
AcDbEntity
  8
1
  6
________________
 62
     7
370
     9
100
AcDbLine
 10
880.0067179352
 20
-240.970838352
 30
0.0
 11
881.4038350884
 21
-234.6688501287
 31
0.0
  0
ARC
  5
1A5
330
1F
100
AcDbEntity
  8
1
  6
________________
 62
     7
370
     9
100
AcDbCircle
 10
878.2493851224
 20
-240.5812470469
 30
0.0
 40
1.8
100
AcDbArc
 50
270.0
 51
347.5
  0
LINE
  5
1A6
330
1F
100
AcDbEntity
  8
1
  6
________________
 62
     7
370
     9
100
AcDbLine
 10
898.2586403538
 20
-240.970838352
 30
0.0
 11
896.8615232006
 21
-234.6688501287
 31
0.0
  0
LINE
  5
1A7
330
1F
100
AcDbEntity
  8
1
  6
________________
 62
     7
370
     9
100
AcDbLine
 10
904.6493851224
 20
-242.3812470469
 30
0.0
 11
900.0159731666
 21
-242.3812470469
 31
0.0
  0
ARC
  5
1A8
330
1F
100
AcDbEntity
  8
1
  6
________________
 62
     7
370
     9
100
AcDbCircle
 10
900.0159731666
 20
-240.5812470469
 30
0.0
 40
1.8
100
AcDbArc
 50
192.5
 51
270.0
  0
LINE
  5
1A9
330
1F
100
AcDbEntity
  8
1
  6
________________
 62
     7
370
     9
100
AcDbLine
 10
737.7326791445
 20
-233.1348068304
 30
0.0
 11
737.7326791445
 21
-359.6276872634
 31
0.0
  0
LINE
  5
1AA
330
1F
100
AcDbEntity
  8
1
  6
________________
 62
     7
370
     9
100
AcDbLine
 10
723.7326791445
 20
-359.6276872634
 30
0.0
 11
723.7326791445
 21
-233.1348068304
 31
0.0
  0
LINE
  5
1AB
330
1F
100
AcDbEntity
  8
1
  6
________________
 62
     7
370
     9
100
AcDbLine
 10
719.8493851224
 20
-350.3812470469
 30
0.0
 11
717.5326791445
 21
-350.3812470469
 31
0.0
  0
ARC
  5
1AC
330
1F
100
AcDbEntity
  8
1
  6
________________
 62
     7
370
     9
100
AcDbCircle
 10
726.7137599154
 20
-357.2711734321
 30
0.0
 40
3.8
100
AcDbArc
 50
192.5
 51
261.1763425161
  0
ARC
  5
1AD
330
1F
100
AcDbEntity
  8
1
  6
________________
 62
     7
370
     9
100
AcDbCircle
 10
734.7515983736
 20
-357.2711734321
 30
0.0
 40
3.8
100
AcDbArc
 50
278.8236574839
 51
347.5
  0
ARC
  5
1AE
330
1F
100
AcDbEntity
  8
1
  6
________________
 62
     7
370
     9
100
AcDbCircle
 10
730.7326791445
 20
-331.3812470469
 30
0.0
 40
30.0
100
AcDbArc
 50
261.1763425161
 51
278.8236574838999
  0
LINE
  5
1AF
330
1F
100
AcDbEntity
  8
1
  6
________________
 62
     7
370
     9
100
AcDbLine
 10
721.6067179352
 20
-351.7916557418
 30
0.0
 11
723.0038350884
 21
-358.093643965
 31
0.0
  0
ARC
  5
1B0
330
1F
100
AcDbEntity
  8
1
  6
________________
 62
     7
370
     9
100
AcDbCircle
 10
719.8493851224
 20
-352.1812470469
 30
0.0
 40
1.8
100
AcDbArc
 50
12.5
 51
90.0
  0
LINE
  5
1B1
330
1F
100
AcDbEntity
  8
1
  6
________________
 62
     7
370
     9
100
AcDbLine
 10
739.8586403538
 20
-351.7916557418
 30
0.0
 11
738.4615232006
 21
-358.093643965
 31
0.0
  0
LINE
  5
1B2
330
1F
100
AcDbEntity
  8
1
  6
________________
 62
     7
370
     9
100
AcDbLine
 10
746.2493851224
 20
-350.3812470469
 30
0.0
 11
741.6159731666
 21
-350.3812470469
 31
0.0
  0
ARC
  5
1B3
330
1F
100
AcDbEntity
  8
1
  6
________________
 62
     7
370
     9
100
AcDbCircle
 10
741.6159731666
 20
-352.1812470469
 30
0.0
 40
1.8
100
AcDbArc
 50
90.0
 51
167.5
  0
LINE
  5
1B4
330
1F
100
AcDbEntity
  8
1
  6
________________
 62
     7
370
     9
100
AcDbLine
 10
764.1326791445
 20
-233.1348068304
 30
0.0
 11
764.1326791445
 21
-359.6276872634
 31
0.0
  0
LINE
  5
1B5
330
1F
100
AcDbEntity
  8
1
  6
________________
 62
     7
370
     9
100
AcDbLine
 10
750.1326791445
 20
-359.6276872634
 30
0.0
 11
750.1326791445
 21
-233.1348068304
 31
0.0
  0
ARC
  5
1B6
330
1F
100
AcDbEntity
  8
1
  6
________________
 62
     7
370
     9
100
AcDbCircle
 10
753.1137599154
 20
-357.2711734321
 30
0.0
 40
3.8
100
AcDbArc
 50
192.5
 51
261.1763425161
  0
ARC
  5
1B7
330
1F
100
AcDbEntity
  8
1
  6
________________
 62
     7
370
     9
100
AcDbCircle
 10
761.1515983736
 20
-357.2711734321
 30
0.0
 40
3.8
100
AcDbArc
 50
278.8236574839
 51
347.5
  0
ARC
  5
1B8
330
1F
100
AcDbEntity
  8
1
  6
________________
 62
     7
370
     9
100
AcDbCircle
 10
757.1326791445
 20
-331.3812470469
 30
0.0
 40
30.0
100
AcDbArc
 50
261.1763425161
 51
278.8236574838999
  0
LINE
  5
1B9
330
1F
100
AcDbEntity
  8
1
  6
________________
 62
     7
370
     9
100
AcDbLine
 10
748.0067179352
 20
-351.7916557418
 30
0.0
 11
749.4038350884
 21
-358.093643965
 31
0.0
  0
ARC
  5
1BA
330
1F
100
AcDbEntity
  8
1
  6
________________
 62
     7
370
     9
100
AcDbCircle
 10
746.2493851224
 20
-352.1812470469
 30
0.0
 40
1.8
100
AcDbArc
 50
12.5
 51
90.0
  0
LINE
  5
1BB
330
1F
100
AcDbEntity
  8
1
  6
________________
 62
     7
370
     9
100
AcDbLine
 10
766.2586403538
 20
-351.7916557418
 30
0.0
 11
764.8615232006
 21
-358.093643965
 31
0.0
  0
LINE
  5
1BC
330
1F
100
AcDbEntity
  8
1
  6
________________
 62
     7
370
     9
100
AcDbLine
 10
772.6493851224
 20
-350.3812470469
 30
0.0
 11
768.0159731666
 21
-350.3812470469
 31
0.0
  0
ARC
  5
1BD
330
1F
100
AcDbEntity
  8
1
  6
________________
 62
     7
370
     9
100
AcDbCircle
 10
768.0159731666
 20
-352.1812470469
 30
0.0
 40
1.8
100
AcDbArc
 50
90.0
 51
167.5
  0
LINE
  5
1BE
330
1F
100
AcDbEntity
  8
1
  6
________________
 62
     7
370
     9
100
AcDbLine
 10
790.5326791445
 20
-233.1348068304
 30
0.0
 11
790.5326791445
 21
-359.6276872634
 31
0.0
  0
LINE
  5
1BF
330
1F
100
AcDbEntity
  8
1
  6
________________
 62
     7
370
     9
100
AcDbLine
 10
776.5326791445
 20
-359.6276872634
 30
0.0
 11
776.5326791445
 21
-233.1348068304
 31
0.0
  0
ARC
  5
1C0
330
1F
100
AcDbEntity
  8
1
  6
________________
 62
     7
370
     9
100
AcDbCircle
 10
779.5137599154
 20
-357.2711734321
 30
0.0
 40
3.8
100
AcDbArc
 50
192.5
 51
261.1763425161
  0
ARC
  5
1C1
330
1F
100
AcDbEntity
  8
1
  6
________________
 62
     7
370
     9
100
AcDbCircle
 10
787.5515983736
 20
-357.2711734321
 30
0.0
 40
3.8
100
AcDbArc
 50
278.8236574839
 51
347.5
  0
ARC
  5
1C2
330
1F
100
AcDbEntity
  8
1
  6
________________
 62
     7
370
     9
100
AcDbCircle
 10
783.5326791445
 20
-331.3812470469
 30
0.0
 40
30.0
100
AcDbArc
 50
261.1763425161
 51
278.8236574838999
  0
LINE
  5
1C3
330
1F
100
AcDbEntity
  8
1
  6
________________
 62
     7
370
     9
100
AcDbLine
 10
774.4067179352
 20
-351.7916557418
 30
0.0
 11
775.8038350884
 21
-358.093643965
 31
0.0
  0
ARC
  5
1C4
330
1F
100
AcDbEntity
  8
1
  6
________________
 62
     7
370
     9
100
AcDbCircle
 10
772.6493851224
 20
-352.1812470469
 30
0.0
 40
1.8
100
AcDbArc
 50
12.5
 51
90.0
  0
LINE
  5
1C5
330
1F
100
AcDbEntity
  8
1
  6
________________
 62
     7
370
     9
100
AcDbLine
 10
792.6586403538
 20
-351.7916557418
 30
0.0
 11
791.2615232006
 21
-358.093643965
 31
0.0
  0
LINE
  5
1C6
330
1F
100
AcDbEntity
  8
1
  6
________________
 62
     7
370
     9
100
AcDbLine
 10
799.0493851224
 20
-350.3812470469
 30
0.0
 11
794.4159731666
 21
-350.3812470469
 31
0.0
  0
ARC
  5
1C7
330
1F
100
AcDbEntity
  8
1
  6
________________
 62
     7
370
     9
100
AcDbCircle
 10
794.4159731666
 20
-352.1812470469
 30
0.0
 40
1.8
100
AcDbArc
 50
90.0
 51
167.5
  0
LINE
  5
1C8
330
1F
100
AcDbEntity
  8
1
  6
________________
 62
     7
370
     9
100
AcDbLine
 10
719.8493851224
 20
-242.3812470469
 30
0.0
 11
717.5326791445
 21
-242.3812470469
 31
0.0
  0
ARC
  5
1C9
330
1F
100
AcDbEntity
  8
1
  6
________________
 62
     7
370
     9
100
AcDbCircle
 10
726.7137599154
 20
-235.4913206617
 30
0.0
 40
3.8
100
AcDbArc
 50
98.8236574839
 51
167.5
  0
ARC
  5
1CA
330
1F
100
AcDbEntity
  8
1
  6
________________
 62
     7
370
     9
100
AcDbCircle
 10
734.7515983736
 20
-235.4913206617
 30
0.0
 40
3.8
100
AcDbArc
 50
12.5
 51
81.17634251610001
  0
ARC
  5
1CB
330
1F
100
AcDbEntity
  8
1
  6
________________
 62
     7
370
     9
100
AcDbCircle
 10
730.7326791445
 20
-261.3812470469
 30
0.0
 40
30.0
100
AcDbArc
 50
81.1763425161
 51
98.8236574839
  0
LINE
  5
1CC
330
1F
100
AcDbEntity
  8
1
  6
________________
 62
     7
370
     9
100
AcDbLine
 10
721.6067179352
 20
-240.970838352
 30
0.0
 11
723.0038350884
 21
-234.6688501287
 31
0.0
  0
ARC
  5
1CD
330
1F
100
AcDbEntity
  8
1
  6
________________
 62
     7
370
     9
100
AcDbCircle
 10
719.8493851224
 20
-240.5812470469
 30
0.0
 40
1.8
100
AcDbArc
 50
270.0
 51
347.5
  0
LINE
  5
1CE
330
1F
100
AcDbEntity
  8
1
  6
________________
 62
     7
370
     9
100
AcDbLine
 10
739.8586403538
 20
-240.970838352
 30
0.0
 11
738.4615232006
 21
-234.6688501287
 31
0.0
  0
LINE
  5
1CF
330
1F
100
AcDbEntity
  8
1
  6
________________
 62
     7
370
     9
100
AcDbLine
 10
746.2493851224
 20
-242.3812470469
 30
0.0
 11
741.6159731666
 21
-242.3812470469
 31
0.0
  0
ARC
  5
1D0
330
1F
100
AcDbEntity
  8
1
  6
________________
 62
     7
370
     9
100
AcDbCircle
 10
741.6159731666
 20
-240.5812470469
 30
0.0
 40
1.8
100
AcDbArc
 50
192.5
 51
270.0
  0
ARC
  5
1D1
330
1F
100
AcDbEntity
  8
1
  6
________________
 62
     7
370
     9
100
AcDbCircle
 10
753.1137599154
 20
-235.4913206617
 30
0.0
 40
3.8
100
AcDbArc
 50
98.8236574839
 51
167.5
  0
ARC
  5
1D2
330
1F
100
AcDbEntity
  8
1
  6
________________
 62
     7
370
     9
100
AcDbCircle
 10
761.1515983736
 20
-235.4913206617
 30
0.0
 40
3.8
100
AcDbArc
 50
12.5
 51
81.17634251610001
  0
ARC
  5
1D3
330
1F
100
AcDbEntity
  8
1
  6
________________
 62
     7
370
     9
100
AcDbCircle
 10
757.1326791445
 20
-261.3812470469
 30
0.0
 40
30.0
100
AcDbArc
 50
81.1763425161
 51
98.8236574839
  0
LINE
  5
1D4
330
1F
100
AcDbEntity
  8
1
  6
________________
 62
     7
370
     9
100
AcDbLine
 10
748.0067179352
 20
-240.970838352
 30
0.0
 11
749.4038350884
 21
-234.6688501287
 31
0.0
  0
ARC
  5
1D5
330
1F
100
AcDbEntity
  8
1
  6
________________
 62
     7
370
     9
100
AcDbCircle
 10
746.2493851224
 20
-240.5812470469
 30
0.0
 40
1.8
100
AcDbArc
 50
270.0
 51
347.5
  0
LINE
  5
1D6
330
1F
100
AcDbEntity
  8
1
  6
________________
 62
     7
370
     9
100
AcDbLine
 10
766.2586403538
 20
-240.970838352
 30
0.0
 11
764.8615232006
 21
-234.6688501287
 31
0.0
  0
LINE
  5
1D7
330
1F
100
AcDbEntity
  8
1
  6
________________
 62
     7
370
     9
100
AcDbLine
 10
772.6493851224
 20
-242.3812470469
 30
0.0
 11
768.0159731666
 21
-242.3812470469
 31
0.0
  0
ARC
  5
1D8
330
1F
100
AcDbEntity
  8
1
  6
________________
 62
     7
370
     9
100
AcDbCircle
 10
768.0159731666
 20
-240.5812470469
 30
0.0
 40
1.8
100
AcDbArc
 50
192.5
 51
270.0
  0
ARC
  5
1D9
330
1F
100
AcDbEntity
  8
1
  6
________________
 62
     7
370
     9
100
AcDbCircle
 10
779.5137599154
 20
-235.4913206617
 30
0.0
 40
3.8
100
AcDbArc
 50
98.8236574839
 51
167.5
  0
ARC
  5
1DA
330
1F
100
AcDbEntity
  8
1
  6
________________
 62
     7
370
     9
100
AcDbCircle
 10
787.5515983736
 20
-235.4913206617
 30
0.0
 40
3.8
100
AcDbArc
 50
12.5
 51
81.17634251610001
  0
ARC
  5
1DB
330
1F
100
AcDbEntity
  8
1
  6
________________
 62
     7
370
     9
100
AcDbCircle
 10
783.5326791445
 20
-261.3812470469
 30
0.0
 40
30.0
100
AcDbArc
 50
81.1763425161
 51
98.8236574839
  0
LINE
  5
1DC
330
1F
100
AcDbEntity
  8
1
  6
________________
 62
     7
370
     9
100
AcDbLine
 10
774.4067179352
 20
-240.970838352
 30
0.0
 11
775.8038350884
 21
-234.6688501287
 31
0.0
  0
ARC
  5
1DD
330
1F
100
AcDbEntity
  8
1
  6
________________
 62
     7
370
     9
100
AcDbCircle
 10
772.6493851224
 20
-240.5812470469
 30
0.0
 40
1.8
100
AcDbArc
 50
270.0
 51
347.5
  0
LINE
  5
1DE
330
1F
100
AcDbEntity
  8
1
  6
________________
 62
     7
370
     9
100
AcDbLine
 10
792.6586403538
 20
-240.970838352
 30
0.0
 11
791.2615232006
 21
-234.6688501287
 31
0.0
  0
LINE
  5
1DF
330
1F
100
AcDbEntity
  8
1
  6
________________
 62
     7
370
     9
100
AcDbLine
 10
799.0493851224
 20
-242.3812470469
 30
0.0
 11
794.4159731666
 21
-242.3812470469
 31
0.0
  0
ARC
  5
1E0
330
1F
100
AcDbEntity
  8
1
  6
________________
 62
     7
370
     9
100
AcDbCircle
 10
794.4159731666
 20
-240.5812470469
 30
0.0
 40
1.8
100
AcDbArc
 50
192.5
 51
270.0
  0
LINE
  5
1E1
330
1F
100
AcDbEntity
  8
1
  6
________________
 62
     7
370
     9
100
AcDbLine
 10
1243.2159731666
 20
-242.3812470469
 30
0.0
 11
1243.2159731666
 21
-350.3812470469
 31
0.0
  0
LINE
  5
1E2
330
1F
100
AcDbEntity
  8
1
  6
________________
 62
     7
370
     9
100
AcDbLine
 10
717.5326791445
 20
-242.3812470469
 30
0.0
 11
717.5326791445
 21
-350.3812470469
 31
0.0
  0
MTEXT
  5
1E3
330
1F
100
AcDbEntity
  8
1
 62
     7
100
AcDbMText
 10
1337.818296988429
 20
-374.2918787272728
 30
0.0
 40
5.0
 41
0.0
 46
0.0
 71
     1
 72
     1
  1
{\FＭＳ ゴシック;\W0.867543;Ｎ－ＦＥＰ－１００５０Ｃ}
 73
     1
 44
1.0
  0
ENDSEC
  0
SECTION
  2
OBJECTS
  0
DICTIONARY
  5
C
330
0
100
AcDbDictionary
281
     1
  3
ACAD_GROUP
350
D
  3
ACAD_LAYOUT
350
1A
  3
ACAD_MLEADERSTYLE
350
1E5
  3
ACAD_MLINESTYLE
350
17
  3
ACAD_PLOTSETTINGS
350
19
  3
ACAD_PLOTSTYLENAME
350
E
  3
ACAD_TABLESTYLE
350
1E4
  3
ACAD_VISUALSTYLE
350
2A
  0
DICTIONARY
  5
D
102
{ACAD_REACTORS
330
C
102
}
330
C
100
AcDbDictionary
281
     1
  0
DICTIONARY
  5
1A
102
{ACAD_REACTORS
330
C
102
}
330
C
100
AcDbDictionary
281
     1
  3
Layout1
350
1E
  3
Layout2
350
26
  3
Model
350
22
  0
DICTIONARY
  5
1E5
102
{ACAD_REACTORS
330
C
102
}
330
C
100
AcDbDictionary
281
     1
  0
DICTIONARY
  5
17
102
{ACAD_REACTORS
330
C
102
}
330
C
100
AcDbDictionary
281
     1
  3
Standard
350
18
  0
DICTIONARY
  5
19
102
{ACAD_REACTORS
330
C
102
}
330
C
100
AcDbDictionary
281
     1
  0
ACDBDICTIONARYWDFLT
  5
E
102
{ACAD_REACTORS
330
C
102
}
330
C
100
AcDbDictionary
281
     1
  3
Normal
350
F
100
AcDbDictionaryWithDefault
340
F
  0
DICTIONARY
  5
1E4
102
{ACAD_REACTORS
330
C
102
}
330
C
100
AcDbDictionary
281
     1
  0
DICTIONARY
  5
2A
102
{ACAD_REACTORS
330
C
102
}
330
C
100
AcDbDictionary
281
     1
  3
2dWireframe
350
2F
  3
3D Hidden
350
31
  3
3dWireframe
350
30
  3
Basic
350
32
  3
Brighten
350
36
  3
ColorChange
350
3A
  3
Conceptual
350
34
  3
Dim
350
35
  3
Facepattern
350
39
  3
Flat
350
2B
  3
FlatWithEdges
350
2C
  3
Gouraud
350
2D
  3
GouraudWithEdges
350
2E
  3
Linepattern
350
38
  3
Realistic
350
33
  3
Thicken
350
37
  0
LAYOUT
  5
1E
102
{ACAD_REACTORS
330
1A
102
}
330
1A
100
AcDbPlotSettings
  1

  2
none_device
  4

  6

 40
0.0
 41
0.0
 42
0.0
 43
0.0
 44
0.0
 45
0.0
 46
0.0
 47
0.0
 48
0.0
 49
0.0
140
0.0
141
0.0
142
1.0
143
1.0
 70
   688
 72
     0
 73
     0
 74
     5
  7

 75
    16
 76
     0
 77
     2
 78
   300
147
1.0
148
0.0
149
0.0
100
AcDbLayout
  1
Layout1
 70
     1
 71
     1
 10
0.0
 20
0.0
 11
12.0
 21
9.0
 12
0.0
 22
0.0
 32
0.0
 14
1.000000000000000E+20
 24
1.000000000000000E+20
 34
1.000000000000000E+20
 15
-1.000000000000000E+20
 25
-1.000000000000000E+20
 35
-1.000000000000000E+20
146
0.0
 13
0.0
 23
0.0
 33
0.0
 16
1.0
 26
0.0
 36
0.0
 17
0.0
 27
1.0
 37
0.0
 76
     0
330
1B
  0
LAYOUT
  5
26
102
{ACAD_REACTORS
330
1A
102
}
330
1A
100
AcDbPlotSettings
  1

  2
none_device
  4

  6

 40
0.0
 41
0.0
 42
0.0
 43
0.0
 44
0.0
 45
0.0
 46
0.0
 47
0.0
 48
0.0
 49
0.0
140
0.0
141
0.0
142
1.0
143
1.0
 70
   688
 72
     0
 73
     0
 74
     5
  7

 75
    16
 76
     0
 77
     2
 78
   300
147
1.0
148
0.0
149
0.0
100
AcDbLayout
  1
Layout2
 70
     1
 71
     2
 10
0.0
 20
0.0
 11
0.0
 21
0.0
 12
0.0
 22
0.0
 32
0.0
 14
0.0
 24
0.0
 34
0.0
 15
0.0
 25
0.0
 35
0.0
146
0.0
 13
0.0
 23
0.0
 33
0.0
 16
1.0
 26
0.0
 36
0.0
 17
0.0
 27
1.0
 37
0.0
 76
     0
330
23
  0
LAYOUT
  5
22
102
{ACAD_REACTORS
330
1A
102
}
330
1A
100
AcDbPlotSettings
  1

  2
none_device
  4

  6

 40
0.0
 41
0.0
 42
0.0
 43
0.0
 44
0.0
 45
0.0
 46
0.0
 47
0.0
 48
0.0
 49
0.0
140
0.0
141
0.0
142
1.0
143
1.0
 70
  1712
 72
     0
 73
     0
 74
     0
  7

 75
     0
 76
     0
 77
     2
 78
   300
147
1.0
148
0.0
149
0.0
100
AcDbLayout
  1
Model
 70
     1
 71
     0
 10
0.0
 20
0.0
 11
12.0
 21
9.0
 12
0.0
 22
0.0
 32
0.0
 14
706.6720066769
 24
-378.314606
 34
0.0
 15
1436.8113537793
 25
-221.8812313877
 35
0.0
146
0.0
 13
0.0
 23
0.0
 33
0.0
 16
1.0
 26
0.0
 36
0.0
 17
0.0
 27
1.0
 37
0.0
 76
     0
330
1F
331
29
  0
MLINESTYLE
  5
18
102
{ACAD_REACTORS
330
17
102
}
330
17
100
AcDbMlineStyle
  2
Standard
 70
     0
  3

 62
   256
 51
90.0
 52
90.0
 71
     2
 49
0.5
 62
   256
  6
BYLAYER
 49
-0.5
 62
   256
  6
BYLAYER
  0
ACDBPLACEHOLDER
  5
F
102
{ACAD_REACTORS
330
E
102
}
330
E
  0
VISUALSTYLE
  5
2F
102
{ACAD_REACTORS
330
2A
102
}
330
2A
100
AcDbVisualStyle
  2
2dWireframe
 70
     4
 71
     0
 72
     2
 73
     0
 90
        0
 40
-0.6
 41
-30.0
 62
     5
 63
     7
421
 16777215
 74
     1
 91
        4
 64
     7
 65
   257
 75
     1
175
     1
 42
1.0
 92
        0
 66
   257
 43
1.0
 76
     1
 77
     6
 78
     2
 67
     7
 79
     5
170
     0
171
     0
290
     0
174
     0
 93
        1
 44
0.0
173
     0
291
     0
 45
0.0
  0
VISUALSTYLE
  5
31
102
{ACAD_REACTORS
330
2A
102
}
330
2A
100
AcDbVisualStyle
  2
3D Hidden
 70
     6
 71
     1
 72
     2
 73
     2
 90
        0
 40
-0.6
 41
-30.0
 62
     5
 63
     7
421
 16777215
 74
     2
 91
        2
 64
     7
 65
   257
 75
     2
175
     1
 42
40.0
 92
        0
 66
   257
 43
1.0
 76
     1
 77
     6
 78
     2
 67
     7
 79
     3
170
     0
171
     0
290
     0
174
     0
 93
        1
 44
0.0
173
     0
291
     0
 45
0.0
  0
VISUALSTYLE
  5
30
102
{ACAD_REACTORS
330
2A
102
}
330
2A
100
AcDbVisualStyle
  2
3dWireframe
 70
     5
 71
     0
 72
     2
 73
     0
 90
        0
 40
-0.6
 41
-30.0
 62
     5
 63
     7
421
 16777215
 74
     1
 91
        4
 64
     7
 65
   257
 75
     1
175
     1
 42
1.0
 92
        0
 66
   257
 43
1.0
 76
     1
 77
     6
 78
     2
 67
     7
 79
     5
170
     0
171
     0
290
     0
174
     0
 93
        1
 44
0.0
173
     0
291
     0
 45
0.0
  0
VISUALSTYLE
  5
32
102
{ACAD_REACTORS
330
2A
102
}
330
2A
100
AcDbVisualStyle
  2
Basic
 70
     7
 71
     1
 72
     0
 73
     1
 90
        0
 40
-0.6
 41
-30.0
 62
     5
 63
     7
421
 16777215
 74
     0
 91
        4
 64
     7
 65
   257
 75
     1
175
     1
 42
1.0
 92
        8
 66
     7
 43
1.0
 76
     1
 77
     6
 78
     2
 67
     7
 79
     5
170
     0
171
     0
290
     0
174
     0
 93
        1
 44
0.0
173
     0
291
     1
 45
0.0
  0
VISUALSTYLE
  5
36
102
{ACAD_REACTORS
330
2A
102
}
330
2A
100
AcDbVisualStyle
  2
Brighten
 70
    12
 71
     2
 72
     2
 73
     0
 90
        0
 40
-0.6
 41
-30.0
 62
     5
 63
     7
421
 16777215
 74
     1
 91
        4
 64
     7
 65
   257
 75
     1
175
     1
 42
1.0
 92
        8
 66
     7
 43
1.0
 76
     1
 77
     6
 78
     2
 67
     7
 79
     5
170
     0
171
     0
290
     0
174
     0
 93
        1
 44
50.0
173
     0
291
     1
 45
0.0
  0
VISUALSTYLE
  5
3A
102
{ACAD_REACTORS
330
2A
102
}
330
2A
100
AcDbVisualStyle
  2
ColorChange
 70
    16
 71
     2
 72
     2
 73
     3
 90
        0
 40
-0.6
 41
-30.0
 62
     5
 63
     8
421
  8421504
 74
     1
 91
        4
 64
     7
 65
   257
 75
     1
175
     1
 42
1.0
 92
        8
 66
     8
424
  8421504
 43
1.0
 76
     1
 77
     6
 78
     2
 67
     7
 79
     5
170
     0
171
     0
290
     0
174
     0
 93
        1
 44
0.0
173
     0
291
     1
 45
0.0
  0
VISUALSTYLE
  5
34
102
{ACAD_REACTORS
330
2A
102
}
330
2A
100
AcDbVisualStyle
  2
Conceptual
 70
     9
 71
     3
 72
     2
 73
     0
 90
        0
 40
-0.6
 41
-30.0
 62
     5
 63
     7
421
 16777215
 74
     2
 91
        2
 64
     7
 65
   257
 75
     1
175
     1
 42
40.0
 92
        8
 66
     7
 43
1.0
 76
     1
 77
     6
 78
     2
 67
     7
 79
     3
170
     0
171
     0
290
     0
174
     0
 93
        1
 44
0.0
173
     0
291
     0
 45
0.0
  0
VISUALSTYLE
  5
35
102
{ACAD_REACTORS
330
2A
102
}
330
2A
100
AcDbVisualStyle
  2
Dim
 70
    11
 71
     2
 72
     2
 73
     0
 90
        0
 40
-0.6
 41
-30.0
 62
     5
 63
     7
421
 16777215
 74
     1
 91
        4
 64
     7
 65
   257
 75
     1
175
     1
 42
1.0
 92
        8
 66
     7
 43
1.0
 76
     1
 77
     6
 78
     2
 67
     7
 79
     5
170
     0
171
     0
290
     0
174
     0
 93
        1
 44
-50.0
173
     0
291
     1
 45
0.0
  0
VISUALSTYLE
  5
39
102
{ACAD_REACTORS
330
2A
102
}
330
2A
100
AcDbVisualStyle
  2
Facepattern
 70
    15
 71
     2
 72
     2
 73
     0
 90
        0
 40
-0.6
 41
-30.0
 62
     5
 63
     7
421
 16777215
 74
     1
 91
        4
 64
     7
 65
   257
 75
     1
175
     1
 42
1.0
 92
        8
 66
     7
 43
1.0
 76
     1
 77
     6
 78
     2
 67
     7
 79
     5
170
     0
171
     0
290
     0
174
     0
 93
        1
 44
0.0
173
     0
291
     1
 45
0.0
  0
VISUALSTYLE
  5
2B
102
{ACAD_REACTORS
330
2A
102
}
330
2A
100
AcDbVisualStyle
  2
Flat
 70
     0
 71
     2
 72
     1
 73
     1
 90
        2
 40
-0.6
 41
30.0
 62
     5
 63
     7
421
 16777215
 74
     0
 91
        4
 64
     7
 65
   257
 75
     1
175
     1
 42
1.0
 92
        8
 66
     7
 43
1.0
 76
     1
 77
     6
 78
     2
 67
     7
 79
     5
170
     0
171
     0
290
     0
174
     0
 93
       13
 44
0.0
173
     0
291
     1
 45
0.0
  0
VISUALSTYLE
  5
2C
102
{ACAD_REACTORS
330
2A
102
}
330
2A
100
AcDbVisualStyle
  2
FlatWithEdges
 70
     1
 71
     2
 72
     1
 73
     1
 90
        2
 40
-0.6
 41
30.0
 62
     5
 63
     7
421
 16777215
 74
     1
 91
        4
 64
     7
 65
   257
 75
     1
175
     1
 42
1.0
 92
        0
 66
   257
 43
1.0
 76
     1
 77
     6
 78
     2
 67
     7
 79
     5
170
     0
171
     0
290
     0
174
     0
 93
       13
 44
0.0
173
     0
291
     1
 45
0.0
  0
VISUALSTYLE
  5
2D
102
{ACAD_REACTORS
330
2A
102
}
330
2A
100
AcDbVisualStyle
  2
Gouraud
 70
     2
 71
     2
 72
     2
 73
     1
 90
        2
 40
-0.6
 41
30.0
 62
     5
 63
     7
421
 16777215
 74
     0
 91
        4
 64
     7
 65
   257
 75
     1
175
     1
 42
1.0
 92
        0
 66
     7
 43
1.0
 76
     1
 77
     6
 78
     2
 67
     7
 79
     5
170
     0
171
     0
290
     0
174
     0
 93
       13
 44
0.0
173
     0
291
     1
 45
0.0
  0
VISUALSTYLE
  5
2E
102
{ACAD_REACTORS
330
2A
102
}
330
2A
100
AcDbVisualStyle
  2
GouraudWithEdges
 70
     3
 71
     2
 72
     2
 73
     1
 90
        2
 40
-0.6
 41
30.0
 62
     5
 63
     7
421
 16777215
 74
     1
 91
        4
 64
     7
 65
   257
 75
     1
175
     1
 42
1.0
 92
        0
 66
   257
 43
1.0
 76
     1
 77
     6
 78
     2
 67
     7
 79
     5
170
     0
171
     0
290
     0
174
     0
 93
       13
 44
0.0
173
     0
291
     1
 45
0.0
  0
VISUALSTYLE
  5
38
102
{ACAD_REACTORS
330
2A
102
}
330
2A
100
AcDbVisualStyle
  2
Linepattern
 70
    14
 71
     2
 72
     2
 73
     0
 90
        0
 40
-0.6
 41
-30.0
 62
     5
 63
     7
421
 16777215
 74
     1
 91
        4
 64
     7
 65
   257
 75
     7
175
     7
 42
1.0
 92
        8
 66
     7
 43
1.0
 76
     1
 77
     6
 78
     2
 67
     7
 79
     5
170
     0
171
     0
290
     0
174
     0
 93
        1
 44
0.0
173
     0
291
     1
 45
0.0
  0
VISUALSTYLE
  5
33
102
{ACAD_REACTORS
330
2A
102
}
330
2A
100
AcDbVisualStyle
  2
Realistic
 70
     8
 71
     2
 72
     2
 73
     0
 90
        0
 40
-0.6
 41
-30.0
 62
     5
 63
     7
421
 16777215
 74
     1
 91
        0
 64
     7
 65
   257
 75
     1
175
     1
 42
1.0
 92
        8
 66
     8
424
  7895160
 43
1.0
 76
     1
 77
     6
 78
     2
 67
     7
 79
     5
170
     0
171
     0
290
     0
174
     0
 93
       13
 44
0.0
173
     0
291
     0
 45
0.0
  0
VISUALSTYLE
  5
37
102
{ACAD_REACTORS
330
2A
102
}
330
2A
100
AcDbVisualStyle
  2
Thicken
 70
    13
 71
     2
 72
     2
 73
     0
 90
        0
 40
-0.6
 41
-30.0
 62
     5
 63
     7
421
 16777215
 74
     1
 91
        4
 64
     7
 65
   257
 75
     1
175
     1
 42
1.0
 92
       12
 66
     7
 43
1.0
 76
     1
 77
     6
 78
     2
 67
     7
 79
     5
170
     0
171
     0
290
     0
174
     0
 93
        1
 44
0.0
173
     0
291
     1
 45
0.0
  0
ENDSEC
  0
EOF
