  0
SECTION
  2
HEADER
  9
$ACADVER
  1
AC1021
  9
$ACADMAINTVER
 70
    25
  9
$DWGCODEPAGE
  3
ANSI_932
  9
$INSBASE
 10
0.0
 20
0.0
 30
0.0
  9
$EXTMIN
 10
700.6641327562
 20
-619.275992
 30
0.0
  9
$EXTMAX
 10
1483.0337986185
 20
-417.5563065038
 30
0.0
  9
$LIMMIN
 10
0.0
 20
0.0
  9
$LIMMAX
 10
12.0
 20
9.0
  9
$ORTHOMODE
 70
     0
  9
$REGENMODE
 70
     1
  9
$FILLMODE
 70
     1
  9
$QTEXTMODE
 70
     0
  9
$MIRRTEXT
 70
     1
  9
$LTSCALE
 40
1.0
  9
$ATTMODE
 70
     1
  9
$TEXTSIZE
 40
0.2
  9
$TRACEWID
 40
0.05
  9
$TEXTSTYLE
  7
Standard
  9
$CLAYER
  8
0
  9
$CELTYPE
  6
ByLayer
  9
$CECOLOR
 62
   256
  9
$CELTSCALE
 40
1.0
  9
$DISPSILH
 70
     0
  9
$DIMSCALE
 40
1.0
  9
$DIMASZ
 40
3.0
  9
$DIMEXO
 40
0.0625
  9
$DIMDLI
 40
0.38
  9
$DIMRND
 40
0.0
  9
$DIMDLE
 40
0.0
  9
$DIMEXE
 40
0.18
  9
$DIMTP
 40
0.0
  9
$DIMTM
 40
0.0
  9
$DIMTXT
 40
3.5
  9
$DIMCEN
 40
0.09
  9
$DIMTSZ
 40
0.0
  9
$DIMTOL
 70
     0
  9
$DIMLIM
 70
     0
  9
$DIMTIH
 70
     1
  9
$DIMTOH
 70
     1
  9
$DIMSE1
 70
     0
  9
$DIMSE2
 70
     0
  9
$DIMTAD
 70
     1
  9
$DIMZIN
 70
     0
  9
$DIMBLK
  1

  9
$DIMASO
 70
     1
  9
$DIMSHO
 70
     1
  9
$DIMPOST
  1

  9
$DIMAPOST
  1

  9
$DIMALT
 70
     0
  9
$DIMALTD
 70
     2
  9
$DIMALTF
 40
25.4
  9
$DIMLFAC
 40
1.0
  9
$DIMTOFL
 70
     0
  9
$DIMTVP
 40
0.0
  9
$DIMTIX
 70
     0
  9
$DIMSOXD
 70
     0
  9
$DIMSAH
 70
     0
  9
$DIMBLK1
  1

  9
$DIMBLK2
  1

  9
$DIMSTYLE
  2
Standard
  9
$DIMCLRD
 70
     0
  9
$DIMCLRE
 70
     0
  9
$DIMCLRT
 70
     0
  9
$DIMTFAC
 40
1.0
  9
$DIMGAP
 40
0.09
  9
$DIMJUST
 70
     0
  9
$DIMSD1
 70
     0
  9
$DIMSD2
 70
     0
  9
$DIMTOLJ
 70
     1
  9
$DIMTZIN
 70
     0
  9
$DIMALTZ
 70
     0
  9
$DIMALTTZ
 70
     0
  9
$DIMUPT
 70
     0
  9
$DIMDEC
 70
     2
  9
$DIMTDEC
 70
     4
  9
$DIMALTU
 70
     2
  9
$DIMALTTD
 70
     2
  9
$DIMTXSTY
  7
Standard
  9
$DIMAUNIT
 70
     0
  9
$DIMADEC
 70
     2
  9
$DIMALTRND
 40
0.0
  9
$DIMAZIN
 70
     0
  9
$DIMDSEP
 70
    46
  9
$DIMATFIT
 70
     3
  9
$DIMFRAC
 70
     0
  9
$DIMLDRBLK
  1

  9
$DIMLUNIT
 70
     2
  9
$DIMLWD
 70
    -2
  9
$DIMLWE
 70
    -2
  9
$DIMTMOVE
 70
     0
  9
$DIMFXL
 40
1.0
  9
$DIMFXLON
 70
     0
  9
$DIMJOGANG
 40
0.7853981633974483
  9
$DIMTFILL
 70
     0
  9
$DIMTFILLCLR
 70
     0
  9
$DIMARCSYM
 70
     0
  9
$DIMLTYPE
  6

  9
$DIMLTEX1
  6

  9
$DIMLTEX2
  6

  9
$LUNITS
 70
     2
  9
$LUPREC
 70
     4
  9
$SKETCHINC
 40
0.1
  9
$FILLETRAD
 40
0.5
  9
$AUNITS
 70
     0
  9
$AUPREC
 70
     0
  9
$MENU
  1
.
  9
$ELEVATION
 40
0.0
  9
$PELEVATION
 40
0.0
  9
$THICKNESS
 40
0.0
  9
$LIMCHECK
 70
     0
  9
$CHAMFERA
 40
0.5
  9
$CHAMFERB
 40
0.5
  9
$CHAMFERC
 40
1.0
  9
$CHAMFERD
 40
0.0
  9
$SKPOLY
 70
     0
  9
$TDCREATE
 40
2458620.726575938
  9
$TDUCREATE
 40
2458620.351575938
  9
$TDUPDATE
 40
2458620.726575949
  9
$TDUUPDATE
 40
2458620.351575949
  9
$TDINDWG
 40
0.0000000116
  9
$TDUSRTIMER
 40
0.0000000116
  9
$USRTIMER
 70
     1
  9
$ANGBASE
 50
0.0
  9
$ANGDIR
 70
     0
  9
$PDMODE
 70
     0
  9
$PDSIZE
 40
0.0
  9
$PLINEWID
 40
0.0
  9
$SPLFRAME
 70
     0
  9
$SPLINETYPE
 70
     6
  9
$SPLINESEGS
 70
     8
  9
$HANDSEED
  5
1B3
  9
$SURFTAB1
 70
     6
  9
$SURFTAB2
 70
     6
  9
$SURFTYPE
 70
     6
  9
$SURFU
 70
     6
  9
$SURFV
 70
     6
  9
$UCSBASE
  2

  9
$UCSNAME
  2

  9
$UCSORG
 10
0.0
 20
0.0
 30
0.0
  9
$UCSXDIR
 10
1.0
 20
0.0
 30
0.0
  9
$UCSYDIR
 10
0.0
 20
1.0
 30
0.0
  9
$UCSORTHOREF
  2

  9
$UCSORTHOVIEW
 70
     0
  9
$UCSORGTOP
 10
0.0
 20
0.0
 30
0.0
  9
$UCSORGBOTTOM
 10
0.0
 20
0.0
 30
0.0
  9
$UCSORGLEFT
 10
0.0
 20
0.0
 30
0.0
  9
$UCSORGRIGHT
 10
0.0
 20
0.0
 30
0.0
  9
$UCSORGFRONT
 10
0.0
 20
0.0
 30
0.0
  9
$UCSORGBACK
 10
0.0
 20
0.0
 30
0.0
  9
$PUCSBASE
  2

  9
$PUCSNAME
  2

  9
$PUCSORG
 10
0.0
 20
0.0
 30
0.0
  9
$PUCSXDIR
 10
1.0
 20
0.0
 30
0.0
  9
$PUCSYDIR
 10
0.0
 20
1.0
 30
0.0
  9
$PUCSORTHOREF
  2

  9
$PUCSORTHOVIEW
 70
     0
  9
$PUCSORGTOP
 10
0.0
 20
0.0
 30
0.0
  9
$PUCSORGBOTTOM
 10
0.0
 20
0.0
 30
0.0
  9
$PUCSORGLEFT
 10
0.0
 20
0.0
 30
0.0
  9
$PUCSORGRIGHT
 10
0.0
 20
0.0
 30
0.0
  9
$PUCSORGFRONT
 10
0.0
 20
0.0
 30
0.0
  9
$PUCSORGBACK
 10
0.0
 20
0.0
 30
0.0
  9
$USERI1
 70
     0
  9
$USERI2
 70
     0
  9
$USERI3
 70
     0
  9
$USERI4
 70
     0
  9
$USERI5
 70
     0
  9
$USERR1
 40
0.0
  9
$USERR2
 40
0.0
  9
$USERR3
 40
0.0
  9
$USERR4
 40
0.0
  9
$USERR5
 40
0.0
  9
$WORLDVIEW
 70
     1
  9
$SHADEDGE
 70
     3
  9
$SHADEDIF
 70
    70
  9
$TILEMODE
 70
     1
  9
$MAXACTVP
 70
    64
  9
$PINSBASE
 10
0.0
 20
0.0
 30
0.0
  9
$PLIMCHECK
 70
     0
  9
$PEXTMIN
 10
1.000000000000000E+20
 20
1.000000000000000E+20
 30
1.000000000000000E+20
  9
$PEXTMAX
 10
-1.000000000000000E+20
 20
-1.000000000000000E+20
 30
-1.000000000000000E+20
  9
$PLIMMIN
 10
0.0
 20
0.0
  9
$PLIMMAX
 10
12.0
 20
9.0
  9
$UNITMODE
 70
     0
  9
$VISRETAIN
 70
     1
  9
$PLINEGEN
 70
     0
  9
$PSLTSCALE
 70
     1
  9
$TREEDEPTH
 70
  3020
  9
$CMLSTYLE
  2
Standard
  9
$CMLJUST
 70
     0
  9
$CMLSCALE
 40
1.0
  9
$PROXYGRAPHICS
 70
     1
  9
$MEASUREMENT
 70
     1
  9
$CELWEIGHT
370
    -1
  9
$ENDCAPS
280
     0
  9
$JOINSTYLE
280
     0
  9
$LWDISPLAY
290
     1
  9
$INSUNITS
 70
     4
  9
$HYPERLINKBASE
  1

  9
$STYLESHEET
  1

  9
$XEDIT
290
     1
  9
$CEPSNTYPE
380
     0
  9
$PSTYLEMODE
290
     1
  9
$FINGERPRINTGUID
  2
{FAB72C35-5362-45E0-90AA-1E128BEBEA1C}
  9
$VERSIONGUID
  2
{FAEB1C32-E019-11D5-929B-00C0DF256EC4}
  9
$EXTNAMES
290
     1
  9
$PSVPSCALE
 40
0.0
  9
$OLESTARTUP
290
     0
  9
$SORTENTS
280
   127
  9
$INDEXCTL
280
     0
  9
$HIDETEXT
280
     1
  9
$XCLIPFRAME
290
     0
  9
$HALOGAP
280
     0
  9
$OBSCOLOR
 70
   257
  9
$OBSLTYPE
280
     0
  9
$INTERSECTIONDISPLAY
280
     0
  9
$INTERSECTIONCOLOR
 70
   257
  9
$DIMASSOC
280
     2
  9
$PROJECTNAME
  1

  9
$CAMERADISPLAY
290
     0
  9
$LENSLENGTH
 40
50.0
  9
$CAMERAHEIGHT
 40
0.0
  9
$STEPSPERSEC
 40
2.0
  9
$STEPSIZE
 40
6.0
  9
$3DDWFPREC
 40
2.0
  9
$PSOLWIDTH
 40
0.25
  9
$PSOLHEIGHT
 40
4.0
  9
$LOFTANG1
 40
1.570796326794897
  9
$LOFTANG2
 40
1.570796326794897
  9
$LOFTMAG1
 40
0.0
  9
$LOFTMAG2
 40
0.0
  9
$LOFTPARAM
 70
     7
  9
$LOFTNORMALS
280
     1
  9
$LATITUDE
 40
37.795
  9
$LONGITUDE
 40
-122.394
  9
$NORTHDIRECTION
 40
0.0
  9
$TIMEZONE
 70
 -8000
  9
$LIGHTGLYPHDISPLAY
280
     1
  9
$TILEMODELIGHTSYNCH
280
     1
  9
$SOLIDHIST
280
     1
  9
$SHOWHIST
280
     1
  9
$DWFFRAME
280
     2
  9
$DGNFRAME
280
     2
  9
$REALWORLDSCALE
290
     1
  9
$INTERFERECOLOR
 62
   256
  9
$CSHADOW
280
     0
  9
$SHADOWPLANELOCATION
 40
0.0
  0
ENDSEC
  0
SECTION
  2
CLASSES
  0
CLASS
  1
ACDBDICTIONARYWDFLT
  2
AcDbDictionaryWithDefault
  3
ObjectDBX Classes
 90
        0
 91
        4
280
     0
281
     0
  0
CLASS
  1
VISUALSTYLE
  2
AcDbVisualStyle
  3
ObjectDBX Classes
 90
     4095
 91
        4
280
     0
281
     0
  0
ENDSEC
  0
SECTION
  2
TABLES
  0
TABLE
  2
VPORT
  5
8
330
0
100
AcDbSymbolTable
 70
     1
  0
VPORT
  5
29
330
8
100
AcDbSymbolTableRecord
100
AcDbViewportTableRecord
  2
*Active
 70
     0
 10
0.0
 20
0.0
 11
1.0
 21
1.0
 12
1091.84896568735
 22
-518.4161492518999
 13
0.0
 23
0.0
 14
0.5
 24
0.5
 15
0.5
 25
0.5
 16
0.0
 26
0.0
 36
1.0
 17
0.0
 27
0.0
 37
0.0
 40
201.7196854962
 41
1.6
 42
50.0
 43
0.0
 44
0.0
 50
0.0
 51
0.0
 71
     0
 72
   100
 73
     1
 74
     3
 75
     0
 76
     0
 77
     0
 78
     0
281
     0
 65
     1
110
0.0
120
0.0
130
0.0
111
1.0
121
0.0
131
0.0
112
0.0
122
1.0
132
0.0
 79
     0
146
0.0
 60
     3
 61
     5
292
     1
282
     1
141
0.0
142
0.0
 63
   250
  0
ENDTAB
  0
TABLE
  2
LTYPE
  5
5
330
0
100
AcDbSymbolTable
 70
     3
  0
LTYPE
  5
14
330
5
100
AcDbSymbolTableRecord
100
AcDbLinetypeTableRecord
  2
ByBlock
 70
     0
  3

 72
    65
 73
     0
 40
0.0
  0
LTYPE
  5
15
330
5
100
AcDbSymbolTableRecord
100
AcDbLinetypeTableRecord
  2
ByLayer
 70
     0
  3

 72
    65
 73
     0
 40
0.0
  0
LTYPE
  5
16
330
5
100
AcDbSymbolTableRecord
100
AcDbLinetypeTableRecord
  2
Continuous
 70
     0
  3
Solid line
 72
    65
 73
     0
 40
0.0
  0
LTYPE
  5
3D
330
5
100
AcDbSymbolTableRecord
100
AcDbLinetypeTableRecord
  2
________________
 70
     0
  3

 72
    65
 73
     0
 40
0.0
  0
LTYPE
  5
5D
330
5
100
AcDbSymbolTableRecord
100
AcDbLinetypeTableRecord
  2
________...._...
 70
     0
  3

 72
    65
 73
     4
 40
6.0000000300003
 49
3.0
 74
     0
 49
-1.5
 74
     0
 49
0.0000000300003
 74
     0
 49
-1.5
 74
     0
  0
ENDTAB
  0
TABLE
  2
LAYER
  5
2
330
0
100
AcDbSymbolTable
 70
     2
  0
LAYER
  5
10
330
2
100
AcDbSymbolTableRecord
100
AcDbLayerTableRecord
  2
0
 70
     0
 62
     7
  6
Continuous
370
    -3
390
F
347
0
  0
LAYER
  5
3B
330
2
100
AcDbSymbolTableRecord
100
AcDbLayerTableRecord
  2
1
 70
     0
 62
     7
  6
Continuous
370
    -3
390
F
347
0
  0
ENDTAB
  0
TABLE
  2
STYLE
  5
3
330
0
100
AcDbSymbolTable
 70
     1
  0
STYLE
  5
11
330
3
100
AcDbSymbolTableRecord
100
AcDbTextStyleTableRecord
  2
Standard
 70
     0
 40
0.0
 41
1.0
 50
0.0
 71
     0
 42
0.2
  3
txt
  4

  0
ENDTAB
  0
TABLE
  2
VIEW
  5
6
330
0
100
AcDbSymbolTable
 70
     0
  0
ENDTAB
  0
TABLE
  2
UCS
  5
7
330
0
100
AcDbSymbolTable
 70
     0
  0
ENDTAB
  0
TABLE
  2
APPID
  5
9
330
0
100
AcDbSymbolTable
 70
     1
  0
APPID
  5
12
330
9
100
AcDbSymbolTableRecord
100
AcDbRegAppTableRecord
  2
ACAD
 70
     0
  0
ENDTAB
  0
TABLE
  2
DIMSTYLE
  5
A
330
0
100
AcDbSymbolTable
 70
     1
100
AcDbDimStyleTable
  0
DIMSTYLE
105
27
330
A
100
AcDbSymbolTableRecord
100
AcDbDimStyleTableRecord
  2
Standard
 70
     0
340
11
  0
ENDTAB
  0
TABLE
  2
BLOCK_RECORD
  5
1
330
0
100
AcDbSymbolTable
 70
     1
  0
BLOCK_RECORD
  5
1F
330
1
100
AcDbSymbolTableRecord
100
AcDbBlockTableRecord
  2
*Model_Space
340
22
 70
     0
280
     1
281
     0
  0
BLOCK_RECORD
  5
1B
330
1
100
AcDbSymbolTableRecord
100
AcDbBlockTableRecord
  2
*Paper_Space
340
1E
 70
     0
280
     1
281
     0
  0
BLOCK_RECORD
  5
23
330
1
100
AcDbSymbolTableRecord
100
AcDbBlockTableRecord
  2
*Paper_Space0
340
26
 70
     0
280
     1
281
     0
  0
ENDTAB
  0
ENDSEC
  0
SECTION
  2
BLOCKS
  0
BLOCK
  5
20
330
1F
100
AcDbEntity
  8
0
100
AcDbBlockBegin
  2
*Model_Space
 70
     0
 10
0.0
 20
0.0
 30
0.0
  3
*Model_Space
  1

  0
ENDBLK
  5
21
330
1F
100
AcDbEntity
  8
0
100
AcDbBlockEnd
  0
BLOCK
  5
1C
330
1B
100
AcDbEntity
 67
     1
  8
0
100
AcDbBlockBegin
  2
*Paper_Space
 70
     0
 10
0.0
 20
0.0
 30
0.0
  3
*Paper_Space
  1

  0
ENDBLK
  5
1D
330
1B
100
AcDbEntity
 67
     1
  8
0
100
AcDbBlockEnd
  0
BLOCK
  5
24
330
23
100
AcDbEntity
  8
0
100
AcDbBlockBegin
  2
*Paper_Space0
 70
     0
 10
0.0
 20
0.0
 30
0.0
  3
*Paper_Space0
  1

  0
ENDBLK
  5
25
330
23
100
AcDbEntity
  8
0
100
AcDbBlockEnd
  0
ENDSEC
  0
SECTION
  2
ENTITIES
  0
LINE
  5
3C
330
1F
100
AcDbEntity
  8
1
  6
________________
 62
     7
370
     9
100
AcDbLine
 10
1214.3603915499
 20
-574.1234272759
 30
0.0
 11
1217.3086285448
 21
-587.4220649595
 31
0.0
  0
LINE
  5
3E
330
1F
100
AcDbEntity
  8
1
  6
________________
 62
     7
370
     9
100
AcDbLine
 10
1212.4077995357
 20
-572.5563065038
 30
0.0
 11
1208.0991467975
 21
-572.5563065038
 31
0.0
  0
ARC
  5
3F
330
1F
100
AcDbEntity
  8
1
  6
________________
 62
     7
370
     9
100
AcDbCircle
 10
1212.4077995357
 20
-574.5563065038
 30
0.0
 40
2.0
100
AcDbArc
 50
12.5
 51
90.0
  0
LINE
  5
40
330
1F
100
AcDbEntity
  8
1
  6
________________
 62
     7
370
     9
100
AcDbLine
 10
1241.0616467975
 20
-572.5563065038
 30
0.0
 11
1243.2159731666
 21
-572.5563065038
 31
0.0
  0
ARC
  5
41
330
1F
100
AcDbEntity
  8
1
  6
________________
 62
     7
370
     9
100
AcDbCircle
 10
1241.0616467975
 20
-574.5563065038
 30
0.0
 40
2.0
100
AcDbArc
 50
90.0
 51
167.5
  0
LINE
  5
42
330
1F
100
AcDbEntity
  8
1
  6
________________
 62
     7
370
     9
100
AcDbLine
 10
1236.2753294686
 20
-586.9055361496
 30
0.0
 11
1239.1090547832
 21
-574.1234272759
 31
0.0
  0
ARC
  5
43
330
1F
100
AcDbEntity
  8
1
  6
________________
 62
     7
370
     9
100
AcDbCircle
 10
1232.3701454401
 20
-586.0397776939
 30
0.0
 40
4.0
100
AcDbArc
 50
280.4739123353
 51
347.5
  0
ARC
  5
44
330
1F
100
AcDbEntity
  8
1
  6
________________
 62
     7
370
     9
100
AcDbCircle
 10
1226.7347231666
 20
-555.5563065038
 30
0.0
 40
35.0
100
AcDbArc
 50
259.5260876647
 51
282.1854486814
  0
ARC
  5
45
330
1F
100
AcDbEntity
  8
1
  6
________________
 62
     7
370
     9
100
AcDbCircle
 10
1221.099300893
 20
-586.0397776939
 30
0.0
 40
4.0
100
AcDbArc
 50
192.5
 51
259.5260876647
  0
LINE
  5
46
330
1F
100
AcDbEntity
  8
1
  6
________________
 62
     7
370
     9
100
AcDbLine
 10
1181.3978915499
 20
-574.1234272759
 30
0.0
 11
1184.3461285448
 21
-587.4220649595
 31
0.0
  0
LINE
  5
47
330
1F
100
AcDbEntity
  8
1
  6
________________
 62
     7
370
     9
100
AcDbLine
 10
1179.4452995357
 20
-572.5563065038
 30
0.0
 11
1175.1366467975
 21
-572.5563065038
 31
0.0
  0
ARC
  5
48
330
1F
100
AcDbEntity
  8
1
  6
________________
 62
     7
370
     9
100
AcDbCircle
 10
1179.4452995357
 20
-574.5563065038
 30
0.0
 40
2.0
100
AcDbArc
 50
12.5
 51
90.0
  0
ARC
  5
49
330
1F
100
AcDbEntity
  8
1
  6
________________
 62
     7
370
     9
100
AcDbCircle
 10
1208.0991467975
 20
-574.5563065038
 30
0.0
 40
2.0
100
AcDbArc
 50
90.0
 51
167.5
  0
LINE
  5
4A
330
1F
100
AcDbEntity
  8
1
  6
________________
 62
     7
370
     9
100
AcDbLine
 10
1203.3128294686
 20
-586.9055361496
 30
0.0
 11
1206.1465547832
 21
-574.1234272759
 31
0.0
  0
ARC
  5
4B
330
1F
100
AcDbEntity
  8
1
  6
________________
 62
     7
370
     9
100
AcDbCircle
 10
1199.4076454401
 20
-586.0397776939
 30
0.0
 40
4.0
100
AcDbArc
 50
280.4739123353
 51
347.5
  0
ARC
  5
4C
330
1F
100
AcDbEntity
  8
1
  6
________________
 62
     7
370
     9
100
AcDbCircle
 10
1193.7722231666
 20
-555.5563065038
 30
0.0
 40
35.0
100
AcDbArc
 50
259.5260876647
 51
282.1854486814
  0
ARC
  5
4D
330
1F
100
AcDbEntity
  8
1
  6
________________
 62
     7
370
     9
100
AcDbCircle
 10
1188.136800893
 20
-586.0397776939
 30
0.0
 40
4.0
100
AcDbArc
 50
192.5
 51
259.5260876647
  0
LINE
  5
4E
330
1F
100
AcDbEntity
  8
1
  6
________________
 62
     7
370
     9
100
AcDbLine
 10
1148.4353915499
 20
-574.1234272759
 30
0.0
 11
1151.3836285448
 21
-587.4220649595
 31
0.0
  0
LINE
  5
4F
330
1F
100
AcDbEntity
  8
1
  6
________________
 62
     7
370
     9
100
AcDbLine
 10
1146.4827995357
 20
-572.5563065038
 30
0.0
 11
1142.1741467975
 21
-572.5563065038
 31
0.0
  0
ARC
  5
50
330
1F
100
AcDbEntity
  8
1
  6
________________
 62
     7
370
     9
100
AcDbCircle
 10
1146.4827995357
 20
-574.5563065038
 30
0.0
 40
2.0
100
AcDbArc
 50
12.5
 51
90.0
  0
ARC
  5
51
330
1F
100
AcDbEntity
  8
1
  6
________________
 62
     7
370
     9
100
AcDbCircle
 10
1175.1366467975
 20
-574.5563065038
 30
0.0
 40
2.0
100
AcDbArc
 50
90.0
 51
167.5
  0
LINE
  5
52
330
1F
100
AcDbEntity
  8
1
  6
________________
 62
     7
370
     9
100
AcDbLine
 10
1170.3503294686
 20
-586.9055361496
 30
0.0
 11
1173.1840547832
 21
-574.1234272759
 31
0.0
  0
ARC
  5
53
330
1F
100
AcDbEntity
  8
1
  6
________________
 62
     7
370
     9
100
AcDbCircle
 10
1166.4451454401
 20
-586.0397776939
 30
0.0
 40
4.0
100
AcDbArc
 50
280.4739123353
 51
347.5
  0
ARC
  5
54
330
1F
100
AcDbEntity
  8
1
  6
________________
 62
     7
370
     9
100
AcDbCircle
 10
1160.8097231666
 20
-555.5563065038
 30
0.0
 40
35.0
100
AcDbArc
 50
259.5260876647
 51
282.1854486814
  0
ARC
  5
55
330
1F
100
AcDbEntity
  8
1
  6
________________
 62
     7
370
     9
100
AcDbCircle
 10
1155.174300893
 20
-586.0397776939
 30
0.0
 40
4.0
100
AcDbArc
 50
192.5
 51
259.5260876647
  0
LINE
  5
56
330
1F
100
AcDbEntity
  8
1
  6
________________
 62
     7
370
     9
100
AcDbLine
 10
1169.5409731666
 20
-430.5398823555
 30
0.0
 11
1169.5409731666
 21
-588.572730652
 31
0.0
  0
LINE
  5
57
330
1F
100
AcDbEntity
  8
1
  6
________________
 62
     7
370
     9
100
AcDbLine
 10
1152.0784731666
 20
-430.5563065038
 30
0.0
 11
1152.0784731666
 21
-588.5563065038
 31
0.0
  0
LINE
  5
58
330
1F
100
AcDbEntity
  8
1
  6
________________
 62
     7
370
     9
100
AcDbLine
 10
1202.5034731666
 20
-430.5398823555
 30
0.0
 11
1202.5034731666
 21
-588.572730652
 31
0.0
  0
LINE
  5
59
330
1F
100
AcDbEntity
  8
1
  6
________________
 62
     7
370
     9
100
AcDbLine
 10
1185.0409731666
 20
-430.5563065038
 30
0.0
 11
1185.0409731666
 21
-588.5563065038
 31
0.0
  0
LINE
  5
5A
330
1F
100
AcDbEntity
  8
1
  6
________________
 62
     7
370
     9
100
AcDbLine
 10
1235.4659731666
 20
-430.5398823555
 30
0.0
 11
1235.4659731666
 21
-588.572730652
 31
0.0
  0
LINE
  5
5B
330
1F
100
AcDbEntity
  8
1
  6
________________
 62
     7
370
     9
100
AcDbLine
 10
1218.0034731666
 20
-430.5563065038
 30
0.0
 11
1218.0034731666
 21
-588.5563065038
 31
0.0
  0
LINE
  5
5C
330
1F
100
AcDbEntity
  8
1
  6
________...._...
 62
     7
370
     9
100
AcDbLine
 10
1265.2371401261
 20
-509.5563065038
 30
0.0
 11
700.6641327562
 21
-509.5563065038
 31
0.0
  0
LINE
  5
5E
330
1F
100
AcDbEntity
  8
1
  6
________________
 62
     7
370
     9
100
AcDbLine
 10
1214.3603915499
 20
-444.9891857316
 30
0.0
 11
1217.3086285448
 21
-431.690548048
 31
0.0
  0
LINE
  5
5F
330
1F
100
AcDbEntity
  8
1
  6
________________
 62
     7
370
     9
100
AcDbLine
 10
1212.4077995357
 20
-446.5563065038
 30
0.0
 11
1208.0991467975
 21
-446.5563065038
 31
0.0
  0
ARC
  5
60
330
1F
100
AcDbEntity
  8
1
  6
________________
 62
     7
370
     9
100
AcDbCircle
 10
1212.4077995357
 20
-444.5563065038
 30
0.0
 40
2.0
100
AcDbArc
 50
270.0
 51
347.5
  0
LINE
  5
61
330
1F
100
AcDbEntity
  8
1
  6
________________
 62
     7
370
     9
100
AcDbLine
 10
1241.0616467975
 20
-446.5563065038
 30
0.0
 11
1243.2159731666
 21
-446.5563065038
 31
0.0
  0
ARC
  5
62
330
1F
100
AcDbEntity
  8
1
  6
________________
 62
     7
370
     9
100
AcDbCircle
 10
1241.0616467975
 20
-444.5563065037
 30
0.0
 40
2.0
100
AcDbArc
 50
192.5
 51
270.0
  0
LINE
  5
63
330
1F
100
AcDbEntity
  8
1
  6
________________
 62
     7
370
     9
100
AcDbLine
 10
1236.2753294686
 20
-432.2070768579
 30
0.0
 11
1239.1090547832
 21
-444.9891857316
 31
0.0
  0
ARC
  5
64
330
1F
100
AcDbEntity
  8
1
  6
________________
 62
     7
370
     9
100
AcDbCircle
 10
1232.3701454401
 20
-433.0728353136
 30
0.0
 40
4.0
100
AcDbArc
 50
12.5
 51
79.5260876647
  0
ARC
  5
65
330
1F
100
AcDbEntity
  8
1
  6
________________
 62
     7
370
     9
100
AcDbCircle
 10
1226.7347231666
 20
-463.5563065038
 30
0.0
 40
35.0
100
AcDbArc
 50
77.8145513186
 51
100.4739123353
  0
ARC
  5
66
330
1F
100
AcDbEntity
  8
1
  6
________________
 62
     7
370
     9
100
AcDbCircle
 10
1221.099300893
 20
-433.0728353136
 30
0.0
 40
4.0
100
AcDbArc
 50
100.4739123353
 51
167.5
  0
LINE
  5
67
330
1F
100
AcDbEntity
  8
1
  6
________________
 62
     7
370
     9
100
AcDbLine
 10
1181.3978915499
 20
-444.9891857316
 30
0.0
 11
1184.3461285448
 21
-431.690548048
 31
0.0
  0
LINE
  5
68
330
1F
100
AcDbEntity
  8
1
  6
________________
 62
     7
370
     9
100
AcDbLine
 10
1179.4452995357
 20
-446.5563065038
 30
0.0
 11
1175.1366467975
 21
-446.5563065038
 31
0.0
  0
ARC
  5
69
330
1F
100
AcDbEntity
  8
1
  6
________________
 62
     7
370
     9
100
AcDbCircle
 10
1179.4452995357
 20
-444.5563065038
 30
0.0
 40
2.0
100
AcDbArc
 50
270.0
 51
347.5
  0
ARC
  5
6A
330
1F
100
AcDbEntity
  8
1
  6
________________
 62
     7
370
     9
100
AcDbCircle
 10
1208.0991467975
 20
-444.5563065037
 30
0.0
 40
2.0
100
AcDbArc
 50
192.5
 51
270.0
  0
LINE
  5
6B
330
1F
100
AcDbEntity
  8
1
  6
________________
 62
     7
370
     9
100
AcDbLine
 10
1203.3128294686
 20
-432.2070768579
 30
0.0
 11
1206.1465547832
 21
-444.9891857316
 31
0.0
  0
ARC
  5
6C
330
1F
100
AcDbEntity
  8
1
  6
________________
 62
     7
370
     9
100
AcDbCircle
 10
1199.4076454401
 20
-433.0728353136
 30
0.0
 40
4.0
100
AcDbArc
 50
12.5
 51
79.5260876647
  0
ARC
  5
6D
330
1F
100
AcDbEntity
  8
1
  6
________________
 62
     7
370
     9
100
AcDbCircle
 10
1193.7722231666
 20
-463.5563065038
 30
0.0
 40
35.0
100
AcDbArc
 50
77.8145513186
 51
100.4739123353
  0
ARC
  5
6E
330
1F
100
AcDbEntity
  8
1
  6
________________
 62
     7
370
     9
100
AcDbCircle
 10
1188.136800893
 20
-433.0728353136
 30
0.0
 40
4.0
100
AcDbArc
 50
100.4739123353
 51
167.5
  0
LINE
  5
6F
330
1F
100
AcDbEntity
  8
1
  6
________________
 62
     7
370
     9
100
AcDbLine
 10
1148.4353915499
 20
-444.9891857316
 30
0.0
 11
1151.3836285448
 21
-431.690548048
 31
0.0
  0
LINE
  5
70
330
1F
100
AcDbEntity
  8
1
  6
________________
 62
     7
370
     9
100
AcDbLine
 10
1146.4827995357
 20
-446.5563065038
 30
0.0
 11
1142.1741467975
 21
-446.5563065038
 31
0.0
  0
ARC
  5
71
330
1F
100
AcDbEntity
  8
1
  6
________________
 62
     7
370
     9
100
AcDbCircle
 10
1146.4827995357
 20
-444.5563065038
 30
0.0
 40
2.0
100
AcDbArc
 50
270.0
 51
347.5
  0
ARC
  5
72
330
1F
100
AcDbEntity
  8
1
  6
________________
 62
     7
370
     9
100
AcDbCircle
 10
1175.1366467975
 20
-444.5563065037
 30
0.0
 40
2.0
100
AcDbArc
 50
192.5
 51
270.0
  0
LINE
  5
73
330
1F
100
AcDbEntity
  8
1
  6
________________
 62
     7
370
     9
100
AcDbLine
 10
1170.3503294686
 20
-432.2070768579
 30
0.0
 11
1173.1840547832
 21
-444.9891857316
 31
0.0
  0
ARC
  5
74
330
1F
100
AcDbEntity
  8
1
  6
________________
 62
     7
370
     9
100
AcDbCircle
 10
1166.4451454401
 20
-433.0728353136
 30
0.0
 40
4.0
100
AcDbArc
 50
12.5
 51
79.5260876647
  0
ARC
  5
75
330
1F
100
AcDbEntity
  8
1
  6
________________
 62
     7
370
     9
100
AcDbCircle
 10
1160.8097231666
 20
-463.5563065038
 30
0.0
 40
35.0
100
AcDbArc
 50
77.8145513186
 51
100.4739123353
  0
ARC
  5
76
330
1F
100
AcDbEntity
  8
1
  6
________________
 62
     7
370
     9
100
AcDbCircle
 10
1155.174300893
 20
-433.0728353136
 30
0.0
 40
4.0
100
AcDbArc
 50
100.4739123353
 51
167.5
  0
LINE
  5
77
330
1F
100
AcDbEntity
  8
1
  6
________________
 62
     7
370
     9
100
AcDbLine
 10
1115.4728915499
 20
-574.1234272759
 30
0.0
 11
1118.4211285448
 21
-587.4220649595
 31
0.0
  0
LINE
  5
78
330
1F
100
AcDbEntity
  8
1
  6
________________
 62
     7
370
     9
100
AcDbLine
 10
1113.5202995357
 20
-572.5563065038
 30
0.0
 11
1109.2116467975
 21
-572.5563065038
 31
0.0
  0
ARC
  5
79
330
1F
100
AcDbEntity
  8
1
  6
________________
 62
     7
370
     9
100
AcDbCircle
 10
1113.5202995357
 20
-574.5563065038
 30
0.0
 40
2.0
100
AcDbArc
 50
12.5
 51
90.0
  0
ARC
  5
7A
330
1F
100
AcDbEntity
  8
1
  6
________________
 62
     7
370
     9
100
AcDbCircle
 10
1142.1741467975
 20
-574.5563065038
 30
0.0
 40
2.0
100
AcDbArc
 50
90.0
 51
167.5
  0
LINE
  5
7B
330
1F
100
AcDbEntity
  8
1
  6
________________
 62
     7
370
     9
100
AcDbLine
 10
1137.3878294686
 20
-586.9055361496
 30
0.0
 11
1140.2215547832
 21
-574.1234272759
 31
0.0
  0
ARC
  5
7C
330
1F
100
AcDbEntity
  8
1
  6
________________
 62
     7
370
     9
100
AcDbCircle
 10
1133.4826454401
 20
-586.0397776939
 30
0.0
 40
4.0
100
AcDbArc
 50
280.4739123353
 51
347.5
  0
ARC
  5
7D
330
1F
100
AcDbEntity
  8
1
  6
________________
 62
     7
370
     9
100
AcDbCircle
 10
1127.8472231666
 20
-555.5563065038
 30
0.0
 40
35.0
100
AcDbArc
 50
259.5260876647
 51
282.1854486814
  0
ARC
  5
7E
330
1F
100
AcDbEntity
  8
1
  6
________________
 62
     7
370
     9
100
AcDbCircle
 10
1122.211800893
 20
-586.0397776939
 30
0.0
 40
4.0
100
AcDbArc
 50
192.5
 51
259.5260876647
  0
LINE
  5
7F
330
1F
100
AcDbEntity
  8
1
  6
________________
 62
     7
370
     9
100
AcDbLine
 10
1082.5103915499
 20
-574.1234272759
 30
0.0
 11
1085.4586285448
 21
-587.4220649595
 31
0.0
  0
LINE
  5
80
330
1F
100
AcDbEntity
  8
1
  6
________________
 62
     7
370
     9
100
AcDbLine
 10
1080.5577995357
 20
-572.5563065038
 30
0.0
 11
1076.2491467975
 21
-572.5563065038
 31
0.0
  0
ARC
  5
81
330
1F
100
AcDbEntity
  8
1
  6
________________
 62
     7
370
     9
100
AcDbCircle
 10
1080.5577995357
 20
-574.5563065038
 30
0.0
 40
2.0
100
AcDbArc
 50
12.5
 51
90.0
  0
ARC
  5
82
330
1F
100
AcDbEntity
  8
1
  6
________________
 62
     7
370
     9
100
AcDbCircle
 10
1109.2116467975
 20
-574.5563065038
 30
0.0
 40
2.0
100
AcDbArc
 50
90.0
 51
167.5
  0
LINE
  5
83
330
1F
100
AcDbEntity
  8
1
  6
________________
 62
     7
370
     9
100
AcDbLine
 10
1104.4253294686
 20
-586.9055361496
 30
0.0
 11
1107.2590547832
 21
-574.1234272759
 31
0.0
  0
ARC
  5
84
330
1F
100
AcDbEntity
  8
1
  6
________________
 62
     7
370
     9
100
AcDbCircle
 10
1100.5201454401
 20
-586.0397776939
 30
0.0
 40
4.0
100
AcDbArc
 50
280.4739123353
 51
347.5
  0
ARC
  5
85
330
1F
100
AcDbEntity
  8
1
  6
________________
 62
     7
370
     9
100
AcDbCircle
 10
1094.8847231666
 20
-555.5563065038
 30
0.0
 40
35.0
100
AcDbArc
 50
259.5260876647
 51
282.1854486814
  0
ARC
  5
86
330
1F
100
AcDbEntity
  8
1
  6
________________
 62
     7
370
     9
100
AcDbCircle
 10
1089.249300893
 20
-586.0397776939
 30
0.0
 40
4.0
100
AcDbArc
 50
192.5
 51
259.5260876647
  0
LINE
  5
87
330
1F
100
AcDbEntity
  8
1
  6
________________
 62
     7
370
     9
100
AcDbLine
 10
1103.6159731666
 20
-430.5398823555
 30
0.0
 11
1103.6159731666
 21
-588.572730652
 31
0.0
  0
LINE
  5
88
330
1F
100
AcDbEntity
  8
1
  6
________________
 62
     7
370
     9
100
AcDbLine
 10
1086.1534731666
 20
-430.5563065038
 30
0.0
 11
1086.1534731666
 21
-588.5563065038
 31
0.0
  0
LINE
  5
89
330
1F
100
AcDbEntity
  8
1
  6
________________
 62
     7
370
     9
100
AcDbLine
 10
1136.5784731666
 20
-430.5398823555
 30
0.0
 11
1136.5784731666
 21
-588.572730652
 31
0.0
  0
LINE
  5
8A
330
1F
100
AcDbEntity
  8
1
  6
________________
 62
     7
370
     9
100
AcDbLine
 10
1119.1159731666
 20
-430.5563065038
 30
0.0
 11
1119.1159731666
 21
-588.5563065038
 31
0.0
  0
LINE
  5
8B
330
1F
100
AcDbEntity
  8
1
  6
________________
 62
     7
370
     9
100
AcDbLine
 10
1115.4728915499
 20
-444.9891857316
 30
0.0
 11
1118.4211285448
 21
-431.690548048
 31
0.0
  0
LINE
  5
8C
330
1F
100
AcDbEntity
  8
1
  6
________________
 62
     7
370
     9
100
AcDbLine
 10
1113.5202995357
 20
-446.5563065038
 30
0.0
 11
1109.2116467975
 21
-446.5563065038
 31
0.0
  0
ARC
  5
8D
330
1F
100
AcDbEntity
  8
1
  6
________________
 62
     7
370
     9
100
AcDbCircle
 10
1113.5202995357
 20
-444.5563065038
 30
0.0
 40
2.0
100
AcDbArc
 50
270.0
 51
347.5
  0
ARC
  5
8E
330
1F
100
AcDbEntity
  8
1
  6
________________
 62
     7
370
     9
100
AcDbCircle
 10
1142.1741467975
 20
-444.5563065037
 30
0.0
 40
2.0
100
AcDbArc
 50
192.5
 51
270.0
  0
LINE
  5
8F
330
1F
100
AcDbEntity
  8
1
  6
________________
 62
     7
370
     9
100
AcDbLine
 10
1137.3878294686
 20
-432.2070768579
 30
0.0
 11
1140.2215547832
 21
-444.9891857316
 31
0.0
  0
ARC
  5
90
330
1F
100
AcDbEntity
  8
1
  6
________________
 62
     7
370
     9
100
AcDbCircle
 10
1133.4826454401
 20
-433.0728353136
 30
0.0
 40
4.0
100
AcDbArc
 50
12.5
 51
79.5260876647
  0
ARC
  5
91
330
1F
100
AcDbEntity
  8
1
  6
________________
 62
     7
370
     9
100
AcDbCircle
 10
1127.8472231666
 20
-463.5563065038
 30
0.0
 40
35.0
100
AcDbArc
 50
77.8145513186
 51
100.4739123353
  0
ARC
  5
92
330
1F
100
AcDbEntity
  8
1
  6
________________
 62
     7
370
     9
100
AcDbCircle
 10
1122.211800893
 20
-433.0728353136
 30
0.0
 40
4.0
100
AcDbArc
 50
100.4739123353
 51
167.5
  0
LINE
  5
93
330
1F
100
AcDbEntity
  8
1
  6
________________
 62
     7
370
     9
100
AcDbLine
 10
1082.5103915499
 20
-444.9891857316
 30
0.0
 11
1085.4586285448
 21
-431.690548048
 31
0.0
  0
LINE
  5
94
330
1F
100
AcDbEntity
  8
1
  6
________________
 62
     7
370
     9
100
AcDbLine
 10
1080.5577995357
 20
-446.5563065038
 30
0.0
 11
1076.2491467975
 21
-446.5563065038
 31
0.0
  0
ARC
  5
95
330
1F
100
AcDbEntity
  8
1
  6
________________
 62
     7
370
     9
100
AcDbCircle
 10
1080.5577995357
 20
-444.5563065038
 30
0.0
 40
2.0
100
AcDbArc
 50
270.0
 51
347.5
  0
ARC
  5
96
330
1F
100
AcDbEntity
  8
1
  6
________________
 62
     7
370
     9
100
AcDbCircle
 10
1109.2116467975
 20
-444.5563065037
 30
0.0
 40
2.0
100
AcDbArc
 50
192.5
 51
270.0
  0
LINE
  5
97
330
1F
100
AcDbEntity
  8
1
  6
________________
 62
     7
370
     9
100
AcDbLine
 10
1104.4253294686
 20
-432.2070768579
 30
0.0
 11
1107.2590547832
 21
-444.9891857316
 31
0.0
  0
ARC
  5
98
330
1F
100
AcDbEntity
  8
1
  6
________________
 62
     7
370
     9
100
AcDbCircle
 10
1100.5201454401
 20
-433.0728353136
 30
0.0
 40
4.0
100
AcDbArc
 50
12.5
 51
79.5260876647
  0
ARC
  5
99
330
1F
100
AcDbEntity
  8
1
  6
________________
 62
     7
370
     9
100
AcDbCircle
 10
1094.8847231666
 20
-463.5563065038
 30
0.0
 40
35.0
100
AcDbArc
 50
77.8145513186
 51
100.4739123353
  0
ARC
  5
9A
330
1F
100
AcDbEntity
  8
1
  6
________________
 62
     7
370
     9
100
AcDbCircle
 10
1089.249300893
 20
-433.0728353136
 30
0.0
 40
4.0
100
AcDbArc
 50
100.4739123353
 51
167.5
  0
LINE
  5
9B
330
1F
100
AcDbEntity
  8
1
  6
________________
 62
     7
370
     9
100
AcDbLine
 10
1049.5478915499
 20
-574.1234272759
 30
0.0
 11
1052.4961285448
 21
-587.4220649595
 31
0.0
  0
LINE
  5
9C
330
1F
100
AcDbEntity
  8
1
  6
________________
 62
     7
370
     9
100
AcDbLine
 10
1047.5952995357
 20
-572.5563065038
 30
0.0
 11
1043.2866467975
 21
-572.5563065038
 31
0.0
  0
ARC
  5
9D
330
1F
100
AcDbEntity
  8
1
  6
________________
 62
     7
370
     9
100
AcDbCircle
 10
1047.5952995357
 20
-574.5563065038
 30
0.0
 40
2.0
100
AcDbArc
 50
12.5
 51
90.0
  0
ARC
  5
9E
330
1F
100
AcDbEntity
  8
1
  6
________________
 62
     7
370
     9
100
AcDbCircle
 10
1076.2491467975
 20
-574.5563065038
 30
0.0
 40
2.0
100
AcDbArc
 50
90.0
 51
167.5
  0
LINE
  5
9F
330
1F
100
AcDbEntity
  8
1
  6
________________
 62
     7
370
     9
100
AcDbLine
 10
1071.4628294686
 20
-586.9055361496
 30
0.0
 11
1074.2965547832
 21
-574.1234272759
 31
0.0
  0
ARC
  5
A0
330
1F
100
AcDbEntity
  8
1
  6
________________
 62
     7
370
     9
100
AcDbCircle
 10
1067.5576454401
 20
-586.0397776939
 30
0.0
 40
4.0
100
AcDbArc
 50
280.4739123353
 51
347.5
  0
ARC
  5
A1
330
1F
100
AcDbEntity
  8
1
  6
________________
 62
     7
370
     9
100
AcDbCircle
 10
1061.9222231666
 20
-555.5563065038
 30
0.0
 40
35.0
100
AcDbArc
 50
259.5260876647
 51
282.1854486814
  0
ARC
  5
A2
330
1F
100
AcDbEntity
  8
1
  6
________________
 62
     7
370
     9
100
AcDbCircle
 10
1056.286800893
 20
-586.0397776939
 30
0.0
 40
4.0
100
AcDbArc
 50
192.5
 51
259.5260876647
  0
LINE
  5
A3
330
1F
100
AcDbEntity
  8
1
  6
________________
 62
     7
370
     9
100
AcDbLine
 10
1016.5853915499
 20
-574.1234272759
 30
0.0
 11
1019.5336285448
 21
-587.4220649595
 31
0.0
  0
LINE
  5
A4
330
1F
100
AcDbEntity
  8
1
  6
________________
 62
     7
370
     9
100
AcDbLine
 10
1014.6327995357
 20
-572.5563065038
 30
0.0
 11
1010.3241467975
 21
-572.5563065038
 31
0.0
  0
ARC
  5
A5
330
1F
100
AcDbEntity
  8
1
  6
________________
 62
     7
370
     9
100
AcDbCircle
 10
1014.6327995357
 20
-574.5563065038
 30
0.0
 40
2.0
100
AcDbArc
 50
12.5
 51
90.0
  0
ARC
  5
A6
330
1F
100
AcDbEntity
  8
1
  6
________________
 62
     7
370
     9
100
AcDbCircle
 10
1043.2866467975
 20
-574.5563065038
 30
0.0
 40
2.0
100
AcDbArc
 50
90.0
 51
167.5
  0
LINE
  5
A7
330
1F
100
AcDbEntity
  8
1
  6
________________
 62
     7
370
     9
100
AcDbLine
 10
1038.5003294686
 20
-586.9055361496
 30
0.0
 11
1041.3340547832
 21
-574.1234272759
 31
0.0
  0
ARC
  5
A8
330
1F
100
AcDbEntity
  8
1
  6
________________
 62
     7
370
     9
100
AcDbCircle
 10
1034.5951454401
 20
-586.0397776939
 30
0.0
 40
4.0
100
AcDbArc
 50
280.4739123353
 51
347.5
  0
ARC
  5
A9
330
1F
100
AcDbEntity
  8
1
  6
________________
 62
     7
370
     9
100
AcDbCircle
 10
1028.9597231666
 20
-555.5563065038
 30
0.0
 40
35.0
100
AcDbArc
 50
259.5260876647
 51
282.1854486814
  0
ARC
  5
AA
330
1F
100
AcDbEntity
  8
1
  6
________________
 62
     7
370
     9
100
AcDbCircle
 10
1023.324300893
 20
-586.0397776939
 30
0.0
 40
4.0
100
AcDbArc
 50
192.5
 51
259.5260876647
  0
LINE
  5
AB
330
1F
100
AcDbEntity
  8
1
  6
________________
 62
     7
370
     9
100
AcDbLine
 10
1037.6909731666
 20
-430.5398823555
 30
0.0
 11
1037.6909731666
 21
-588.572730652
 31
0.0
  0
LINE
  5
AC
330
1F
100
AcDbEntity
  8
1
  6
________________
 62
     7
370
     9
100
AcDbLine
 10
1020.2284731666
 20
-430.5563065038
 30
0.0
 11
1020.2284731666
 21
-588.5563065038
 31
0.0
  0
LINE
  5
AD
330
1F
100
AcDbEntity
  8
1
  6
________________
 62
     7
370
     9
100
AcDbLine
 10
1070.6534731666
 20
-430.5398823555
 30
0.0
 11
1070.6534731666
 21
-588.572730652
 31
0.0
  0
LINE
  5
AE
330
1F
100
AcDbEntity
  8
1
  6
________________
 62
     7
370
     9
100
AcDbLine
 10
1053.1909731666
 20
-430.5563065038
 30
0.0
 11
1053.1909731666
 21
-588.5563065038
 31
0.0
  0
LINE
  5
AF
330
1F
100
AcDbEntity
  8
1
  6
________________
 62
     7
370
     9
100
AcDbLine
 10
1049.5478915499
 20
-444.9891857316
 30
0.0
 11
1052.4961285448
 21
-431.690548048
 31
0.0
  0
LINE
  5
B0
330
1F
100
AcDbEntity
  8
1
  6
________________
 62
     7
370
     9
100
AcDbLine
 10
1047.5952995357
 20
-446.5563065038
 30
0.0
 11
1043.2866467975
 21
-446.5563065038
 31
0.0
  0
ARC
  5
B1
330
1F
100
AcDbEntity
  8
1
  6
________________
 62
     7
370
     9
100
AcDbCircle
 10
1047.5952995357
 20
-444.5563065038
 30
0.0
 40
2.0
100
AcDbArc
 50
270.0
 51
347.5
  0
ARC
  5
B2
330
1F
100
AcDbEntity
  8
1
  6
________________
 62
     7
370
     9
100
AcDbCircle
 10
1076.2491467975
 20
-444.5563065037
 30
0.0
 40
2.0
100
AcDbArc
 50
192.5
 51
270.0
  0
LINE
  5
B3
330
1F
100
AcDbEntity
  8
1
  6
________________
 62
     7
370
     9
100
AcDbLine
 10
1071.4628294686
 20
-432.2070768579
 30
0.0
 11
1074.2965547832
 21
-444.9891857316
 31
0.0
  0
ARC
  5
B4
330
1F
100
AcDbEntity
  8
1
  6
________________
 62
     7
370
     9
100
AcDbCircle
 10
1067.5576454401
 20
-433.0728353136
 30
0.0
 40
4.0
100
AcDbArc
 50
12.5
 51
79.5260876647
  0
ARC
  5
B5
330
1F
100
AcDbEntity
  8
1
  6
________________
 62
     7
370
     9
100
AcDbCircle
 10
1061.9222231666
 20
-463.5563065038
 30
0.0
 40
35.0
100
AcDbArc
 50
77.8145513186
 51
100.4739123353
  0
ARC
  5
B6
330
1F
100
AcDbEntity
  8
1
  6
________________
 62
     7
370
     9
100
AcDbCircle
 10
1056.286800893
 20
-433.0728353136
 30
0.0
 40
4.0
100
AcDbArc
 50
100.4739123353
 51
167.5
  0
LINE
  5
B7
330
1F
100
AcDbEntity
  8
1
  6
________________
 62
     7
370
     9
100
AcDbLine
 10
1016.5853915499
 20
-444.9891857316
 30
0.0
 11
1019.5336285448
 21
-431.690548048
 31
0.0
  0
LINE
  5
B8
330
1F
100
AcDbEntity
  8
1
  6
________________
 62
     7
370
     9
100
AcDbLine
 10
1014.6327995357
 20
-446.5563065038
 30
0.0
 11
1010.3241467975
 21
-446.5563065038
 31
0.0
  0
ARC
  5
B9
330
1F
100
AcDbEntity
  8
1
  6
________________
 62
     7
370
     9
100
AcDbCircle
 10
1014.6327995357
 20
-444.5563065038
 30
0.0
 40
2.0
100
AcDbArc
 50
270.0
 51
347.5
  0
ARC
  5
BA
330
1F
100
AcDbEntity
  8
1
  6
________________
 62
     7
370
     9
100
AcDbCircle
 10
1043.2866467975
 20
-444.5563065037
 30
0.0
 40
2.0
100
AcDbArc
 50
192.5
 51
270.0
  0
LINE
  5
BB
330
1F
100
AcDbEntity
  8
1
  6
________________
 62
     7
370
     9
100
AcDbLine
 10
1038.5003294686
 20
-432.2070768579
 30
0.0
 11
1041.3340547832
 21
-444.9891857316
 31
0.0
  0
ARC
  5
BC
330
1F
100
AcDbEntity
  8
1
  6
________________
 62
     7
370
     9
100
AcDbCircle
 10
1034.5951454401
 20
-433.0728353136
 30
0.0
 40
4.0
100
AcDbArc
 50
12.5
 51
79.5260876647
  0
ARC
  5
BD
330
1F
100
AcDbEntity
  8
1
  6
________________
 62
     7
370
     9
100
AcDbCircle
 10
1028.9597231666
 20
-463.5563065038
 30
0.0
 40
35.0
100
AcDbArc
 50
77.8145513186
 51
100.4739123353
  0
ARC
  5
BE
330
1F
100
AcDbEntity
  8
1
  6
________________
 62
     7
370
     9
100
AcDbCircle
 10
1023.324300893
 20
-433.0728353136
 30
0.0
 40
4.0
100
AcDbArc
 50
100.4739123353
 51
167.5
  0
LINE
  5
BF
330
1F
100
AcDbEntity
  8
1
  6
________________
 62
     7
370
     9
100
AcDbLine
 10
983.6228915499
 20
-574.1234272759
 30
0.0
 11
986.5711285448
 21
-587.4220649595
 31
0.0
  0
LINE
  5
C0
330
1F
100
AcDbEntity
  8
1
  6
________________
 62
     7
370
     9
100
AcDbLine
 10
981.6702995357
 20
-572.5563065038
 30
0.0
 11
977.3616467975
 21
-572.5563065038
 31
0.0
  0
ARC
  5
C1
330
1F
100
AcDbEntity
  8
1
  6
________________
 62
     7
370
     9
100
AcDbCircle
 10
981.6702995357
 20
-574.5563065038
 30
0.0
 40
2.0
100
AcDbArc
 50
12.5
 51
90.0
  0
ARC
  5
C2
330
1F
100
AcDbEntity
  8
1
  6
________________
 62
     7
370
     9
100
AcDbCircle
 10
1010.3241467975
 20
-574.5563065038
 30
0.0
 40
2.0
100
AcDbArc
 50
90.0
 51
167.5
  0
LINE
  5
C3
330
1F
100
AcDbEntity
  8
1
  6
________________
 62
     7
370
     9
100
AcDbLine
 10
1005.5378294686
 20
-586.9055361496
 30
0.0
 11
1008.3715547833
 21
-574.1234272759
 31
0.0
  0
ARC
  5
C4
330
1F
100
AcDbEntity
  8
1
  6
________________
 62
     7
370
     9
100
AcDbCircle
 10
1001.6326454401
 20
-586.0397776939
 30
0.0
 40
4.0
100
AcDbArc
 50
280.4739123353
 51
347.5
  0
ARC
  5
C5
330
1F
100
AcDbEntity
  8
1
  6
________________
 62
     7
370
     9
100
AcDbCircle
 10
995.9972231666
 20
-555.5563065038
 30
0.0
 40
35.0
100
AcDbArc
 50
259.5260876647
 51
282.1854486814
  0
ARC
  5
C6
330
1F
100
AcDbEntity
  8
1
  6
________________
 62
     7
370
     9
100
AcDbCircle
 10
990.361800893
 20
-586.0397776939
 30
0.0
 40
4.0
100
AcDbArc
 50
192.5
 51
259.5260876647
  0
LINE
  5
C7
330
1F
100
AcDbEntity
  8
1
  6
________________
 62
     7
370
     9
100
AcDbLine
 10
950.6603915499
 20
-574.1234272759
 30
0.0
 11
953.6086285448
 21
-587.4220649595
 31
0.0
  0
LINE
  5
C8
330
1F
100
AcDbEntity
  8
1
  6
________________
 62
     7
370
     9
100
AcDbLine
 10
948.7077995357
 20
-572.5563065038
 30
0.0
 11
944.3991467975
 21
-572.5563065038
 31
0.0
  0
ARC
  5
C9
330
1F
100
AcDbEntity
  8
1
  6
________________
 62
     7
370
     9
100
AcDbCircle
 10
948.7077995357
 20
-574.5563065038
 30
0.0
 40
2.0
100
AcDbArc
 50
12.5
 51
90.0
  0
ARC
  5
CA
330
1F
100
AcDbEntity
  8
1
  6
________________
 62
     7
370
     9
100
AcDbCircle
 10
977.3616467975
 20
-574.5563065038
 30
0.0
 40
2.0
100
AcDbArc
 50
90.0
 51
167.5
  0
LINE
  5
CB
330
1F
100
AcDbEntity
  8
1
  6
________________
 62
     7
370
     9
100
AcDbLine
 10
972.5753294686
 20
-586.9055361496
 30
0.0
 11
975.4090547833
 21
-574.1234272759
 31
0.0
  0
ARC
  5
CC
330
1F
100
AcDbEntity
  8
1
  6
________________
 62
     7
370
     9
100
AcDbCircle
 10
968.6701454401
 20
-586.0397776939
 30
0.0
 40
4.0
100
AcDbArc
 50
280.4739123353
 51
347.5
  0
ARC
  5
CD
330
1F
100
AcDbEntity
  8
1
  6
________________
 62
     7
370
     9
100
AcDbCircle
 10
963.0347231666
 20
-555.5563065038
 30
0.0
 40
35.0
100
AcDbArc
 50
259.5260876647
 51
282.1854486814
  0
ARC
  5
CE
330
1F
100
AcDbEntity
  8
1
  6
________________
 62
     7
370
     9
100
AcDbCircle
 10
957.399300893
 20
-586.0397776939
 30
0.0
 40
4.0
100
AcDbArc
 50
192.5
 51
259.5260876647
  0
LINE
  5
CF
330
1F
100
AcDbEntity
  8
1
  6
________________
 62
     7
370
     9
100
AcDbLine
 10
971.7659731666
 20
-430.5398823555
 30
0.0
 11
971.7659731666
 21
-588.572730652
 31
0.0
  0
LINE
  5
D0
330
1F
100
AcDbEntity
  8
1
  6
________________
 62
     7
370
     9
100
AcDbLine
 10
954.3034731666
 20
-430.5563065038
 30
0.0
 11
954.3034731666
 21
-588.5563065038
 31
0.0
  0
LINE
  5
D1
330
1F
100
AcDbEntity
  8
1
  6
________________
 62
     7
370
     9
100
AcDbLine
 10
1004.7284731666
 20
-430.5398823555
 30
0.0
 11
1004.7284731666
 21
-588.572730652
 31
0.0
  0
LINE
  5
D2
330
1F
100
AcDbEntity
  8
1
  6
________________
 62
     7
370
     9
100
AcDbLine
 10
987.2659731666
 20
-430.5563065038
 30
0.0
 11
987.2659731666
 21
-588.5563065038
 31
0.0
  0
LINE
  5
D3
330
1F
100
AcDbEntity
  8
1
  6
________________
 62
     7
370
     9
100
AcDbLine
 10
983.6228915499
 20
-444.9891857316
 30
0.0
 11
986.5711285448
 21
-431.690548048
 31
0.0
  0
LINE
  5
D4
330
1F
100
AcDbEntity
  8
1
  6
________________
 62
     7
370
     9
100
AcDbLine
 10
981.6702995357
 20
-446.5563065038
 30
0.0
 11
977.3616467975
 21
-446.5563065038
 31
0.0
  0
ARC
  5
D5
330
1F
100
AcDbEntity
  8
1
  6
________________
 62
     7
370
     9
100
AcDbCircle
 10
981.6702995357
 20
-444.5563065038
 30
0.0
 40
2.0
100
AcDbArc
 50
270.0
 51
347.5
  0
ARC
  5
D6
330
1F
100
AcDbEntity
  8
1
  6
________________
 62
     7
370
     9
100
AcDbCircle
 10
1010.3241467975
 20
-444.5563065037
 30
0.0
 40
2.0
100
AcDbArc
 50
192.5
 51
270.0
  0
LINE
  5
D7
330
1F
100
AcDbEntity
  8
1
  6
________________
 62
     7
370
     9
100
AcDbLine
 10
1005.5378294686
 20
-432.2070768579
 30
0.0
 11
1008.3715547833
 21
-444.9891857316
 31
0.0
  0
ARC
  5
D8
330
1F
100
AcDbEntity
  8
1
  6
________________
 62
     7
370
     9
100
AcDbCircle
 10
1001.6326454401
 20
-433.0728353136
 30
0.0
 40
4.0
100
AcDbArc
 50
12.5
 51
79.5260876647
  0
ARC
  5
D9
330
1F
100
AcDbEntity
  8
1
  6
________________
 62
     7
370
     9
100
AcDbCircle
 10
995.9972231666
 20
-463.5563065038
 30
0.0
 40
35.0
100
AcDbArc
 50
77.8145513186
 51
100.4739123353
  0
ARC
  5
DA
330
1F
100
AcDbEntity
  8
1
  6
________________
 62
     7
370
     9
100
AcDbCircle
 10
990.361800893
 20
-433.0728353136
 30
0.0
 40
4.0
100
AcDbArc
 50
100.4739123353
 51
167.5
  0
LINE
  5
DB
330
1F
100
AcDbEntity
  8
1
  6
________________
 62
     7
370
     9
100
AcDbLine
 10
950.6603915499
 20
-444.9891857316
 30
0.0
 11
953.6086285448
 21
-431.690548048
 31
0.0
  0
LINE
  5
DC
330
1F
100
AcDbEntity
  8
1
  6
________________
 62
     7
370
     9
100
AcDbLine
 10
948.7077995357
 20
-446.5563065038
 30
0.0
 11
944.3991467975
 21
-446.5563065038
 31
0.0
  0
ARC
  5
DD
330
1F
100
AcDbEntity
  8
1
  6
________________
 62
     7
370
     9
100
AcDbCircle
 10
948.7077995357
 20
-444.5563065038
 30
0.0
 40
2.0
100
AcDbArc
 50
270.0
 51
347.5
  0
ARC
  5
DE
330
1F
100
AcDbEntity
  8
1
  6
________________
 62
     7
370
     9
100
AcDbCircle
 10
977.3616467975
 20
-444.5563065037
 30
0.0
 40
2.0
100
AcDbArc
 50
192.5
 51
270.0
  0
LINE
  5
DF
330
1F
100
AcDbEntity
  8
1
  6
________________
 62
     7
370
     9
100
AcDbLine
 10
972.5753294686
 20
-432.2070768579
 30
0.0
 11
975.4090547833
 21
-444.9891857316
 31
0.0
  0
ARC
  5
E0
330
1F
100
AcDbEntity
  8
1
  6
________________
 62
     7
370
     9
100
AcDbCircle
 10
968.6701454401
 20
-433.0728353136
 30
0.0
 40
4.0
100
AcDbArc
 50
12.5
 51
79.5260876647
  0
ARC
  5
E1
330
1F
100
AcDbEntity
  8
1
  6
________________
 62
     7
370
     9
100
AcDbCircle
 10
963.0347231666
 20
-463.5563065038
 30
0.0
 40
35.0
100
AcDbArc
 50
77.8145513186
 51
100.4739123353
  0
ARC
  5
E2
330
1F
100
AcDbEntity
  8
1
  6
________________
 62
     7
370
     9
100
AcDbCircle
 10
957.399300893
 20
-433.0728353136
 30
0.0
 40
4.0
100
AcDbArc
 50
100.4739123353
 51
167.5
  0
LINE
  5
E3
330
1F
100
AcDbEntity
  8
1
  6
________________
 62
     7
370
     9
100
AcDbLine
 10
917.6978915499
 20
-574.1234272759
 30
0.0
 11
920.6461285448
 21
-587.4220649595
 31
0.0
  0
LINE
  5
E4
330
1F
100
AcDbEntity
  8
1
  6
________________
 62
     7
370
     9
100
AcDbLine
 10
915.7452995357
 20
-572.5563065038
 30
0.0
 11
911.4366467975
 21
-572.5563065038
 31
0.0
  0
ARC
  5
E5
330
1F
100
AcDbEntity
  8
1
  6
________________
 62
     7
370
     9
100
AcDbCircle
 10
915.7452995357
 20
-574.5563065038
 30
0.0
 40
2.0
100
AcDbArc
 50
12.5
 51
90.0
  0
ARC
  5
E6
330
1F
100
AcDbEntity
  8
1
  6
________________
 62
     7
370
     9
100
AcDbCircle
 10
944.3991467975
 20
-574.5563065038
 30
0.0
 40
2.0
100
AcDbArc
 50
90.0
 51
167.5
  0
LINE
  5
E7
330
1F
100
AcDbEntity
  8
1
  6
________________
 62
     7
370
     9
100
AcDbLine
 10
939.6128294686
 20
-586.9055361496
 30
0.0
 11
942.4465547833
 21
-574.1234272759
 31
0.0
  0
ARC
  5
E8
330
1F
100
AcDbEntity
  8
1
  6
________________
 62
     7
370
     9
100
AcDbCircle
 10
935.7076454401
 20
-586.0397776939
 30
0.0
 40
4.0
100
AcDbArc
 50
280.4739123353
 51
347.5
  0
ARC
  5
E9
330
1F
100
AcDbEntity
  8
1
  6
________________
 62
     7
370
     9
100
AcDbCircle
 10
930.0722231666
 20
-555.5563065038
 30
0.0
 40
35.0
100
AcDbArc
 50
259.5260876647
 51
282.1854486814
  0
ARC
  5
EA
330
1F
100
AcDbEntity
  8
1
  6
________________
 62
     7
370
     9
100
AcDbCircle
 10
924.436800893
 20
-586.0397776939
 30
0.0
 40
4.0
100
AcDbArc
 50
192.5
 51
259.5260876647
  0
LINE
  5
EB
330
1F
100
AcDbEntity
  8
1
  6
________________
 62
     7
370
     9
100
AcDbLine
 10
884.7353915499
 20
-574.1234272759
 30
0.0
 11
887.6836285448
 21
-587.4220649595
 31
0.0
  0
LINE
  5
EC
330
1F
100
AcDbEntity
  8
1
  6
________________
 62
     7
370
     9
100
AcDbLine
 10
882.7827995357
 20
-572.5563065038
 30
0.0
 11
878.4741467975
 21
-572.5563065038
 31
0.0
  0
ARC
  5
ED
330
1F
100
AcDbEntity
  8
1
  6
________________
 62
     7
370
     9
100
AcDbCircle
 10
882.7827995357
 20
-574.5563065038
 30
0.0
 40
2.0
100
AcDbArc
 50
12.5
 51
90.0
  0
ARC
  5
EE
330
1F
100
AcDbEntity
  8
1
  6
________________
 62
     7
370
     9
100
AcDbCircle
 10
911.4366467975
 20
-574.5563065038
 30
0.0
 40
2.0
100
AcDbArc
 50
90.0
 51
167.5
  0
LINE
  5
EF
330
1F
100
AcDbEntity
  8
1
  6
________________
 62
     7
370
     9
100
AcDbLine
 10
906.6503294686
 20
-586.9055361496
 30
0.0
 11
909.4840547833
 21
-574.1234272759
 31
0.0
  0
ARC
  5
F0
330
1F
100
AcDbEntity
  8
1
  6
________________
 62
     7
370
     9
100
AcDbCircle
 10
902.7451454401
 20
-586.0397776939
 30
0.0
 40
4.0
100
AcDbArc
 50
280.4739123353
 51
347.5
  0
ARC
  5
F1
330
1F
100
AcDbEntity
  8
1
  6
________________
 62
     7
370
     9
100
AcDbCircle
 10
897.1097231666
 20
-555.5563065038
 30
0.0
 40
35.0
100
AcDbArc
 50
259.5260876647
 51
282.1854486814
  0
ARC
  5
F2
330
1F
100
AcDbEntity
  8
1
  6
________________
 62
     7
370
     9
100
AcDbCircle
 10
891.474300893
 20
-586.0397776939
 30
0.0
 40
4.0
100
AcDbArc
 50
192.5
 51
259.5260876647
  0
LINE
  5
F3
330
1F
100
AcDbEntity
  8
1
  6
________________
 62
     7
370
     9
100
AcDbLine
 10
905.8409731666
 20
-430.5398823555
 30
0.0
 11
905.8409731666
 21
-588.572730652
 31
0.0
  0
LINE
  5
F4
330
1F
100
AcDbEntity
  8
1
  6
________________
 62
     7
370
     9
100
AcDbLine
 10
888.3784731666
 20
-430.5563065038
 30
0.0
 11
888.3784731666
 21
-588.5563065038
 31
0.0
  0
LINE
  5
F5
330
1F
100
AcDbEntity
  8
1
  6
________________
 62
     7
370
     9
100
AcDbLine
 10
938.8034731666
 20
-430.5398823555
 30
0.0
 11
938.8034731666
 21
-588.572730652
 31
0.0
  0
LINE
  5
F6
330
1F
100
AcDbEntity
  8
1
  6
________________
 62
     7
370
     9
100
AcDbLine
 10
921.3409731666
 20
-430.5563065038
 30
0.0
 11
921.3409731666
 21
-588.5563065038
 31
0.0
  0
LINE
  5
F7
330
1F
100
AcDbEntity
  8
1
  6
________________
 62
     7
370
     9
100
AcDbLine
 10
917.6978915499
 20
-444.9891857316
 30
0.0
 11
920.6461285448
 21
-431.690548048
 31
0.0
  0
LINE
  5
F8
330
1F
100
AcDbEntity
  8
1
  6
________________
 62
     7
370
     9
100
AcDbLine
 10
915.7452995357
 20
-446.5563065038
 30
0.0
 11
911.4366467975
 21
-446.5563065038
 31
0.0
  0
ARC
  5
F9
330
1F
100
AcDbEntity
  8
1
  6
________________
 62
     7
370
     9
100
AcDbCircle
 10
915.7452995357
 20
-444.5563065038
 30
0.0
 40
2.0
100
AcDbArc
 50
270.0
 51
347.5
  0
ARC
  5
FA
330
1F
100
AcDbEntity
  8
1
  6
________________
 62
     7
370
     9
100
AcDbCircle
 10
944.3991467975
 20
-444.5563065037
 30
0.0
 40
2.0
100
AcDbArc
 50
192.5
 51
270.0
  0
LINE
  5
FB
330
1F
100
AcDbEntity
  8
1
  6
________________
 62
     7
370
     9
100
AcDbLine
 10
939.6128294686
 20
-432.2070768579
 30
0.0
 11
942.4465547833
 21
-444.9891857316
 31
0.0
  0
ARC
  5
FC
330
1F
100
AcDbEntity
  8
1
  6
________________
 62
     7
370
     9
100
AcDbCircle
 10
935.7076454401
 20
-433.0728353136
 30
0.0
 40
4.0
100
AcDbArc
 50
12.5
 51
79.5260876647
  0
ARC
  5
FD
330
1F
100
AcDbEntity
  8
1
  6
________________
 62
     7
370
     9
100
AcDbCircle
 10
930.0722231666
 20
-463.5563065038
 30
0.0
 40
35.0
100
AcDbArc
 50
77.8145513186
 51
100.4739123353
  0
ARC
  5
FE
330
1F
100
AcDbEntity
  8
1
  6
________________
 62
     7
370
     9
100
AcDbCircle
 10
924.436800893
 20
-433.0728353136
 30
0.0
 40
4.0
100
AcDbArc
 50
100.4739123353
 51
167.5
  0
LINE
  5
FF
330
1F
100
AcDbEntity
  8
1
  6
________________
 62
     7
370
     9
100
AcDbLine
 10
884.7353915499
 20
-444.9891857316
 30
0.0
 11
887.6836285448
 21
-431.690548048
 31
0.0
  0
LINE
  5
100
330
1F
100
AcDbEntity
  8
1
  6
________________
 62
     7
370
     9
100
AcDbLine
 10
882.7827995357
 20
-446.5563065038
 30
0.0
 11
878.4741467975
 21
-446.5563065038
 31
0.0
  0
ARC
  5
101
330
1F
100
AcDbEntity
  8
1
  6
________________
 62
     7
370
     9
100
AcDbCircle
 10
882.7827995357
 20
-444.5563065038
 30
0.0
 40
2.0
100
AcDbArc
 50
270.0
 51
347.5
  0
ARC
  5
102
330
1F
100
AcDbEntity
  8
1
  6
________________
 62
     7
370
     9
100
AcDbCircle
 10
911.4366467975
 20
-444.5563065037
 30
0.0
 40
2.0
100
AcDbArc
 50
192.5
 51
270.0
  0
LINE
  5
103
330
1F
100
AcDbEntity
  8
1
  6
________________
 62
     7
370
     9
100
AcDbLine
 10
906.6503294686
 20
-432.2070768579
 30
0.0
 11
909.4840547833
 21
-444.9891857316
 31
0.0
  0
ARC
  5
104
330
1F
100
AcDbEntity
  8
1
  6
________________
 62
     7
370
     9
100
AcDbCircle
 10
902.7451454401
 20
-433.0728353136
 30
0.0
 40
4.0
100
AcDbArc
 50
12.5
 51
79.5260876647
  0
ARC
  5
105
330
1F
100
AcDbEntity
  8
1
  6
________________
 62
     7
370
     9
100
AcDbCircle
 10
897.1097231666
 20
-463.5563065038
 30
0.0
 40
35.0
100
AcDbArc
 50
77.8145513186
 51
100.4739123353
  0
ARC
  5
106
330
1F
100
AcDbEntity
  8
1
  6
________________
 62
     7
370
     9
100
AcDbCircle
 10
891.474300893
 20
-433.0728353136
 30
0.0
 40
4.0
100
AcDbArc
 50
100.4739123353
 51
167.5
  0
LINE
  5
107
330
1F
100
AcDbEntity
  8
1
  6
________________
 62
     7
370
     9
100
AcDbLine
 10
851.7728915499
 20
-574.1234272759
 30
0.0
 11
854.7211285448
 21
-587.4220649595
 31
0.0
  0
LINE
  5
108
330
1F
100
AcDbEntity
  8
1
  6
________________
 62
     7
370
     9
100
AcDbLine
 10
849.8202995357
 20
-572.5563065038
 30
0.0
 11
845.5116467975
 21
-572.5563065038
 31
0.0
  0
ARC
  5
109
330
1F
100
AcDbEntity
  8
1
  6
________________
 62
     7
370
     9
100
AcDbCircle
 10
849.8202995357
 20
-574.5563065038
 30
0.0
 40
2.0
100
AcDbArc
 50
12.5
 51
90.0
  0
ARC
  5
10A
330
1F
100
AcDbEntity
  8
1
  6
________________
 62
     7
370
     9
100
AcDbCircle
 10
878.4741467975
 20
-574.5563065038
 30
0.0
 40
2.0
100
AcDbArc
 50
90.0
 51
167.5
  0
LINE
  5
10B
330
1F
100
AcDbEntity
  8
1
  6
________________
 62
     7
370
     9
100
AcDbLine
 10
873.6878294686
 20
-586.9055361496
 30
0.0
 11
876.5215547833
 21
-574.1234272759
 31
0.0
  0
ARC
  5
10C
330
1F
100
AcDbEntity
  8
1
  6
________________
 62
     7
370
     9
100
AcDbCircle
 10
869.7826454401
 20
-586.0397776939
 30
0.0
 40
4.0
100
AcDbArc
 50
280.4739123353
 51
347.5
  0
ARC
  5
10D
330
1F
100
AcDbEntity
  8
1
  6
________________
 62
     7
370
     9
100
AcDbCircle
 10
864.1472231666
 20
-555.5563065038
 30
0.0
 40
35.0
100
AcDbArc
 50
259.5260876647
 51
282.1854486814
  0
ARC
  5
10E
330
1F
100
AcDbEntity
  8
1
  6
________________
 62
     7
370
     9
100
AcDbCircle
 10
858.511800893
 20
-586.0397776939
 30
0.0
 40
4.0
100
AcDbArc
 50
192.5
 51
259.5260876647
  0
LINE
  5
10F
330
1F
100
AcDbEntity
  8
1
  6
________________
 62
     7
370
     9
100
AcDbLine
 10
818.8103915499
 20
-574.1234272759
 30
0.0
 11
821.7586285448
 21
-587.4220649595
 31
0.0
  0
LINE
  5
110
330
1F
100
AcDbEntity
  8
1
  6
________________
 62
     7
370
     9
100
AcDbLine
 10
816.8577995357
 20
-572.5563065038
 30
0.0
 11
812.5491467975
 21
-572.5563065038
 31
0.0
  0
ARC
  5
111
330
1F
100
AcDbEntity
  8
1
  6
________________
 62
     7
370
     9
100
AcDbCircle
 10
816.8577995357
 20
-574.5563065038
 30
0.0
 40
2.0
100
AcDbArc
 50
12.5
 51
90.0
  0
ARC
  5
112
330
1F
100
AcDbEntity
  8
1
  6
________________
 62
     7
370
     9
100
AcDbCircle
 10
845.5116467975
 20
-574.5563065038
 30
0.0
 40
2.0
100
AcDbArc
 50
90.0
 51
167.5
  0
LINE
  5
113
330
1F
100
AcDbEntity
  8
1
  6
________________
 62
     7
370
     9
100
AcDbLine
 10
840.7253294686
 20
-586.9055361496
 30
0.0
 11
843.5590547833
 21
-574.1234272759
 31
0.0
  0
ARC
  5
114
330
1F
100
AcDbEntity
  8
1
  6
________________
 62
     7
370
     9
100
AcDbCircle
 10
836.8201454401
 20
-586.0397776939
 30
0.0
 40
4.0
100
AcDbArc
 50
280.4739123353
 51
347.5
  0
ARC
  5
115
330
1F
100
AcDbEntity
  8
1
  6
________________
 62
     7
370
     9
100
AcDbCircle
 10
831.1847231666
 20
-555.5563065038
 30
0.0
 40
35.0
100
AcDbArc
 50
259.5260876647
 51
282.1854486814
  0
ARC
  5
116
330
1F
100
AcDbEntity
  8
1
  6
________________
 62
     7
370
     9
100
AcDbCircle
 10
825.549300893
 20
-586.0397776939
 30
0.0
 40
4.0
100
AcDbArc
 50
192.5
 51
259.5260876647
  0
LINE
  5
117
330
1F
100
AcDbEntity
  8
1
  6
________________
 62
     7
370
     9
100
AcDbLine
 10
839.9159731666
 20
-430.5398823555
 30
0.0
 11
839.9159731666
 21
-588.572730652
 31
0.0
  0
LINE
  5
118
330
1F
100
AcDbEntity
  8
1
  6
________________
 62
     7
370
     9
100
AcDbLine
 10
822.4534731666
 20
-430.5563065038
 30
0.0
 11
822.4534731666
 21
-588.5563065038
 31
0.0
  0
LINE
  5
119
330
1F
100
AcDbEntity
  8
1
  6
________________
 62
     7
370
     9
100
AcDbLine
 10
872.8784731666
 20
-430.5398823555
 30
0.0
 11
872.8784731666
 21
-588.572730652
 31
0.0
  0
LINE
  5
11A
330
1F
100
AcDbEntity
  8
1
  6
________________
 62
     7
370
     9
100
AcDbLine
 10
855.4159731666
 20
-430.5563065038
 30
0.0
 11
855.4159731666
 21
-588.5563065038
 31
0.0
  0
LINE
  5
11B
330
1F
100
AcDbEntity
  8
1
  6
________________
 62
     7
370
     9
100
AcDbLine
 10
851.7728915499
 20
-444.9891857316
 30
0.0
 11
854.7211285448
 21
-431.690548048
 31
0.0
  0
LINE
  5
11C
330
1F
100
AcDbEntity
  8
1
  6
________________
 62
     7
370
     9
100
AcDbLine
 10
849.8202995357
 20
-446.5563065038
 30
0.0
 11
845.5116467975
 21
-446.5563065038
 31
0.0
  0
ARC
  5
11D
330
1F
100
AcDbEntity
  8
1
  6
________________
 62
     7
370
     9
100
AcDbCircle
 10
849.8202995357
 20
-444.5563065038
 30
0.0
 40
2.0
100
AcDbArc
 50
270.0
 51
347.5
  0
ARC
  5
11E
330
1F
100
AcDbEntity
  8
1
  6
________________
 62
     7
370
     9
100
AcDbCircle
 10
878.4741467975
 20
-444.5563065037
 30
0.0
 40
2.0
100
AcDbArc
 50
192.5
 51
270.0
  0
LINE
  5
11F
330
1F
100
AcDbEntity
  8
1
  6
________________
 62
     7
370
     9
100
AcDbLine
 10
873.6878294686
 20
-432.2070768579
 30
0.0
 11
876.5215547833
 21
-444.9891857316
 31
0.0
  0
ARC
  5
120
330
1F
100
AcDbEntity
  8
1
  6
________________
 62
     7
370
     9
100
AcDbCircle
 10
869.7826454401
 20
-433.0728353136
 30
0.0
 40
4.0
100
AcDbArc
 50
12.5
 51
79.5260876647
  0
ARC
  5
121
330
1F
100
AcDbEntity
  8
1
  6
________________
 62
     7
370
     9
100
AcDbCircle
 10
864.1472231666
 20
-463.5563065038
 30
0.0
 40
35.0
100
AcDbArc
 50
77.8145513186
 51
100.4739123353
  0
ARC
  5
122
330
1F
100
AcDbEntity
  8
1
  6
________________
 62
     7
370
     9
100
AcDbCircle
 10
858.511800893
 20
-433.0728353136
 30
0.0
 40
4.0
100
AcDbArc
 50
100.4739123353
 51
167.5
  0
LINE
  5
123
330
1F
100
AcDbEntity
  8
1
  6
________________
 62
     7
370
     9
100
AcDbLine
 10
818.8103915499
 20
-444.9891857316
 30
0.0
 11
821.7586285448
 21
-431.690548048
 31
0.0
  0
LINE
  5
124
330
1F
100
AcDbEntity
  8
1
  6
________________
 62
     7
370
     9
100
AcDbLine
 10
816.8577995357
 20
-446.5563065038
 30
0.0
 11
812.5491467975
 21
-446.5563065038
 31
0.0
  0
ARC
  5
125
330
1F
100
AcDbEntity
  8
1
  6
________________
 62
     7
370
     9
100
AcDbCircle
 10
816.8577995357
 20
-444.5563065038
 30
0.0
 40
2.0
100
AcDbArc
 50
270.0
 51
347.5
  0
ARC
  5
126
330
1F
100
AcDbEntity
  8
1
  6
________________
 62
     7
370
     9
100
AcDbCircle
 10
845.5116467975
 20
-444.5563065037
 30
0.0
 40
2.0
100
AcDbArc
 50
192.5
 51
270.0
  0
LINE
  5
127
330
1F
100
AcDbEntity
  8
1
  6
________________
 62
     7
370
     9
100
AcDbLine
 10
840.7253294686
 20
-432.2070768579
 30
0.0
 11
843.5590547833
 21
-444.9891857316
 31
0.0
  0
ARC
  5
128
330
1F
100
AcDbEntity
  8
1
  6
________________
 62
     7
370
     9
100
AcDbCircle
 10
836.8201454401
 20
-433.0728353136
 30
0.0
 40
4.0
100
AcDbArc
 50
12.5
 51
79.5260876647
  0
ARC
  5
129
330
1F
100
AcDbEntity
  8
1
  6
________________
 62
     7
370
     9
100
AcDbCircle
 10
831.1847231666
 20
-463.5563065038
 30
0.0
 40
35.0
100
AcDbArc
 50
77.8145513186
 51
100.4739123353
  0
ARC
  5
12A
330
1F
100
AcDbEntity
  8
1
  6
________________
 62
     7
370
     9
100
AcDbCircle
 10
825.549300893
 20
-433.0728353136
 30
0.0
 40
4.0
100
AcDbArc
 50
100.4739123353
 51
167.5
  0
LINE
  5
12B
330
1F
100
AcDbEntity
  8
1
  6
________________
 62
     7
370
     9
100
AcDbLine
 10
785.8478915499
 20
-574.1234272759
 30
0.0
 11
788.7961285448
 21
-587.4220649595
 31
0.0
  0
LINE
  5
12C
330
1F
100
AcDbEntity
  8
1
  6
________________
 62
     7
370
     9
100
AcDbLine
 10
783.8952995357
 20
-572.5563065038
 30
0.0
 11
779.5866467975
 21
-572.5563065038
 31
0.0
  0
ARC
  5
12D
330
1F
100
AcDbEntity
  8
1
  6
________________
 62
     7
370
     9
100
AcDbCircle
 10
783.8952995357
 20
-574.5563065038
 30
0.0
 40
2.0
100
AcDbArc
 50
12.5
 51
90.0
  0
ARC
  5
12E
330
1F
100
AcDbEntity
  8
1
  6
________________
 62
     7
370
     9
100
AcDbCircle
 10
812.5491467975
 20
-574.5563065038
 30
0.0
 40
2.0
100
AcDbArc
 50
90.0
 51
167.5
  0
LINE
  5
12F
330
1F
100
AcDbEntity
  8
1
  6
________________
 62
     7
370
     9
100
AcDbLine
 10
807.7628294686
 20
-586.9055361496
 30
0.0
 11
810.5965547833
 21
-574.1234272759
 31
0.0
  0
ARC
  5
130
330
1F
100
AcDbEntity
  8
1
  6
________________
 62
     7
370
     9
100
AcDbCircle
 10
803.8576454401
 20
-586.0397776939
 30
0.0
 40
4.0
100
AcDbArc
 50
280.4739123353
 51
347.5
  0
ARC
  5
131
330
1F
100
AcDbEntity
  8
1
  6
________________
 62
     7
370
     9
100
AcDbCircle
 10
798.2222231666
 20
-555.5563065038
 30
0.0
 40
35.0
100
AcDbArc
 50
259.5260876647
 51
282.1854486814
  0
ARC
  5
132
330
1F
100
AcDbEntity
  8
1
  6
________________
 62
     7
370
     9
100
AcDbCircle
 10
792.586800893
 20
-586.0397776939
 30
0.0
 40
4.0
100
AcDbArc
 50
192.5
 51
259.5260876647
  0
LINE
  5
133
330
1F
100
AcDbEntity
  8
1
  6
________________
 62
     7
370
     9
100
AcDbLine
 10
752.8853915499
 20
-574.1234272759
 30
0.0
 11
755.8336285448
 21
-587.4220649595
 31
0.0
  0
LINE
  5
134
330
1F
100
AcDbEntity
  8
1
  6
________________
 62
     7
370
     9
100
AcDbLine
 10
750.9327995357
 20
-572.5563065038
 30
0.0
 11
746.6241467975
 21
-572.5563065038
 31
0.0
  0
ARC
  5
135
330
1F
100
AcDbEntity
  8
1
  6
________________
 62
     7
370
     9
100
AcDbCircle
 10
750.9327995357
 20
-574.5563065038
 30
0.0
 40
2.0
100
AcDbArc
 50
12.5
 51
90.0
  0
ARC
  5
136
330
1F
100
AcDbEntity
  8
1
  6
________________
 62
     7
370
     9
100
AcDbCircle
 10
779.5866467975
 20
-574.5563065038
 30
0.0
 40
2.0
100
AcDbArc
 50
90.0
 51
167.5
  0
LINE
  5
137
330
1F
100
AcDbEntity
  8
1
  6
________________
 62
     7
370
     9
100
AcDbLine
 10
774.8003294686
 20
-586.9055361496
 30
0.0
 11
777.6340547833
 21
-574.1234272759
 31
0.0
  0
ARC
  5
138
330
1F
100
AcDbEntity
  8
1
  6
________________
 62
     7
370
     9
100
AcDbCircle
 10
770.8951454401
 20
-586.0397776939
 30
0.0
 40
4.0
100
AcDbArc
 50
280.4739123353
 51
347.5
  0
ARC
  5
139
330
1F
100
AcDbEntity
  8
1
  6
________________
 62
     7
370
     9
100
AcDbCircle
 10
765.2597231666
 20
-555.5563065038
 30
0.0
 40
35.0
100
AcDbArc
 50
259.5260876647
 51
282.1854486814
  0
ARC
  5
13A
330
1F
100
AcDbEntity
  8
1
  6
________________
 62
     7
370
     9
100
AcDbCircle
 10
759.624300893
 20
-586.0397776939
 30
0.0
 40
4.0
100
AcDbArc
 50
192.5
 51
259.5260876647
  0
LINE
  5
13B
330
1F
100
AcDbEntity
  8
1
  6
________________
 62
     7
370
     9
100
AcDbLine
 10
773.9909731666
 20
-430.5398823555
 30
0.0
 11
773.9909731666
 21
-588.572730652
 31
0.0
  0
LINE
  5
13C
330
1F
100
AcDbEntity
  8
1
  6
________________
 62
     7
370
     9
100
AcDbLine
 10
756.5284731666
 20
-430.5563065038
 30
0.0
 11
756.5284731666
 21
-588.5563065038
 31
0.0
  0
LINE
  5
13D
330
1F
100
AcDbEntity
  8
1
  6
________________
 62
     7
370
     9
100
AcDbLine
 10
806.9534731666
 20
-430.5398823555
 30
0.0
 11
806.9534731666
 21
-588.572730652
 31
0.0
  0
LINE
  5
13E
330
1F
100
AcDbEntity
  8
1
  6
________________
 62
     7
370
     9
100
AcDbLine
 10
789.4909731666
 20
-430.5563065038
 30
0.0
 11
789.4909731666
 21
-588.5563065038
 31
0.0
  0
LINE
  5
13F
330
1F
100
AcDbEntity
  8
1
  6
________________
 62
     7
370
     9
100
AcDbLine
 10
785.8478915499
 20
-444.9891857316
 30
0.0
 11
788.7961285448
 21
-431.690548048
 31
0.0
  0
LINE
  5
140
330
1F
100
AcDbEntity
  8
1
  6
________________
 62
     7
370
     9
100
AcDbLine
 10
783.8952995357
 20
-446.5563065038
 30
0.0
 11
779.5866467975
 21
-446.5563065038
 31
0.0
  0
ARC
  5
141
330
1F
100
AcDbEntity
  8
1
  6
________________
 62
     7
370
     9
100
AcDbCircle
 10
783.8952995357
 20
-444.5563065038
 30
0.0
 40
2.0
100
AcDbArc
 50
270.0
 51
347.5
  0
ARC
  5
142
330
1F
100
AcDbEntity
  8
1
  6
________________
 62
     7
370
     9
100
AcDbCircle
 10
812.5491467975
 20
-444.5563065037
 30
0.0
 40
2.0
100
AcDbArc
 50
192.5
 51
270.0
  0
LINE
  5
143
330
1F
100
AcDbEntity
  8
1
  6
________________
 62
     7
370
     9
100
AcDbLine
 10
807.7628294686
 20
-432.2070768579
 30
0.0
 11
810.5965547833
 21
-444.9891857316
 31
0.0
  0
ARC
  5
144
330
1F
100
AcDbEntity
  8
1
  6
________________
 62
     7
370
     9
100
AcDbCircle
 10
803.8576454401
 20
-433.0728353136
 30
0.0
 40
4.0
100
AcDbArc
 50
12.5
 51
79.5260876647
  0
ARC
  5
145
330
1F
100
AcDbEntity
  8
1
  6
________________
 62
     7
370
     9
100
AcDbCircle
 10
798.2222231666
 20
-463.5563065038
 30
0.0
 40
35.0
100
AcDbArc
 50
77.8145513186
 51
100.4739123353
  0
ARC
  5
146
330
1F
100
AcDbEntity
  8
1
  6
________________
 62
     7
370
     9
100
AcDbCircle
 10
792.586800893
 20
-433.0728353136
 30
0.0
 40
4.0
100
AcDbArc
 50
100.4739123353
 51
167.5
  0
LINE
  5
147
330
1F
100
AcDbEntity
  8
1
  6
________________
 62
     7
370
     9
100
AcDbLine
 10
752.8853915499
 20
-444.9891857316
 30
0.0
 11
755.8336285448
 21
-431.690548048
 31
0.0
  0
LINE
  5
148
330
1F
100
AcDbEntity
  8
1
  6
________________
 62
     7
370
     9
100
AcDbLine
 10
750.9327995357
 20
-446.5563065038
 30
0.0
 11
746.6241467975
 21
-446.5563065038
 31
0.0
  0
ARC
  5
149
330
1F
100
AcDbEntity
  8
1
  6
________________
 62
     7
370
     9
100
AcDbCircle
 10
750.9327995357
 20
-444.5563065038
 30
0.0
 40
2.0
100
AcDbArc
 50
270.0
 51
347.5
  0
ARC
  5
14A
330
1F
100
AcDbEntity
  8
1
  6
________________
 62
     7
370
     9
100
AcDbCircle
 10
779.5866467975
 20
-444.5563065037
 30
0.0
 40
2.0
100
AcDbArc
 50
192.5
 51
270.0
  0
LINE
  5
14B
330
1F
100
AcDbEntity
  8
1
  6
________________
 62
     7
370
     9
100
AcDbLine
 10
774.8003294686
 20
-432.2070768579
 30
0.0
 11
777.6340547833
 21
-444.9891857316
 31
0.0
  0
ARC
  5
14C
330
1F
100
AcDbEntity
  8
1
  6
________________
 62
     7
370
     9
100
AcDbCircle
 10
770.8951454401
 20
-433.0728353136
 30
0.0
 40
4.0
100
AcDbArc
 50
12.5
 51
79.5260876647
  0
ARC
  5
14D
330
1F
100
AcDbEntity
  8
1
  6
________________
 62
     7
370
     9
100
AcDbCircle
 10
765.2597231666
 20
-463.5563065038
 30
0.0
 40
35.0
100
AcDbArc
 50
77.8145513186
 51
100.4739123353
  0
ARC
  5
14E
330
1F
100
AcDbEntity
  8
1
  6
________________
 62
     7
370
     9
100
AcDbCircle
 10
759.624300893
 20
-433.0728353136
 30
0.0
 40
4.0
100
AcDbArc
 50
100.4739123353
 51
167.5
  0
LINE
  5
14F
330
1F
100
AcDbEntity
  8
1
  6
________________
 62
     7
370
     9
100
AcDbLine
 10
719.9228915499
 20
-574.1234272759
 30
0.0
 11
722.8711285448
 21
-587.4220649595
 31
0.0
  0
LINE
  5
150
330
1F
100
AcDbEntity
  8
1
  6
________________
 62
     7
370
     9
100
AcDbLine
 10
717.9702995357
 20
-572.5563065038
 30
0.0
 11
715.8159731666
 21
-572.5563065038
 31
0.0
  0
ARC
  5
151
330
1F
100
AcDbEntity
  8
1
  6
________________
 62
     7
370
     9
100
AcDbCircle
 10
717.9702995357
 20
-574.5563065038
 30
0.0
 40
2.0
100
AcDbArc
 50
12.5
 51
90.0
  0
ARC
  5
152
330
1F
100
AcDbEntity
  8
1
  6
________________
 62
     7
370
     9
100
AcDbCircle
 10
746.6241467975
 20
-574.5563065038
 30
0.0
 40
2.0
100
AcDbArc
 50
90.0
 51
167.5
  0
LINE
  5
153
330
1F
100
AcDbEntity
  8
1
  6
________________
 62
     7
370
     9
100
AcDbLine
 10
741.8378294686
 20
-586.9055361496
 30
0.0
 11
744.6715547833
 21
-574.1234272759
 31
0.0
  0
ARC
  5
154
330
1F
100
AcDbEntity
  8
1
  6
________________
 62
     7
370
     9
100
AcDbCircle
 10
737.9326454401
 20
-586.0397776939
 30
0.0
 40
4.0
100
AcDbArc
 50
280.4739123353
 51
347.5
  0
ARC
  5
155
330
1F
100
AcDbEntity
  8
1
  6
________________
 62
     7
370
     9
100
AcDbCircle
 10
732.2972231666
 20
-555.5563065038
 30
0.0
 40
35.0
100
AcDbArc
 50
259.5260876647
 51
282.1854486814
  0
ARC
  5
156
330
1F
100
AcDbEntity
  8
1
  6
________________
 62
     7
370
     9
100
AcDbCircle
 10
726.661800893
 20
-586.0397776939
 30
0.0
 40
4.0
100
AcDbArc
 50
192.5
 51
259.5260876647
  0
LINE
  5
157
330
1F
100
AcDbEntity
  8
1
  6
________________
 62
     7
370
     9
100
AcDbLine
 10
741.0284731666
 20
-430.5398823555
 30
0.0
 11
741.0284731666
 21
-588.572730652
 31
0.0
  0
LINE
  5
158
330
1F
100
AcDbEntity
  8
1
  6
________________
 62
     7
370
     9
100
AcDbLine
 10
723.5659731666
 20
-430.5563065038
 30
0.0
 11
723.5659731666
 21
-588.5563065038
 31
0.0
  0
LINE
  5
159
330
1F
100
AcDbEntity
  8
1
  6
________________
 62
     7
370
     9
100
AcDbLine
 10
719.9228915499
 20
-444.9891857316
 30
0.0
 11
722.8711285448
 21
-431.690548048
 31
0.0
  0
LINE
  5
15A
330
1F
100
AcDbEntity
  8
1
  6
________________
 62
     7
370
     9
100
AcDbLine
 10
717.9702995357
 20
-446.5563065038
 30
0.0
 11
715.8159731666
 21
-446.5563065038
 31
0.0
  0
ARC
  5
15B
330
1F
100
AcDbEntity
  8
1
  6
________________
 62
     7
370
     9
100
AcDbCircle
 10
717.9702995357
 20
-444.5563065038
 30
0.0
 40
2.0
100
AcDbArc
 50
270.0
 51
347.5
  0
ARC
  5
15C
330
1F
100
AcDbEntity
  8
1
  6
________________
 62
     7
370
     9
100
AcDbCircle
 10
746.6241467975
 20
-444.5563065037
 30
0.0
 40
2.0
100
AcDbArc
 50
192.5
 51
270.0
  0
LINE
  5
15D
330
1F
100
AcDbEntity
  8
1
  6
________________
 62
     7
370
     9
100
AcDbLine
 10
741.8378294686
 20
-432.2070768579
 30
0.0
 11
744.6715547833
 21
-444.9891857316
 31
0.0
  0
ARC
  5
15E
330
1F
100
AcDbEntity
  8
1
  6
________________
 62
     7
370
     9
100
AcDbCircle
 10
737.9326454401
 20
-433.0728353136
 30
0.0
 40
4.0
100
AcDbArc
 50
12.5
 51
79.5260876647
  0
ARC
  5
15F
330
1F
100
AcDbEntity
  8
1
  6
________________
 62
     7
370
     9
100
AcDbCircle
 10
732.2972231666
 20
-463.5563065038
 30
0.0
 40
35.0
100
AcDbArc
 50
77.8145513186
 51
100.4739123353
  0
ARC
  5
160
330
1F
100
AcDbEntity
  8
1
  6
________________
 62
     7
370
     9
100
AcDbCircle
 10
726.661800893
 20
-433.0728353136
 30
0.0
 40
4.0
100
AcDbArc
 50
100.4739123353
 51
167.5
  0
LINE
  5
161
330
1F
100
AcDbEntity
  8
1
  6
________________
 62
     7
370
     9
100
AcDbLine
 10
1243.2159731666
 20
-446.5563065038
 30
0.0
 11
1243.2159731666
 21
-572.5563065038
 31
0.0
  0
LINE
  5
162
330
1F
100
AcDbEntity
  8
1
  6
________________
 62
     7
370
     9
100
AcDbLine
 10
1246.2159731666
 20
-419.5563065038
 30
0.0
 11
1246.2159731666
 21
-599.5563065038
 31
0.0
  0
LINE
  5
163
330
1F
100
AcDbEntity
  8
1
  6
________________
 62
     7
370
     9
100
AcDbLine
 10
1246.2159731666
 20
-419.5563065038
 30
0.0
 11
1249.2159731666
 21
-419.5563065038
 31
0.0
  0
LINE
  5
164
330
1F
100
AcDbEntity
  8
1
  6
________________
 62
     7
370
     9
100
AcDbLine
 10
1252.2159731666
 20
-422.5563065038
 30
0.0
 11
1252.2159731666
 21
-445.9532815645
 31
0.0
  0
LINE
  5
165
330
1F
100
AcDbEntity
  8
1
  6
________________
 62
     7
370
     9
100
AcDbLine
 10
1252.2159731666
 20
-450.1959222515
 30
0.0
 11
1252.2159731666
 21
-505.5563065357999
 31
0.0
  0
LINE
  5
166
330
1F
100
AcDbEntity
  8
1
  6
________________
 62
     7
370
     9
100
AcDbLine
 10
1252.2159731666
 20
-513.5563065038
 30
0.0
 11
1252.2159731666
 21
-568.916690756
 31
0.0
  0
LINE
  5
167
330
1F
100
AcDbEntity
  8
1
  6
________________
 62
     7
370
     9
100
AcDbLine
 10
1249.2159731666
 20
-599.5563065038
 30
0.0
 11
1246.2159731666
 21
-599.5563065038
 31
0.0
  0
ARC
  5
168
330
1F
100
AcDbEntity
  8
1
  6
________________
 62
     7
370
     9
100
AcDbCircle
 10
1249.2159731666
 20
-422.5563065038
 30
0.0
 40
3.0
100
AcDbArc
 50
0.0
 51
90.0
  0
ARC
  5
169
330
1F
100
AcDbEntity
  8
1
  6
________________
 62
     7
370
     9
100
AcDbCircle
 10
1249.2159731666
 20
-596.5563065038
 30
0.0
 40
3.0
100
AcDbArc
 50
270.0
 51
0.0
  0
ARC
  5
16A
330
1F
100
AcDbEntity
  8
1
  6
________________
 62
     7
370
     9
100
AcDbCircle
 10
1243.2159731666
 20
-446.0563065038
 30
0.0
 40
3.0
100
AcDbArc
 50
270.0
 51
0.0
  0
ARC
  5
16B
330
1F
100
AcDbEntity
  8
1
  6
________________
 62
     7
370
     9
100
AcDbCircle
 10
1243.2159731666
 20
-573.0563065038
 30
0.0
 40
3.0
100
AcDbArc
 50
0.0
 51
90.0
  0
CIRCLE
  5
16C
330
1F
100
AcDbEntity
  8
1
  6
________________
 62
     7
370
     9
100
AcDbCircle
 10
1391.0337986185
 20
-509.5563065038
 30
0.0
 40
54.793
  0
LINE
  5
16D
330
1F
100
AcDbEntity
  8
1
  6
________...._...
 62
     7
370
     9
100
AcDbLine
 10
1299.0337986185
 20
-509.5563065038
 30
0.0
 11
1483.0337986185
 21
-509.5563065038
 31
0.0
  0
LINE
  5
16E
330
1F
100
AcDbEntity
  8
1
  6
________...._...
 62
     7
370
     9
100
AcDbLine
 10
1391.0337986185
 20
-417.5563065038
 30
0.0
 11
1391.0337986185
 21
-601.5563065038
 31
0.0
  0
CIRCLE
  5
16F
330
1F
100
AcDbEntity
  8
1
  6
________________
 62
     7
370
     9
100
AcDbCircle
 10
1391.0337986185
 20
-509.5563065038
 30
0.0
 40
90.0
  0
LINE
  5
170
330
1F
100
AcDbEntity
  8
1
  6
________________
 62
     7
370
     9
100
AcDbLine
 10
1325.3082331336
 20
-448.0733817059
 30
0.0
 11
1332.34393578
 21
-455.1090843524
 31
0.0
  0
LINE
  5
171
330
1F
100
AcDbEntity
  8
1
  6
________________
 62
     7
370
     9
100
AcDbLine
 10
1332.34393578
 20
-455.1090843524
 30
0.0
 11
1336.5865764671
 21
-450.8664436653
 31
0.0
  0
LINE
  5
172
330
1F
100
AcDbEntity
  8
1
  6
________________
 62
     7
370
     9
100
AcDbLine
 10
1336.5865764671
 20
-450.8664436653
 30
0.0
 11
1329.5508738206
 21
-443.8307410189
 31
0.0
  0
LINE
  5
173
330
1F
100
AcDbEntity
  8
1
  6
________________
 62
     7
370
     9
100
AcDbLine
 10
1329.5508738206
 20
-575.2818719886
 30
0.0
 11
1336.5865764671
 21
-568.2461693422
 31
0.0
  0
LINE
  5
174
330
1F
100
AcDbEntity
  8
1
  6
________________
 62
     7
370
     9
100
AcDbLine
 10
1336.5865764671
 20
-568.2461693422
 30
0.0
 11
1332.34393578
 21
-564.0035286551
 31
0.0
  0
LINE
  5
175
330
1F
100
AcDbEntity
  8
1
  6
________________
 62
     7
370
     9
100
AcDbLine
 10
1332.34393578
 20
-564.0035286551
 30
0.0
 11
1325.3082331336
 21
-571.0392313016
 31
0.0
  0
LINE
  5
176
330
1F
100
AcDbEntity
  8
1
  6
________________
 62
     7
370
     9
100
AcDbLine
 10
1456.7593641033
 20
-571.0392313016
 30
0.0
 11
1449.7236614569
 21
-564.0035286551
 31
0.0
  0
LINE
  5
177
330
1F
100
AcDbEntity
  8
1
  6
________________
 62
     7
370
     9
100
AcDbLine
 10
1449.7236614569
 20
-564.0035286551
 30
0.0
 11
1445.4810207698
 21
-568.2461693422
 31
0.0
  0
LINE
  5
178
330
1F
100
AcDbEntity
  8
1
  6
________________
 62
     7
370
     9
100
AcDbLine
 10
1445.4810207698
 20
-568.2461693422
 30
0.0
 11
1452.5167234163
 21
-575.2818719886
 31
0.0
  0
LINE
  5
179
330
1F
100
AcDbEntity
  8
1
  6
________________
 62
     7
370
     9
100
AcDbLine
 10
1452.5167234163
 20
-443.8307410189
 30
0.0
 11
1445.4810207698
 21
-450.8664436653
 31
0.0
  0
LINE
  5
17A
330
1F
100
AcDbEntity
  8
1
  6
________________
 62
     7
370
     9
100
AcDbLine
 10
1445.4810207698
 20
-450.8664436653
 30
0.0
 11
1449.7236614569
 21
-455.1090843524
 31
0.0
  0
LINE
  5
17B
330
1F
100
AcDbEntity
  8
1
  6
________________
 62
     7
370
     9
100
AcDbLine
 10
1449.7236614569
 20
-455.1090843524
 30
0.0
 11
1456.7593641033
 21
-448.0733817059
 31
0.0
  0
ARC
  5
17C
330
1F
100
AcDbEntity
  8
1
  6
________________
 62
     7
370
     9
100
AcDbCircle
 10
1250.5758319064
 20
-445.9730764109
 30
0.0
 40
1.6402607077
100
AcDbArc
 50
0.6914685469
 51
36.2119725909
  0
ARC
  5
17D
330
1F
100
AcDbEntity
  8
1
  6
________________
 62
     7
370
     9
100
AcDbCircle
 10
1250.0054118839
 20
-446.3712930835
 30
0.0
 40
2.3358055076
100
AcDbArc
 50
35.8270164778
 51
55.2356674345
  0
ARC
  5
17E
330
1F
100
AcDbEntity
  8
1
  6
________________
 62
     7
370
     9
100
AcDbCircle
 10
1249.5082974061
 20
-447.0757902137
 30
0.0
 40
3.1980157252
100
AcDbArc
 50
55.1160630033
 51
70.84560372300001
  0
ARC
  5
17F
330
1F
100
AcDbEntity
  8
1
  6
________________
 62
     7
370
     9
100
AcDbCircle
 10
1249.2293042805
 20
-447.8793421308
 30
0.0
 40
4.04862306
100
AcDbArc
 50
70.84715875060002
 51
90.1886611656
  0
ARC
  5
180
330
1F
100
AcDbEntity
  8
1
  6
________________
 62
     7
370
     9
100
AcDbCircle
 10
1250.5758319054
 20
-450.2157170983
 30
0.0
 40
1.6402607087
100
AcDbArc
 50
0.6914685581000001
 51
36.2119725798
  0
ARC
  5
181
330
1F
100
AcDbEntity
  8
1
  6
________________
 62
     7
370
     9
100
AcDbCircle
 10
1250.0054118839
 20
-450.6139337705
 30
0.0
 40
2.3358055076
100
AcDbArc
 50
35.8270164778
 51
55.2356674345
  0
ARC
  5
182
330
1F
100
AcDbEntity
  8
1
  6
________________
 62
     7
370
     9
100
AcDbCircle
 10
1249.5082974058
 20
-451.3184309007
 30
0.0
 40
3.1980157254
100
AcDbArc
 50
55.1160629974
 51
70.8456037172
  0
ARC
  5
183
330
1F
100
AcDbEntity
  8
1
  6
________________
 62
     7
370
     9
100
AcDbCircle
 10
1249.2293042808
 20
-452.1219828178
 30
0.0
 40
4.04862306
100
AcDbArc
 50
70.8471587548
 51
90.1886611697
  0
LINE
  5
184
330
1F
100
AcDbEntity
  8
1
  6
________________
 62
     7
370
     9
100
AcDbLine
 10
1248.2159731666
 20
-443.8307410189
 30
0.0
 11
1249.2159731666
 21
-443.8307410189
 31
0.0
  0
LINE
  5
185
330
1F
100
AcDbEntity
  8
1
  6
________________
 62
     7
370
     9
100
AcDbLine
 10
1248.2159731666
 20
-448.0733817059
 30
0.0
 11
1249.2159731666
 21
-448.0733817059
 31
0.0
  0
ARC
  5
186
330
1F
100
AcDbEntity
  8
1
  6
________________
 62
     7
370
     9
100
AcDbCircle
 10
1248.6692711309
 20
-444.5448439351
 30
0.0
 40
0.5467418556
100
AcDbArc
 50
0.6915113148
 51
36.21237467820001
  0
ARC
  5
187
330
1F
100
AcDbEntity
  8
1
  6
________________
 62
     7
370
     9
100
AcDbCircle
 10
1248.4791261925
 20
-444.6775880065
 30
0.0
 40
0.778597127
100
AcDbArc
 50
35.82738973440001
 51
55.2360348664
  0
ARC
  5
188
330
1F
100
AcDbEntity
  8
1
  6
________________
 62
     7
370
     9
100
AcDbCircle
 10
1248.3134170884
 20
-444.9124295045
 30
0.0
 40
1.0660104515
100
AcDbArc
 50
55.11642259760001
 51
70.8458437218
  0
ARC
  5
189
330
1F
100
AcDbEntity
  8
1
  6
________________
 62
     7
370
     9
100
AcDbCircle
 10
1248.2204169844
 20
-445.1802905292
 30
0.0
 40
1.3495568266
100
AcDbArc
 50
70.8473969105
 51
90.1886637609
  0
LINE
  5
18A
330
1F
100
AcDbEntity
  8
1
  6
________________
 62
     7
370
     9
100
AcDbLine
 10
1249.2159731666
 20
-444.5382453862
 30
0.0
 11
1249.2159731666
 21
-448.0733817059
 31
0.0
  0
LINE
  5
18B
330
1F
100
AcDbEntity
  8
1
  6
________________
 62
     7
370
     9
100
AcDbLine
 10
1251.8215414948
 20
-449.143886604
 30
0.0
 11
1252.2159731666
 21
-445.9532815645
 31
0.0
  0
LINE
  5
18C
330
1F
100
AcDbEntity
  8
1
  6
________________
 62
     7
370
     9
100
AcDbLine
 10
1252.2159731666
 20
-596.5563065038
 30
0.0
 11
1252.2159731666
 21
-573.159331443
 31
0.0
  0
ARC
  5
18D
330
1F
100
AcDbEntity
  8
1
  6
________________
 62
     7
370
     9
100
AcDbCircle
 10
1249.2293042805
 20
-571.2332708767
 30
0.0
 40
4.04862306
100
AcDbArc
 50
269.8113388344
 51
289.1528412494
  0
ARC
  5
18E
330
1F
100
AcDbEntity
  8
1
  6
________________
 62
     7
370
     9
100
AcDbCircle
 10
1249.5082974061
 20
-572.0368227938
 30
0.0
 40
3.1980157252
100
AcDbArc
 50
289.1543962769999
 51
304.8839369967999
  0
ARC
  5
18F
330
1F
100
AcDbEntity
  8
1
  6
________________
 62
     7
370
     9
100
AcDbCircle
 10
1250.0054118839
 20
-572.741319924
 30
0.0
 40
2.3358055076
100
AcDbArc
 50
304.7643325655
 51
324.1729835222
  0
ARC
  5
190
330
1F
100
AcDbEntity
  8
1
  6
________________
 62
     7
370
     9
100
AcDbCircle
 10
1250.5758319064
 20
-573.1395365966
 30
0.0
 40
1.6402607077
100
AcDbArc
 50
323.7880274091
 51
359.3085314530999
  0
ARC
  5
191
330
1F
100
AcDbEntity
  8
1
  6
________________
 62
     7
370
     9
100
AcDbCircle
 10
1249.2293042808
 20
-566.9906301897
 30
0.0
 40
4.04862306
100
AcDbArc
 50
269.8113388303
 51
289.1528412452
  0
ARC
  5
192
330
1F
100
AcDbEntity
  8
1
  6
________________
 62
     7
370
     9
100
AcDbCircle
 10
1249.5082974058
 20
-567.7941821068
 30
0.0
 40
3.1980157254
100
AcDbArc
 50
289.1543962828001
 51
304.8839370026
  0
ARC
  5
193
330
1F
100
AcDbEntity
  8
1
  6
________________
 62
     7
370
     9
100
AcDbCircle
 10
1250.0054118842
 20
-568.4986792371
 30
0.0
 40
2.3358055074
100
AcDbArc
 50
304.7643325603
 51
324.172983517
  0
ARC
  5
194
330
1F
100
AcDbEntity
  8
1
  6
________________
 62
     7
370
     9
100
AcDbCircle
 10
1250.5758319053
 20
-568.8968959093
 30
0.0
 40
1.6402607089
100
AcDbArc
 50
323.7880274221
 51
359.3085314437
  0
LINE
  5
195
330
1F
100
AcDbEntity
  8
1
  6
________________
 62
     7
370
     9
100
AcDbLine
 10
1248.2159731666
 20
-575.2818719886
 30
0.0
 11
1249.2159731666
 21
-575.2818719886
 31
0.0
  0
LINE
  5
196
330
1F
100
AcDbEntity
  8
1
  6
________________
 62
     7
370
     9
100
AcDbLine
 10
1248.2159731666
 20
-571.0392313016
 30
0.0
 11
1249.2159731666
 21
-571.0392313016
 31
0.0
  0
ARC
  5
197
330
1F
100
AcDbEntity
  8
1
  6
________________
 62
     7
370
     9
100
AcDbCircle
 10
1248.2204169844
 20
-573.9323224783
 30
0.0
 40
1.3495568266
100
AcDbArc
 50
269.8113362391
 51
289.1526030895
  0
ARC
  5
198
330
1F
100
AcDbEntity
  8
1
  6
________________
 62
     7
370
     9
100
AcDbCircle
 10
1248.3134170884
 20
-574.200183503
 30
0.0
 40
1.0660104515
100
AcDbArc
 50
289.1541562782
 51
304.8835774024
  0
ARC
  5
199
330
1F
100
AcDbEntity
  8
1
  6
________________
 62
     7
370
     9
100
AcDbCircle
 10
1248.4791261925
 20
-574.435025001
 30
0.0
 40
0.778597127
100
AcDbArc
 50
304.7639651337
 51
324.1726102655999
  0
ARC
  5
19A
330
1F
100
AcDbEntity
  8
1
  6
________________
 62
     7
370
     9
100
AcDbCircle
 10
1248.6692711309
 20
-574.5677690724
 30
0.0
 40
0.5467418556
100
AcDbArc
 50
323.7876253216
 51
359.3084886853001
  0
LINE
  5
19B
330
1F
100
AcDbEntity
  8
1
  6
________________
 62
     7
370
     9
100
AcDbLine
 10
1249.2159731666
 20
-574.5743676213
 30
0.0
 11
1249.2159731666
 21
-571.0392313016
 31
0.0
  0
LINE
  5
19C
330
1F
100
AcDbEntity
  8
1
  6
________________
 62
     7
370
     9
100
AcDbLine
 10
1251.8215414948
 20
-569.9687264035
 30
0.0
 11
1252.2159731666
 21
-573.159331443
 31
0.0
  0
LINE
  5
19D
330
1F
100
AcDbEntity
  8
1
  6
________________
 62
     7
370
     9
100
AcDbLine
 10
1301.0838125151
 20
-512.5563065036
 30
0.0
 11
1311.0337986185
 21
-512.5563065038
 31
0.0
  0
LINE
  5
19E
330
1F
100
AcDbEntity
  8
1
  6
________________
 62
     7
370
     9
100
AcDbLine
 10
1311.0337986185
 20
-512.5563065038
 30
0.0
 11
1311.0337986185
 21
-506.5563065038
 31
0.0
  0
LINE
  5
19F
330
1F
100
AcDbEntity
  8
1
  6
________________
 62
     7
370
     9
100
AcDbLine
 10
1311.0337986185
 20
-506.5563065038
 30
0.0
 11
1301.0838125151
 21
-506.5563065038999
 31
0.0
  0
LINE
  5
1A0
330
1F
100
AcDbEntity
  8
1
  6
________________
 62
     7
370
     9
100
AcDbLine
 10
1394.0337986183
 20
-599.5062926072
 30
0.0
 11
1394.0337986185
 21
-589.5563065038
 31
0.0
  0
LINE
  5
1A1
330
1F
100
AcDbEntity
  8
1
  6
________________
 62
     7
370
     9
100
AcDbLine
 10
1394.0337986185
 20
-589.5563065038
 30
0.0
 11
1388.0337986185
 21
-589.5563065038
 31
0.0
  0
LINE
  5
1A2
330
1F
100
AcDbEntity
  8
1
  6
________________
 62
     7
370
     9
100
AcDbLine
 10
1388.0337986185
 20
-589.5563065038
 30
0.0
 11
1388.0337986186
 21
-599.5062926072
 31
0.0
  0
LINE
  5
1A3
330
1F
100
AcDbEntity
  8
1
  6
________________
 62
     7
370
     9
100
AcDbLine
 10
1480.9837847218
 20
-506.5563065038999
 30
0.0
 11
1471.0337986185
 21
-506.5563065038
 31
0.0
  0
LINE
  5
1A4
330
1F
100
AcDbEntity
  8
1
  6
________________
 62
     7
370
     9
100
AcDbLine
 10
1471.0337986185
 20
-506.5563065038
 30
0.0
 11
1471.0337986185
 21
-512.5563065038
 31
0.0
  0
LINE
  5
1A5
330
1F
100
AcDbEntity
  8
1
  6
________________
 62
     7
370
     9
100
AcDbLine
 10
1471.0337986185
 20
-512.5563065038
 30
0.0
 11
1480.9837847218
 21
-512.5563065036
 31
0.0
  0
LINE
  5
1A6
330
1F
100
AcDbEntity
  8
1
  6
________________
 62
     7
370
     9
100
AcDbLine
 10
1388.0337986186
 20
-419.6063204004
 30
0.0
 11
1388.0337986185
 21
-429.5563065038
 31
0.0
  0
LINE
  5
1A7
330
1F
100
AcDbEntity
  8
1
  6
________________
 62
     7
370
     9
100
AcDbLine
 10
1388.0337986185
 20
-429.5563065038
 30
0.0
 11
1394.0337986185
 21
-429.5563065038
 31
0.0
  0
LINE
  5
1A8
330
1F
100
AcDbEntity
  8
1
  6
________________
 62
     7
370
     9
100
AcDbLine
 10
1394.0337986185
 20
-429.5563065038
 30
0.0
 11
1394.0337986183
 21
-419.6063204004
 31
0.0
  0
LINE
  5
1A9
330
1F
100
AcDbEntity
  8
1
  6
________________
 62
     7
370
     9
100
AcDbLine
 10
1248.2159731666
 20
-506.5563065357999
 30
0.0
 11
1251.2159731666
 21
-506.5563065357999
 31
0.0
  0
LINE
  5
1AA
330
1F
100
AcDbEntity
  8
1
  6
________________
 62
     7
370
     9
100
AcDbLine
 10
1248.2159731666
 20
-512.5563065038
 30
0.0
 11
1251.2159731666
 21
-512.5563065038
 31
0.0
  0
ARC
  5
1AB
330
1F
100
AcDbEntity
  8
1
  6
________________
 62
     7
370
     9
100
AcDbCircle
 10
1251.2159731666
 20
-505.5563065357999
 30
0.0
 40
1.0
100
AcDbArc
 50
270.0
 51
0.0
  0
ARC
  5
1AC
330
1F
100
AcDbEntity
  8
1
  6
________________
 62
     7
370
     9
100
AcDbCircle
 10
1251.2159731666
 20
-513.5563065038
 30
0.0
 40
1.0
100
AcDbArc
 50
0.0
 51
90.0
  0
LINE
  5
1AD
330
1F
100
AcDbEntity
  8
1
  6
________________
 62
     7
370
     9
100
AcDbLine
 10
1251.6035525219
 20
-506.4781428789
 30
0.0
 11
1251.6035525219
 21
-512.6344701607
 31
0.0
  0
LINE
  5
1AE
330
1F
100
AcDbEntity
  8
1
  6
________________
 62
     7
370
     9
100
AcDbLine
 10
1249.2159731666
 20
-506.5563065357999
 30
0.0
 11
1249.2159731666
 21
-512.5563065038
 31
0.0
  0
MTEXT
  5
1AF
330
1F
100
AcDbEntity
  8
1
 62
     7
100
AcDbMText
 10
1369.540725988429
 20
-615.2532647272727
 30
0.0
 40
5.0
 41
0.0
 46
0.0
 71
     1
 72
     1
  1
{\FＭＳ ゴシック;\W0.867543;Ｎ－ＦＥＰ－１２５５０Ｃ}
 73
     1
 44
1.0
  0
LINE
  5
1B0
330
1F
100
AcDbEntity
  8
1
  6
________________
 62
     7
370
     9
100
AcDbLine
 10
715.8159731666
 20
-446.5563065038
 30
0.0
 11
715.8159731666
 21
-572.5563065038
 31
0.0
  0
ENDSEC
  0
SECTION
  2
OBJECTS
  0
DICTIONARY
  5
C
330
0
100
AcDbDictionary
281
     1
  3
ACAD_GROUP
350
D
  3
ACAD_LAYOUT
350
1A
  3
ACAD_MLEADERSTYLE
350
1B2
  3
ACAD_MLINESTYLE
350
17
  3
ACAD_PLOTSETTINGS
350
19
  3
ACAD_PLOTSTYLENAME
350
E
  3
ACAD_TABLESTYLE
350
1B1
  3
ACAD_VISUALSTYLE
350
2A
  0
DICTIONARY
  5
D
102
{ACAD_REACTORS
330
C
102
}
330
C
100
AcDbDictionary
281
     1
  0
DICTIONARY
  5
1A
102
{ACAD_REACTORS
330
C
102
}
330
C
100
AcDbDictionary
281
     1
  3
Layout1
350
1E
  3
Layout2
350
26
  3
Model
350
22
  0
DICTIONARY
  5
1B2
102
{ACAD_REACTORS
330
C
102
}
330
C
100
AcDbDictionary
281
     1
  0
DICTIONARY
  5
17
102
{ACAD_REACTORS
330
C
102
}
330
C
100
AcDbDictionary
281
     1
  3
Standard
350
18
  0
DICTIONARY
  5
19
102
{ACAD_REACTORS
330
C
102
}
330
C
100
AcDbDictionary
281
     1
  0
ACDBDICTIONARYWDFLT
  5
E
102
{ACAD_REACTORS
330
C
102
}
330
C
100
AcDbDictionary
281
     1
  3
Normal
350
F
100
AcDbDictionaryWithDefault
340
F
  0
DICTIONARY
  5
1B1
102
{ACAD_REACTORS
330
C
102
}
330
C
100
AcDbDictionary
281
     1
  0
DICTIONARY
  5
2A
102
{ACAD_REACTORS
330
C
102
}
330
C
100
AcDbDictionary
281
     1
  3
2dWireframe
350
2F
  3
3D Hidden
350
31
  3
3dWireframe
350
30
  3
Basic
350
32
  3
Brighten
350
36
  3
ColorChange
350
3A
  3
Conceptual
350
34
  3
Dim
350
35
  3
Facepattern
350
39
  3
Flat
350
2B
  3
FlatWithEdges
350
2C
  3
Gouraud
350
2D
  3
GouraudWithEdges
350
2E
  3
Linepattern
350
38
  3
Realistic
350
33
  3
Thicken
350
37
  0
LAYOUT
  5
1E
102
{ACAD_REACTORS
330
1A
102
}
330
1A
100
AcDbPlotSettings
  1

  2
none_device
  4

  6

 40
0.0
 41
0.0
 42
0.0
 43
0.0
 44
0.0
 45
0.0
 46
0.0
 47
0.0
 48
0.0
 49
0.0
140
0.0
141
0.0
142
1.0
143
1.0
 70
   688
 72
     0
 73
     0
 74
     5
  7

 75
    16
 76
     0
 77
     2
 78
   300
147
1.0
148
0.0
149
0.0
100
AcDbLayout
  1
Layout1
 70
     1
 71
     1
 10
0.0
 20
0.0
 11
12.0
 21
9.0
 12
0.0
 22
0.0
 32
0.0
 14
1.000000000000000E+20
 24
1.000000000000000E+20
 34
1.000000000000000E+20
 15
-1.000000000000000E+20
 25
-1.000000000000000E+20
 35
-1.000000000000000E+20
146
0.0
 13
0.0
 23
0.0
 33
0.0
 16
1.0
 26
0.0
 36
0.0
 17
0.0
 27
1.0
 37
0.0
 76
     0
330
1B
  0
LAYOUT
  5
26
102
{ACAD_REACTORS
330
1A
102
}
330
1A
100
AcDbPlotSettings
  1

  2
none_device
  4

  6

 40
0.0
 41
0.0
 42
0.0
 43
0.0
 44
0.0
 45
0.0
 46
0.0
 47
0.0
 48
0.0
 49
0.0
140
0.0
141
0.0
142
1.0
143
1.0
 70
   688
 72
     0
 73
     0
 74
     5
  7

 75
    16
 76
     0
 77
     2
 78
   300
147
1.0
148
0.0
149
0.0
100
AcDbLayout
  1
Layout2
 70
     1
 71
     2
 10
0.0
 20
0.0
 11
0.0
 21
0.0
 12
0.0
 22
0.0
 32
0.0
 14
0.0
 24
0.0
 34
0.0
 15
0.0
 25
0.0
 35
0.0
146
0.0
 13
0.0
 23
0.0
 33
0.0
 16
1.0
 26
0.0
 36
0.0
 17
0.0
 27
1.0
 37
0.0
 76
     0
330
23
  0
LAYOUT
  5
22
102
{ACAD_REACTORS
330
1A
102
}
330
1A
100
AcDbPlotSettings
  1

  2
none_device
  4

  6

 40
0.0
 41
0.0
 42
0.0
 43
0.0
 44
0.0
 45
0.0
 46
0.0
 47
0.0
 48
0.0
 49
0.0
140
0.0
141
0.0
142
1.0
143
1.0
 70
  1712
 72
     0
 73
     0
 74
     0
  7

 75
     0
 76
     0
 77
     2
 78
   300
147
1.0
148
0.0
149
0.0
100
AcDbLayout
  1
Model
 70
     1
 71
     0
 10
0.0
 20
0.0
 11
12.0
 21
9.0
 12
0.0
 22
0.0
 32
0.0
 14
700.6641327562
 24
-619.275992
 34
0.0
 15
1483.0337986185
 25
-417.5563065038
 35
0.0
146
0.0
 13
0.0
 23
0.0
 33
0.0
 16
1.0
 26
0.0
 36
0.0
 17
0.0
 27
1.0
 37
0.0
 76
     0
330
1F
331
29
  0
MLINESTYLE
  5
18
102
{ACAD_REACTORS
330
17
102
}
330
17
100
AcDbMlineStyle
  2
Standard
 70
     0
  3

 62
   256
 51
90.0
 52
90.0
 71
     2
 49
0.5
 62
   256
  6
BYLAYER
 49
-0.5
 62
   256
  6
BYLAYER
  0
ACDBPLACEHOLDER
  5
F
102
{ACAD_REACTORS
330
E
102
}
330
E
  0
VISUALSTYLE
  5
2F
102
{ACAD_REACTORS
330
2A
102
}
330
2A
100
AcDbVisualStyle
  2
2dWireframe
 70
     4
 71
     0
 72
     2
 73
     0
 90
        0
 40
-0.6
 41
-30.0
 62
     5
 63
     7
421
 16777215
 74
     1
 91
        4
 64
     7
 65
   257
 75
     1
175
     1
 42
1.0
 92
        0
 66
   257
 43
1.0
 76
     1
 77
     6
 78
     2
 67
     7
 79
     5
170
     0
171
     0
290
     0
174
     0
 93
        1
 44
0.0
173
     0
291
     0
 45
0.0
  0
VISUALSTYLE
  5
31
102
{ACAD_REACTORS
330
2A
102
}
330
2A
100
AcDbVisualStyle
  2
3D Hidden
 70
     6
 71
     1
 72
     2
 73
     2
 90
        0
 40
-0.6
 41
-30.0
 62
     5
 63
     7
421
 16777215
 74
     2
 91
        2
 64
     7
 65
   257
 75
     2
175
     1
 42
40.0
 92
        0
 66
   257
 43
1.0
 76
     1
 77
     6
 78
     2
 67
     7
 79
     3
170
     0
171
     0
290
     0
174
     0
 93
        1
 44
0.0
173
     0
291
     0
 45
0.0
  0
VISUALSTYLE
  5
30
102
{ACAD_REACTORS
330
2A
102
}
330
2A
100
AcDbVisualStyle
  2
3dWireframe
 70
     5
 71
     0
 72
     2
 73
     0
 90
        0
 40
-0.6
 41
-30.0
 62
     5
 63
     7
421
 16777215
 74
     1
 91
        4
 64
     7
 65
   257
 75
     1
175
     1
 42
1.0
 92
        0
 66
   257
 43
1.0
 76
     1
 77
     6
 78
     2
 67
     7
 79
     5
170
     0
171
     0
290
     0
174
     0
 93
        1
 44
0.0
173
     0
291
     0
 45
0.0
  0
VISUALSTYLE
  5
32
102
{ACAD_REACTORS
330
2A
102
}
330
2A
100
AcDbVisualStyle
  2
Basic
 70
     7
 71
     1
 72
     0
 73
     1
 90
        0
 40
-0.6
 41
-30.0
 62
     5
 63
     7
421
 16777215
 74
     0
 91
        4
 64
     7
 65
   257
 75
     1
175
     1
 42
1.0
 92
        8
 66
     7
 43
1.0
 76
     1
 77
     6
 78
     2
 67
     7
 79
     5
170
     0
171
     0
290
     0
174
     0
 93
        1
 44
0.0
173
     0
291
     1
 45
0.0
  0
VISUALSTYLE
  5
36
102
{ACAD_REACTORS
330
2A
102
}
330
2A
100
AcDbVisualStyle
  2
Brighten
 70
    12
 71
     2
 72
     2
 73
     0
 90
        0
 40
-0.6
 41
-30.0
 62
     5
 63
     7
421
 16777215
 74
     1
 91
        4
 64
     7
 65
   257
 75
     1
175
     1
 42
1.0
 92
        8
 66
     7
 43
1.0
 76
     1
 77
     6
 78
     2
 67
     7
 79
     5
170
     0
171
     0
290
     0
174
     0
 93
        1
 44
50.0
173
     0
291
     1
 45
0.0
  0
VISUALSTYLE
  5
3A
102
{ACAD_REACTORS
330
2A
102
}
330
2A
100
AcDbVisualStyle
  2
ColorChange
 70
    16
 71
     2
 72
     2
 73
     3
 90
        0
 40
-0.6
 41
-30.0
 62
     5
 63
     8
421
  8421504
 74
     1
 91
        4
 64
     7
 65
   257
 75
     1
175
     1
 42
1.0
 92
        8
 66
     8
424
  8421504
 43
1.0
 76
     1
 77
     6
 78
     2
 67
     7
 79
     5
170
     0
171
     0
290
     0
174
     0
 93
        1
 44
0.0
173
     0
291
     1
 45
0.0
  0
VISUALSTYLE
  5
34
102
{ACAD_REACTORS
330
2A
102
}
330
2A
100
AcDbVisualStyle
  2
Conceptual
 70
     9
 71
     3
 72
     2
 73
     0
 90
        0
 40
-0.6
 41
-30.0
 62
     5
 63
     7
421
 16777215
 74
     2
 91
        2
 64
     7
 65
   257
 75
     1
175
     1
 42
40.0
 92
        8
 66
     7
 43
1.0
 76
     1
 77
     6
 78
     2
 67
     7
 79
     3
170
     0
171
     0
290
     0
174
     0
 93
        1
 44
0.0
173
     0
291
     0
 45
0.0
  0
VISUALSTYLE
  5
35
102
{ACAD_REACTORS
330
2A
102
}
330
2A
100
AcDbVisualStyle
  2
Dim
 70
    11
 71
     2
 72
     2
 73
     0
 90
        0
 40
-0.6
 41
-30.0
 62
     5
 63
     7
421
 16777215
 74
     1
 91
        4
 64
     7
 65
   257
 75
     1
175
     1
 42
1.0
 92
        8
 66
     7
 43
1.0
 76
     1
 77
     6
 78
     2
 67
     7
 79
     5
170
     0
171
     0
290
     0
174
     0
 93
        1
 44
-50.0
173
     0
291
     1
 45
0.0
  0
VISUALSTYLE
  5
39
102
{ACAD_REACTORS
330
2A
102
}
330
2A
100
AcDbVisualStyle
  2
Facepattern
 70
    15
 71
     2
 72
     2
 73
     0
 90
        0
 40
-0.6
 41
-30.0
 62
     5
 63
     7
421
 16777215
 74
     1
 91
        4
 64
     7
 65
   257
 75
     1
175
     1
 42
1.0
 92
        8
 66
     7
 43
1.0
 76
     1
 77
     6
 78
     2
 67
     7
 79
     5
170
     0
171
     0
290
     0
174
     0
 93
        1
 44
0.0
173
     0
291
     1
 45
0.0
  0
VISUALSTYLE
  5
2B
102
{ACAD_REACTORS
330
2A
102
}
330
2A
100
AcDbVisualStyle
  2
Flat
 70
     0
 71
     2
 72
     1
 73
     1
 90
        2
 40
-0.6
 41
30.0
 62
     5
 63
     7
421
 16777215
 74
     0
 91
        4
 64
     7
 65
   257
 75
     1
175
     1
 42
1.0
 92
        8
 66
     7
 43
1.0
 76
     1
 77
     6
 78
     2
 67
     7
 79
     5
170
     0
171
     0
290
     0
174
     0
 93
       13
 44
0.0
173
     0
291
     1
 45
0.0
  0
VISUALSTYLE
  5
2C
102
{ACAD_REACTORS
330
2A
102
}
330
2A
100
AcDbVisualStyle
  2
FlatWithEdges
 70
     1
 71
     2
 72
     1
 73
     1
 90
        2
 40
-0.6
 41
30.0
 62
     5
 63
     7
421
 16777215
 74
     1
 91
        4
 64
     7
 65
   257
 75
     1
175
     1
 42
1.0
 92
        0
 66
   257
 43
1.0
 76
     1
 77
     6
 78
     2
 67
     7
 79
     5
170
     0
171
     0
290
     0
174
     0
 93
       13
 44
0.0
173
     0
291
     1
 45
0.0
  0
VISUALSTYLE
  5
2D
102
{ACAD_REACTORS
330
2A
102
}
330
2A
100
AcDbVisualStyle
  2
Gouraud
 70
     2
 71
     2
 72
     2
 73
     1
 90
        2
 40
-0.6
 41
30.0
 62
     5
 63
     7
421
 16777215
 74
     0
 91
        4
 64
     7
 65
   257
 75
     1
175
     1
 42
1.0
 92
        0
 66
     7
 43
1.0
 76
     1
 77
     6
 78
     2
 67
     7
 79
     5
170
     0
171
     0
290
     0
174
     0
 93
       13
 44
0.0
173
     0
291
     1
 45
0.0
  0
VISUALSTYLE
  5
2E
102
{ACAD_REACTORS
330
2A
102
}
330
2A
100
AcDbVisualStyle
  2
GouraudWithEdges
 70
     3
 71
     2
 72
     2
 73
     1
 90
        2
 40
-0.6
 41
30.0
 62
     5
 63
     7
421
 16777215
 74
     1
 91
        4
 64
     7
 65
   257
 75
     1
175
     1
 42
1.0
 92
        0
 66
   257
 43
1.0
 76
     1
 77
     6
 78
     2
 67
     7
 79
     5
170
     0
171
     0
290
     0
174
     0
 93
       13
 44
0.0
173
     0
291
     1
 45
0.0
  0
VISUALSTYLE
  5
38
102
{ACAD_REACTORS
330
2A
102
}
330
2A
100
AcDbVisualStyle
  2
Linepattern
 70
    14
 71
     2
 72
     2
 73
     0
 90
        0
 40
-0.6
 41
-30.0
 62
     5
 63
     7
421
 16777215
 74
     1
 91
        4
 64
     7
 65
   257
 75
     7
175
     7
 42
1.0
 92
        8
 66
     7
 43
1.0
 76
     1
 77
     6
 78
     2
 67
     7
 79
     5
170
     0
171
     0
290
     0
174
     0
 93
        1
 44
0.0
173
     0
291
     1
 45
0.0
  0
VISUALSTYLE
  5
33
102
{ACAD_REACTORS
330
2A
102
}
330
2A
100
AcDbVisualStyle
  2
Realistic
 70
     8
 71
     2
 72
     2
 73
     0
 90
        0
 40
-0.6
 41
-30.0
 62
     5
 63
     7
421
 16777215
 74
     1
 91
        0
 64
     7
 65
   257
 75
     1
175
     1
 42
1.0
 92
        8
 66
     8
424
  7895160
 43
1.0
 76
     1
 77
     6
 78
     2
 67
     7
 79
     5
170
     0
171
     0
290
     0
174
     0
 93
       13
 44
0.0
173
     0
291
     0
 45
0.0
  0
VISUALSTYLE
  5
37
102
{ACAD_REACTORS
330
2A
102
}
330
2A
100
AcDbVisualStyle
  2
Thicken
 70
    13
 71
     2
 72
     2
 73
     0
 90
        0
 40
-0.6
 41
-30.0
 62
     5
 63
     7
421
 16777215
 74
     1
 91
        4
 64
     7
 65
   257
 75
     1
175
     1
 42
1.0
 92
       12
 66
     7
 43
1.0
 76
     1
 77
     6
 78
     2
 67
     7
 79
     5
170
     0
171
     0
290
     0
174
     0
 93
        1
 44
0.0
173
     0
291
     1
 45
0.0
  0
ENDSEC
  0
EOF
