  0
SECTION
  2
HEADER
  9
$ACADVER
  1
AC1021
  9
$ACADMAINTVER
 70
    25
  9
$DWGCODEPAGE
  3
ANSI_932
  9
$INSBASE
 10
0.0
 20
0.0
 30
0.0
  9
$EXTMIN
 10
701.116899782
 20
-901.951168
 30
0.0
  9
$EXTMAX
 10
1506.4216090167
 20
-668.1814688356
 30
0.0
  9
$LIMMIN
 10
0.0
 20
0.0
  9
$LIMMAX
 10
12.0
 20
9.0
  9
$ORTHOMODE
 70
     0
  9
$REGENMODE
 70
     1
  9
$FILLMODE
 70
     1
  9
$QTEXTMODE
 70
     0
  9
$MIRRTEXT
 70
     1
  9
$LTSCALE
 40
1.0
  9
$ATTMODE
 70
     1
  9
$TEXTSIZE
 40
0.2
  9
$TRACEWID
 40
0.05
  9
$TEXTSTYLE
  7
Standard
  9
$CLAYER
  8
0
  9
$CELTYPE
  6
ByLayer
  9
$CECOLOR
 62
   256
  9
$CELTSCALE
 40
1.0
  9
$DISPSILH
 70
     0
  9
$DIMSCALE
 40
1.0
  9
$DIMASZ
 40
3.0
  9
$DIMEXO
 40
0.0625
  9
$DIMDLI
 40
0.38
  9
$DIMRND
 40
0.0
  9
$DIMDLE
 40
0.0
  9
$DIMEXE
 40
0.18
  9
$DIMTP
 40
0.0
  9
$DIMTM
 40
0.0
  9
$DIMTXT
 40
3.5
  9
$DIMCEN
 40
0.09
  9
$DIMTSZ
 40
0.0
  9
$DIMTOL
 70
     0
  9
$DIMLIM
 70
     0
  9
$DIMTIH
 70
     1
  9
$DIMTOH
 70
     1
  9
$DIMSE1
 70
     0
  9
$DIMSE2
 70
     0
  9
$DIMTAD
 70
     1
  9
$DIMZIN
 70
     0
  9
$DIMBLK
  1

  9
$DIMASO
 70
     1
  9
$DIMSHO
 70
     1
  9
$DIMPOST
  1

  9
$DIMAPOST
  1

  9
$DIMALT
 70
     0
  9
$DIMALTD
 70
     2
  9
$DIMALTF
 40
25.4
  9
$DIMLFAC
 40
1.0
  9
$DIMTOFL
 70
     0
  9
$DIMTVP
 40
0.0
  9
$DIMTIX
 70
     0
  9
$DIMSOXD
 70
     0
  9
$DIMSAH
 70
     0
  9
$DIMBLK1
  1

  9
$DIMBLK2
  1

  9
$DIMSTYLE
  2
Standard
  9
$DIMCLRD
 70
     0
  9
$DIMCLRE
 70
     0
  9
$DIMCLRT
 70
     0
  9
$DIMTFAC
 40
1.0
  9
$DIMGAP
 40
0.09
  9
$DIMJUST
 70
     0
  9
$DIMSD1
 70
     0
  9
$DIMSD2
 70
     0
  9
$DIMTOLJ
 70
     1
  9
$DIMTZIN
 70
     0
  9
$DIMALTZ
 70
     0
  9
$DIMALTTZ
 70
     0
  9
$DIMUPT
 70
     0
  9
$DIMDEC
 70
     2
  9
$DIMTDEC
 70
     4
  9
$DIMALTU
 70
     2
  9
$DIMALTTD
 70
     2
  9
$DIMTXSTY
  7
Standard
  9
$DIMAUNIT
 70
     0
  9
$DIMADEC
 70
     2
  9
$DIMALTRND
 40
0.0
  9
$DIMAZIN
 70
     0
  9
$DIMDSEP
 70
    46
  9
$DIMATFIT
 70
     3
  9
$DIMFRAC
 70
     0
  9
$DIMLDRBLK
  1

  9
$DIMLUNIT
 70
     2
  9
$DIMLWD
 70
    -2
  9
$DIMLWE
 70
    -2
  9
$DIMTMOVE
 70
     0
  9
$DIMFXL
 40
1.0
  9
$DIMFXLON
 70
     0
  9
$DIMJOGANG
 40
0.7853981633974483
  9
$DIMTFILL
 70
     0
  9
$DIMTFILLCLR
 70
     0
  9
$DIMARCSYM
 70
     0
  9
$DIMLTYPE
  6

  9
$DIMLTEX1
  6

  9
$DIMLTEX2
  6

  9
$LUNITS
 70
     2
  9
$LUPREC
 70
     4
  9
$SKETCHINC
 40
0.1
  9
$FILLETRAD
 40
0.5
  9
$AUNITS
 70
     0
  9
$AUPREC
 70
     0
  9
$MENU
  1
.
  9
$ELEVATION
 40
0.0
  9
$PELEVATION
 40
0.0
  9
$THICKNESS
 40
0.0
  9
$LIMCHECK
 70
     0
  9
$CHAMFERA
 40
0.5
  9
$CHAMFERB
 40
0.5
  9
$CHAMFERC
 40
1.0
  9
$CHAMFERD
 40
0.0
  9
$SKPOLY
 70
     0
  9
$TDCREATE
 40
2458620.727315336
  9
$TDUCREATE
 40
2458620.352315336
  9
$TDUPDATE
 40
2458620.727315347
  9
$TDUUPDATE
 40
2458620.352315347
  9
$TDINDWG
 40
0.0000000116
  9
$TDUSRTIMER
 40
0.0000000116
  9
$USRTIMER
 70
     1
  9
$ANGBASE
 50
0.0
  9
$ANGDIR
 70
     0
  9
$PDMODE
 70
     0
  9
$PDSIZE
 40
0.0
  9
$PLINEWID
 40
0.0
  9
$SPLFRAME
 70
     0
  9
$SPLINETYPE
 70
     6
  9
$SPLINESEGS
 70
     8
  9
$HANDSEED
  5
16B
  9
$SURFTAB1
 70
     6
  9
$SURFTAB2
 70
     6
  9
$SURFTYPE
 70
     6
  9
$SURFU
 70
     6
  9
$SURFV
 70
     6
  9
$UCSBASE
  2

  9
$UCSNAME
  2

  9
$UCSORG
 10
0.0
 20
0.0
 30
0.0
  9
$UCSXDIR
 10
1.0
 20
0.0
 30
0.0
  9
$UCSYDIR
 10
0.0
 20
1.0
 30
0.0
  9
$UCSORTHOREF
  2

  9
$UCSORTHOVIEW
 70
     0
  9
$UCSORGTOP
 10
0.0
 20
0.0
 30
0.0
  9
$UCSORGBOTTOM
 10
0.0
 20
0.0
 30
0.0
  9
$UCSORGLEFT
 10
0.0
 20
0.0
 30
0.0
  9
$UCSORGRIGHT
 10
0.0
 20
0.0
 30
0.0
  9
$UCSORGFRONT
 10
0.0
 20
0.0
 30
0.0
  9
$UCSORGBACK
 10
0.0
 20
0.0
 30
0.0
  9
$PUCSBASE
  2

  9
$PUCSNAME
  2

  9
$PUCSORG
 10
0.0
 20
0.0
 30
0.0
  9
$PUCSXDIR
 10
1.0
 20
0.0
 30
0.0
  9
$PUCSYDIR
 10
0.0
 20
1.0
 30
0.0
  9
$PUCSORTHOREF
  2

  9
$PUCSORTHOVIEW
 70
     0
  9
$PUCSORGTOP
 10
0.0
 20
0.0
 30
0.0
  9
$PUCSORGBOTTOM
 10
0.0
 20
0.0
 30
0.0
  9
$PUCSORGLEFT
 10
0.0
 20
0.0
 30
0.0
  9
$PUCSORGRIGHT
 10
0.0
 20
0.0
 30
0.0
  9
$PUCSORGFRONT
 10
0.0
 20
0.0
 30
0.0
  9
$PUCSORGBACK
 10
0.0
 20
0.0
 30
0.0
  9
$USERI1
 70
     0
  9
$USERI2
 70
     0
  9
$USERI3
 70
     0
  9
$USERI4
 70
     0
  9
$USERI5
 70
     0
  9
$USERR1
 40
0.0
  9
$USERR2
 40
0.0
  9
$USERR3
 40
0.0
  9
$USERR4
 40
0.0
  9
$USERR5
 40
0.0
  9
$WORLDVIEW
 70
     1
  9
$SHADEDGE
 70
     3
  9
$SHADEDIF
 70
    70
  9
$TILEMODE
 70
     1
  9
$MAXACTVP
 70
    64
  9
$PINSBASE
 10
0.0
 20
0.0
 30
0.0
  9
$PLIMCHECK
 70
     0
  9
$PEXTMIN
 10
1.000000000000000E+20
 20
1.000000000000000E+20
 30
1.000000000000000E+20
  9
$PEXTMAX
 10
-1.000000000000000E+20
 20
-1.000000000000000E+20
 30
-1.000000000000000E+20
  9
$PLIMMIN
 10
0.0
 20
0.0
  9
$PLIMMAX
 10
12.0
 20
9.0
  9
$UNITMODE
 70
     0
  9
$VISRETAIN
 70
     1
  9
$PLINEGEN
 70
     0
  9
$PSLTSCALE
 70
     1
  9
$TREEDEPTH
 70
  3020
  9
$CMLSTYLE
  2
Standard
  9
$CMLJUST
 70
     0
  9
$CMLSCALE
 40
1.0
  9
$PROXYGRAPHICS
 70
     1
  9
$MEASUREMENT
 70
     1
  9
$CELWEIGHT
370
    -1
  9
$ENDCAPS
280
     0
  9
$JOINSTYLE
280
     0
  9
$LWDISPLAY
290
     1
  9
$INSUNITS
 70
     4
  9
$HYPERLINKBASE
  1

  9
$STYLESHEET
  1

  9
$XEDIT
290
     1
  9
$CEPSNTYPE
380
     0
  9
$PSTYLEMODE
290
     1
  9
$FINGERPRINTGUID
  2
{BC972102-740F-483A-A77B-CC22DAF8934A}
  9
$VERSIONGUID
  2
{FAEB1C32-E019-11D5-929B-00C0DF256EC4}
  9
$EXTNAMES
290
     1
  9
$PSVPSCALE
 40
0.0
  9
$OLESTARTUP
290
     0
  9
$SORTENTS
280
   127
  9
$INDEXCTL
280
     0
  9
$HIDETEXT
280
     1
  9
$XCLIPFRAME
290
     0
  9
$HALOGAP
280
     0
  9
$OBSCOLOR
 70
   257
  9
$OBSLTYPE
280
     0
  9
$INTERSECTIONDISPLAY
280
     0
  9
$INTERSECTIONCOLOR
 70
   257
  9
$DIMASSOC
280
     2
  9
$PROJECTNAME
  1

  9
$CAMERADISPLAY
290
     0
  9
$LENSLENGTH
 40
50.0
  9
$CAMERAHEIGHT
 40
0.0
  9
$STEPSPERSEC
 40
2.0
  9
$STEPSIZE
 40
6.0
  9
$3DDWFPREC
 40
2.0
  9
$PSOLWIDTH
 40
0.25
  9
$PSOLHEIGHT
 40
4.0
  9
$LOFTANG1
 40
1.570796326794897
  9
$LOFTANG2
 40
1.570796326794897
  9
$LOFTMAG1
 40
0.0
  9
$LOFTMAG2
 40
0.0
  9
$LOFTPARAM
 70
     7
  9
$LOFTNORMALS
280
     1
  9
$LATITUDE
 40
37.795
  9
$LONGITUDE
 40
-122.394
  9
$NORTHDIRECTION
 40
0.0
  9
$TIMEZONE
 70
 -8000
  9
$LIGHTGLYPHDISPLAY
280
     1
  9
$TILEMODELIGHTSYNCH
280
     1
  9
$SOLIDHIST
280
     1
  9
$SHOWHIST
280
     1
  9
$DWFFRAME
280
     2
  9
$DGNFRAME
280
     2
  9
$REALWORLDSCALE
290
     1
  9
$INTERFERECOLOR
 62
   256
  9
$CSHADOW
280
     0
  9
$SHADOWPLANELOCATION
 40
0.0
  0
ENDSEC
  0
SECTION
  2
CLASSES
  0
CLASS
  1
ACDBDICTIONARYWDFLT
  2
AcDbDictionaryWithDefault
  3
ObjectDBX Classes
 90
        0
 91
        4
280
     0
281
     0
  0
CLASS
  1
VISUALSTYLE
  2
AcDbVisualStyle
  3
ObjectDBX Classes
 90
     4095
 91
        4
280
     0
281
     0
  0
ENDSEC
  0
SECTION
  2
TABLES
  0
TABLE
  2
VPORT
  5
8
330
0
100
AcDbSymbolTable
 70
     1
  0
VPORT
  5
29
330
8
100
AcDbSymbolTableRecord
100
AcDbViewportTableRecord
  2
*Active
 70
     0
 10
0.0
 20
0.0
 11
1.0
 21
1.0
 12
1103.76925439935
 22
-785.0663184178
 13
0.0
 23
0.0
 14
0.5
 24
0.5
 15
0.5
 25
0.5
 16
0.0
 26
0.0
 36
1.0
 17
0.0
 27
0.0
 37
0.0
 40
233.7696991644001
 41
1.6
 42
50.0
 43
0.0
 44
0.0
 50
0.0
 51
0.0
 71
     0
 72
   100
 73
     1
 74
     3
 75
     0
 76
     0
 77
     0
 78
     0
281
     0
 65
     1
110
0.0
120
0.0
130
0.0
111
1.0
121
0.0
131
0.0
112
0.0
122
1.0
132
0.0
 79
     0
146
0.0
 60
     3
 61
     5
292
     1
282
     1
141
0.0
142
0.0
 63
   250
  0
ENDTAB
  0
TABLE
  2
LTYPE
  5
5
330
0
100
AcDbSymbolTable
 70
     3
  0
LTYPE
  5
14
330
5
100
AcDbSymbolTableRecord
100
AcDbLinetypeTableRecord
  2
ByBlock
 70
     0
  3

 72
    65
 73
     0
 40
0.0
  0
LTYPE
  5
15
330
5
100
AcDbSymbolTableRecord
100
AcDbLinetypeTableRecord
  2
ByLayer
 70
     0
  3

 72
    65
 73
     0
 40
0.0
  0
LTYPE
  5
16
330
5
100
AcDbSymbolTableRecord
100
AcDbLinetypeTableRecord
  2
Continuous
 70
     0
  3
Solid line
 72
    65
 73
     0
 40
0.0
  0
LTYPE
  5
3D
330
5
100
AcDbSymbolTableRecord
100
AcDbLinetypeTableRecord
  2
________________
 70
     0
  3

 72
    65
 73
     0
 40
0.0
  0
LTYPE
  5
3F
330
5
100
AcDbSymbolTableRecord
100
AcDbLinetypeTableRecord
  2
________...._...
 70
     0
  3

 72
    65
 73
     4
 40
6.0000000300003
 49
3.0
 74
     0
 49
-1.5
 74
     0
 49
0.0000000300003
 74
     0
 49
-1.5
 74
     0
  0
ENDTAB
  0
TABLE
  2
LAYER
  5
2
330
0
100
AcDbSymbolTable
 70
     2
  0
LAYER
  5
10
330
2
100
AcDbSymbolTableRecord
100
AcDbLayerTableRecord
  2
0
 70
     0
 62
     7
  6
Continuous
370
    -3
390
F
347
0
  0
LAYER
  5
3B
330
2
100
AcDbSymbolTableRecord
100
AcDbLayerTableRecord
  2
1
 70
     0
 62
     7
  6
Continuous
370
    -3
390
F
347
0
  0
ENDTAB
  0
TABLE
  2
STYLE
  5
3
330
0
100
AcDbSymbolTable
 70
     1
  0
STYLE
  5
11
330
3
100
AcDbSymbolTableRecord
100
AcDbTextStyleTableRecord
  2
Standard
 70
     0
 40
0.0
 41
1.0
 50
0.0
 71
     0
 42
0.2
  3
txt
  4

  0
ENDTAB
  0
TABLE
  2
VIEW
  5
6
330
0
100
AcDbSymbolTable
 70
     0
  0
ENDTAB
  0
TABLE
  2
UCS
  5
7
330
0
100
AcDbSymbolTable
 70
     0
  0
ENDTAB
  0
TABLE
  2
APPID
  5
9
330
0
100
AcDbSymbolTable
 70
     1
  0
APPID
  5
12
330
9
100
AcDbSymbolTableRecord
100
AcDbRegAppTableRecord
  2
ACAD
 70
     0
  0
ENDTAB
  0
TABLE
  2
DIMSTYLE
  5
A
330
0
100
AcDbSymbolTable
 70
     1
100
AcDbDimStyleTable
  0
DIMSTYLE
105
27
330
A
100
AcDbSymbolTableRecord
100
AcDbDimStyleTableRecord
  2
Standard
 70
     0
340
11
  0
ENDTAB
  0
TABLE
  2
BLOCK_RECORD
  5
1
330
0
100
AcDbSymbolTable
 70
     1
  0
BLOCK_RECORD
  5
1F
330
1
100
AcDbSymbolTableRecord
100
AcDbBlockTableRecord
  2
*Model_Space
340
22
 70
     0
280
     1
281
     0
  0
BLOCK_RECORD
  5
1B
330
1
100
AcDbSymbolTableRecord
100
AcDbBlockTableRecord
  2
*Paper_Space
340
1E
 70
     0
280
     1
281
     0
  0
BLOCK_RECORD
  5
23
330
1
100
AcDbSymbolTableRecord
100
AcDbBlockTableRecord
  2
*Paper_Space0
340
26
 70
     0
280
     1
281
     0
  0
ENDTAB
  0
ENDSEC
  0
SECTION
  2
BLOCKS
  0
BLOCK
  5
20
330
1F
100
AcDbEntity
  8
0
100
AcDbBlockBegin
  2
*Model_Space
 70
     0
 10
0.0
 20
0.0
 30
0.0
  3
*Model_Space
  1

  0
ENDBLK
  5
21
330
1F
100
AcDbEntity
  8
0
100
AcDbBlockEnd
  0
BLOCK
  5
1C
330
1B
100
AcDbEntity
 67
     1
  8
0
100
AcDbBlockBegin
  2
*Paper_Space
 70
     0
 10
0.0
 20
0.0
 30
0.0
  3
*Paper_Space
  1

  0
ENDBLK
  5
1D
330
1B
100
AcDbEntity
 67
     1
  8
0
100
AcDbBlockEnd
  0
BLOCK
  5
24
330
23
100
AcDbEntity
  8
0
100
AcDbBlockBegin
  2
*Paper_Space0
 70
     0
 10
0.0
 20
0.0
 30
0.0
  3
*Paper_Space0
  1

  0
ENDBLK
  5
25
330
23
100
AcDbEntity
  8
0
100
AcDbBlockEnd
  0
ENDSEC
  0
SECTION
  2
ENTITIES
  0
LINE
  5
3C
330
1F
100
AcDbEntity
  8
1
  6
________________
 62
     7
370
     9
100
AcDbLine
 10
1229.5480232113
 20
-869.6491981749
 30
0.0
 11
1229.5480232113
 21
-680.7137394962
 31
0.0
  0
LINE
  5
3E
330
1F
100
AcDbEntity
  8
1
  6
________...._...
 62
     7
370
     9
100
AcDbLine
 10
1266.0087979876
 20
-775.1814688356
 30
0.0
 11
701.116899782
 21
-775.1814688356
 31
0.0
  0
ARC
  5
40
330
1F
100
AcDbEntity
  8
1
  6
________________
 62
     7
370
     9
100
AcDbCircle
 10
1217.6880232113
 20
-822.1814688356
 30
0.0
 40
50.0
100
AcDbArc
 50
259.8189555299
 51
280.2484233968
  0
ARC
  5
41
330
1F
100
AcDbEntity
  8
1
  6
________________
 62
     7
370
     9
100
AcDbCircle
 10
1173.6880232113
 20
-822.1814688356
 30
0.0
 40
50.0
100
AcDbArc
 50
259.8189555299
 51
280.2484233968
  0
LINE
  5
42
330
1F
100
AcDbEntity
  8
1
  6
________________
 62
     7
370
     9
100
AcDbLine
 10
1205.8780232113
 20
-680.7068734072
 30
0.0
 11
1205.8780232113
 21
-869.656064264
 31
0.0
  0
LINE
  5
43
330
1F
100
AcDbEntity
  8
1
  6
________________
 62
     7
370
     9
100
AcDbLine
 10
1185.5480232113
 20
-869.656064264
 30
0.0
 11
1185.5480232113
 21
-680.7068734072
 31
0.0
  0
LINE
  5
44
330
1F
100
AcDbEntity
  8
1
  6
________________
 62
     7
370
     9
100
AcDbLine
 10
1161.8780232113
 20
-680.7068734072
 30
0.0
 11
1161.8780232113
 21
-869.656064264
 31
0.0
  0
LINE
  5
45
330
1F
100
AcDbEntity
  8
1
  6
________________
 62
     7
370
     9
100
AcDbLine
 10
1230.5757442907
 20
-867.5457186232
 30
0.0
 11
1233.7693332381
 21
-853.1403698007
 31
0.0
  0
LINE
  5
46
330
1F
100
AcDbEntity
  8
1
  6
________________
 62
     7
370
     9
100
AcDbLine
 10
1236.2100732559
 20
-851.1814688356
 30
0.0
 11
1243.2159731666
 21
-851.1814688356
 31
0.0
  0
ARC
  5
47
330
1F
100
AcDbEntity
  8
1
  6
________________
 62
     7
370
     9
100
AcDbCircle
 10
1236.2100732559
 20
-853.6814688356
 30
0.0
 40
2.5
100
AcDbArc
 50
90.0
 51
167.5
  0
LINE
  5
48
330
1F
100
AcDbEntity
  8
1
  6
________________
 62
     7
370
     9
100
AcDbLine
 10
1204.8523826454
 20
-867.5551032136
 30
0.0
 11
1201.6567131844
 21
-853.1403698007
 31
0.0
  0
ARC
  5
49
330
1F
100
AcDbEntity
  8
1
  6
________________
 62
     7
370
     9
100
AcDbCircle
 10
1199.2159731666
 20
-853.6814688356
 30
0.0
 40
2.5
100
AcDbArc
 50
12.5
 51
90.0
  0
LINE
  5
4A
330
1F
100
AcDbEntity
  8
1
  6
________________
 62
     7
370
     9
100
AcDbLine
 10
1186.5757442907
 20
-867.5457186232
 30
0.0
 11
1189.7693332381
 21
-853.1403698007
 31
0.0
  0
LINE
  5
4B
330
1F
100
AcDbEntity
  8
1
  6
________________
 62
     7
370
     9
100
AcDbLine
 10
1192.2100732559
 20
-851.1814688356
 30
0.0
 11
1199.2159731666
 21
-851.1814688356
 31
0.0
  0
ARC
  5
4C
330
1F
100
AcDbEntity
  8
1
  6
________________
 62
     7
370
     9
100
AcDbCircle
 10
1192.2100732559
 20
-853.6814688356
 30
0.0
 40
2.5
100
AcDbArc
 50
90.0
 51
167.5
  0
LINE
  5
4D
330
1F
100
AcDbEntity
  8
1
  6
________________
 62
     7
370
     9
100
AcDbLine
 10
1160.8523826454
 20
-867.5551032136
 30
0.0
 11
1157.6567131844
 21
-853.1403698007
 31
0.0
  0
ARC
  5
4E
330
1F
100
AcDbEntity
  8
1
  6
________________
 62
     7
370
     9
100
AcDbCircle
 10
1155.2159731666
 20
-853.6814688356
 30
0.0
 40
2.5
100
AcDbArc
 50
12.5
 51
90.0
  0
LINE
  5
4F
330
1F
100
AcDbEntity
  8
1
  6
________________
 62
     7
370
     9
100
AcDbLine
 10
1148.2100732559
 20
-851.1814688356
 30
0.0
 11
1155.2159731666
 21
-851.1814688356
 31
0.0
  0
ARC
  5
50
330
1F
100
AcDbEntity
  8
1
  6
________________
 62
     7
370
     9
100
AcDbCircle
 10
1165.733862681
 20
-866.472905144
 30
0.0
 40
5.0
100
AcDbArc
 50
192.5
 51
259.8189555299
  0
ARC
  5
51
330
1F
100
AcDbEntity
  8
1
  6
________________
 62
     7
370
     9
100
AcDbCircle
 10
1181.6942642551
 20
-866.4635205535
 30
0.0
 40
5.0
100
AcDbArc
 50
280.2484233968
 51
347.5
  0
ARC
  5
52
330
1F
100
AcDbEntity
  8
1
  6
________________
 62
     7
370
     9
100
AcDbCircle
 10
1209.733862681
 20
-866.472905144
 30
0.0
 40
5.0
100
AcDbArc
 50
192.5
 51
259.8189555299
  0
ARC
  5
53
330
1F
100
AcDbEntity
  8
1
  6
________________
 62
     7
370
     9
100
AcDbCircle
 10
1225.6942642551
 20
-866.4635205535
 30
0.0
 40
5.0
100
AcDbArc
 50
280.2484233968
 51
347.5
  0
ARC
  5
54
330
1F
100
AcDbEntity
  8
1
  6
________________
 62
     7
370
     9
100
AcDbCircle
 10
1217.6880232113
 20
-728.1814688356
 30
0.0
 40
50.0
100
AcDbArc
 50
79.7515766032
 51
100.1810444701
  0
ARC
  5
55
330
1F
100
AcDbEntity
  8
1
  6
________________
 62
     7
370
     9
100
AcDbCircle
 10
1173.6880232113
 20
-728.1814688356
 30
0.0
 40
50.0
100
AcDbArc
 50
79.7515766032
 51
100.1810444701
  0
LINE
  5
56
330
1F
100
AcDbEntity
  8
1
  6
________________
 62
     7
370
     9
100
AcDbLine
 10
1230.5757442907
 20
-682.817219048
 30
0.0
 11
1233.7693332381
 21
-697.2225678704
 31
0.0
  0
LINE
  5
57
330
1F
100
AcDbEntity
  8
1
  6
________________
 62
     7
370
     9
100
AcDbLine
 10
1236.2100732559
 20
-699.1814688356
 30
0.0
 11
1243.2159731666
 21
-699.1814688356
 31
0.0
  0
ARC
  5
58
330
1F
100
AcDbEntity
  8
1
  6
________________
 62
     7
370
     9
100
AcDbCircle
 10
1236.2100732559
 20
-696.6814688356
 30
0.0
 40
2.5
100
AcDbArc
 50
192.5
 51
270.0
  0
LINE
  5
59
330
1F
100
AcDbEntity
  8
1
  6
________________
 62
     7
370
     9
100
AcDbLine
 10
1204.8523826454
 20
-682.8078344575
 30
0.0
 11
1201.6567131844
 21
-697.2225678704
 31
0.0
  0
ARC
  5
5A
330
1F
100
AcDbEntity
  8
1
  6
________________
 62
     7
370
     9
100
AcDbCircle
 10
1199.2159731666
 20
-696.6814688356
 30
0.0
 40
2.5
100
AcDbArc
 50
270.0
 51
347.5
  0
LINE
  5
5B
330
1F
100
AcDbEntity
  8
1
  6
________________
 62
     7
370
     9
100
AcDbLine
 10
1186.5757442907
 20
-682.817219048
 30
0.0
 11
1189.7693332381
 21
-697.2225678704
 31
0.0
  0
LINE
  5
5C
330
1F
100
AcDbEntity
  8
1
  6
________________
 62
     7
370
     9
100
AcDbLine
 10
1192.2100732559
 20
-699.1814688356
 30
0.0
 11
1199.2159731666
 21
-699.1814688356
 31
0.0
  0
ARC
  5
5D
330
1F
100
AcDbEntity
  8
1
  6
________________
 62
     7
370
     9
100
AcDbCircle
 10
1192.2100732559
 20
-696.6814688356
 30
0.0
 40
2.5
100
AcDbArc
 50
192.5
 51
270.0
  0
LINE
  5
5E
330
1F
100
AcDbEntity
  8
1
  6
________________
 62
     7
370
     9
100
AcDbLine
 10
1160.8523826454
 20
-682.8078344575
 30
0.0
 11
1157.6567131844
 21
-697.2225678704
 31
0.0
  0
ARC
  5
5F
330
1F
100
AcDbEntity
  8
1
  6
________________
 62
     7
370
     9
100
AcDbCircle
 10
1155.2159731666
 20
-696.6814688356
 30
0.0
 40
2.5
100
AcDbArc
 50
270.0
 51
347.5
  0
LINE
  5
60
330
1F
100
AcDbEntity
  8
1
  6
________________
 62
     7
370
     9
100
AcDbLine
 10
1148.2100732559
 20
-699.1814688356
 30
0.0
 11
1155.2159731666
 21
-699.1814688356
 31
0.0
  0
ARC
  5
61
330
1F
100
AcDbEntity
  8
1
  6
________________
 62
     7
370
     9
100
AcDbCircle
 10
1165.733862681
 20
-683.8900325272
 30
0.0
 40
5.0
100
AcDbArc
 50
100.1810444701
 51
167.5
  0
ARC
  5
62
330
1F
100
AcDbEntity
  8
1
  6
________________
 62
     7
370
     9
100
AcDbCircle
 10
1181.6942642551
 20
-683.8994171177
 30
0.0
 40
5.0
100
AcDbArc
 50
12.5
 51
79.7515766032
  0
ARC
  5
63
330
1F
100
AcDbEntity
  8
1
  6
________________
 62
     7
370
     9
100
AcDbCircle
 10
1209.733862681
 20
-683.8900325272
 30
0.0
 40
5.0
100
AcDbArc
 50
100.1810444701
 51
167.5
  0
ARC
  5
64
330
1F
100
AcDbEntity
  8
1
  6
________________
 62
     7
370
     9
100
AcDbCircle
 10
1225.6942642551
 20
-683.8994171177
 30
0.0
 40
5.0
100
AcDbArc
 50
12.5
 51
79.7515766032
  0
ARC
  5
65
330
1F
100
AcDbEntity
  8
1
  6
________________
 62
     7
370
     9
100
AcDbCircle
 10
1129.6880232113
 20
-822.1814688356
 30
0.0
 40
50.0
100
AcDbArc
 50
259.8189555299
 51
280.2484233968
  0
LINE
  5
66
330
1F
100
AcDbEntity
  8
1
  6
________________
 62
     7
370
     9
100
AcDbLine
 10
1141.5480232113
 20
-869.656064264
 30
0.0
 11
1141.5480232113
 21
-680.7068734072
 31
0.0
  0
LINE
  5
67
330
1F
100
AcDbEntity
  8
1
  6
________________
 62
     7
370
     9
100
AcDbLine
 10
1117.8780232113
 20
-680.7068734072
 30
0.0
 11
1117.8780232113
 21
-869.656064264
 31
0.0
  0
LINE
  5
68
330
1F
100
AcDbEntity
  8
1
  6
________________
 62
     7
370
     9
100
AcDbLine
 10
1142.5757442907
 20
-867.5457186232
 30
0.0
 11
1145.7693332381
 21
-853.1403698007
 31
0.0
  0
ARC
  5
69
330
1F
100
AcDbEntity
  8
1
  6
________________
 62
     7
370
     9
100
AcDbCircle
 10
1148.2100732559
 20
-853.6814688356
 30
0.0
 40
2.5
100
AcDbArc
 50
90.0
 51
167.5
  0
LINE
  5
6A
330
1F
100
AcDbEntity
  8
1
  6
________________
 62
     7
370
     9
100
AcDbLine
 10
1116.8523826454
 20
-867.5551032136
 30
0.0
 11
1113.6567131844
 21
-853.1403698007
 31
0.0
  0
ARC
  5
6B
330
1F
100
AcDbEntity
  8
1
  6
________________
 62
     7
370
     9
100
AcDbCircle
 10
1111.2159731666
 20
-853.6814688356
 30
0.0
 40
2.5
100
AcDbArc
 50
12.5
 51
90.0
  0
LINE
  5
6C
330
1F
100
AcDbEntity
  8
1
  6
________________
 62
     7
370
     9
100
AcDbLine
 10
1104.2100732559
 20
-851.1814688356
 30
0.0
 11
1111.2159731666
 21
-851.1814688356
 31
0.0
  0
ARC
  5
6D
330
1F
100
AcDbEntity
  8
1
  6
________________
 62
     7
370
     9
100
AcDbCircle
 10
1121.733862681
 20
-866.472905144
 30
0.0
 40
5.0
100
AcDbArc
 50
192.5
 51
259.8189555299
  0
ARC
  5
6E
330
1F
100
AcDbEntity
  8
1
  6
________________
 62
     7
370
     9
100
AcDbCircle
 10
1137.6942642551
 20
-866.4635205535
 30
0.0
 40
5.0
100
AcDbArc
 50
280.2484233968
 51
347.5
  0
ARC
  5
6F
330
1F
100
AcDbEntity
  8
1
  6
________________
 62
     7
370
     9
100
AcDbCircle
 10
1129.6880232113
 20
-728.1814688356
 30
0.0
 40
50.0
100
AcDbArc
 50
79.7515766032
 51
100.1810444701
  0
LINE
  5
70
330
1F
100
AcDbEntity
  8
1
  6
________________
 62
     7
370
     9
100
AcDbLine
 10
1142.5757442907
 20
-682.817219048
 30
0.0
 11
1145.7693332381
 21
-697.2225678704
 31
0.0
  0
ARC
  5
71
330
1F
100
AcDbEntity
  8
1
  6
________________
 62
     7
370
     9
100
AcDbCircle
 10
1148.2100732559
 20
-696.6814688356
 30
0.0
 40
2.5
100
AcDbArc
 50
192.5
 51
270.0
  0
LINE
  5
72
330
1F
100
AcDbEntity
  8
1
  6
________________
 62
     7
370
     9
100
AcDbLine
 10
1116.8523826454
 20
-682.8078344575
 30
0.0
 11
1113.6567131844
 21
-697.2225678704
 31
0.0
  0
ARC
  5
73
330
1F
100
AcDbEntity
  8
1
  6
________________
 62
     7
370
     9
100
AcDbCircle
 10
1111.2159731666
 20
-696.6814688356
 30
0.0
 40
2.5
100
AcDbArc
 50
270.0
 51
347.5
  0
LINE
  5
74
330
1F
100
AcDbEntity
  8
1
  6
________________
 62
     7
370
     9
100
AcDbLine
 10
1104.2100732559
 20
-699.1814688356
 30
0.0
 11
1111.2159731666
 21
-699.1814688356
 31
0.0
  0
ARC
  5
75
330
1F
100
AcDbEntity
  8
1
  6
________________
 62
     7
370
     9
100
AcDbCircle
 10
1121.733862681
 20
-683.8900325272
 30
0.0
 40
5.0
100
AcDbArc
 50
100.1810444701
 51
167.5
  0
ARC
  5
76
330
1F
100
AcDbEntity
  8
1
  6
________________
 62
     7
370
     9
100
AcDbCircle
 10
1137.6942642551
 20
-683.8994171177
 30
0.0
 40
5.0
100
AcDbArc
 50
12.5
 51
79.7515766032
  0
ARC
  5
77
330
1F
100
AcDbEntity
  8
1
  6
________________
 62
     7
370
     9
100
AcDbCircle
 10
1085.6880232113
 20
-822.1814688356
 30
0.0
 40
50.0
100
AcDbArc
 50
259.8189555299
 51
280.2484233968
  0
LINE
  5
78
330
1F
100
AcDbEntity
  8
1
  6
________________
 62
     7
370
     9
100
AcDbLine
 10
1097.5480232113
 20
-869.656064264
 30
0.0
 11
1097.5480232113
 21
-680.7068734072
 31
0.0
  0
LINE
  5
79
330
1F
100
AcDbEntity
  8
1
  6
________________
 62
     7
370
     9
100
AcDbLine
 10
1073.8780232113
 20
-680.7068734072
 30
0.0
 11
1073.8780232113
 21
-869.656064264
 31
0.0
  0
LINE
  5
7A
330
1F
100
AcDbEntity
  8
1
  6
________________
 62
     7
370
     9
100
AcDbLine
 10
1098.5757442907
 20
-867.5457186232
 30
0.0
 11
1101.7693332381
 21
-853.1403698007
 31
0.0
  0
ARC
  5
7B
330
1F
100
AcDbEntity
  8
1
  6
________________
 62
     7
370
     9
100
AcDbCircle
 10
1104.2100732559
 20
-853.6814688356
 30
0.0
 40
2.5
100
AcDbArc
 50
90.0
 51
167.5
  0
LINE
  5
7C
330
1F
100
AcDbEntity
  8
1
  6
________________
 62
     7
370
     9
100
AcDbLine
 10
1072.8523826454
 20
-867.5551032136
 30
0.0
 11
1069.6567131844
 21
-853.1403698007
 31
0.0
  0
ARC
  5
7D
330
1F
100
AcDbEntity
  8
1
  6
________________
 62
     7
370
     9
100
AcDbCircle
 10
1067.2159731666
 20
-853.6814688356
 30
0.0
 40
2.5
100
AcDbArc
 50
12.5
 51
90.0
  0
LINE
  5
7E
330
1F
100
AcDbEntity
  8
1
  6
________________
 62
     7
370
     9
100
AcDbLine
 10
1060.2100732559
 20
-851.1814688356
 30
0.0
 11
1067.2159731666
 21
-851.1814688356
 31
0.0
  0
ARC
  5
7F
330
1F
100
AcDbEntity
  8
1
  6
________________
 62
     7
370
     9
100
AcDbCircle
 10
1077.733862681
 20
-866.472905144
 30
0.0
 40
5.0
100
AcDbArc
 50
192.5
 51
259.8189555299
  0
ARC
  5
80
330
1F
100
AcDbEntity
  8
1
  6
________________
 62
     7
370
     9
100
AcDbCircle
 10
1093.6942642551
 20
-866.4635205535
 30
0.0
 40
5.0
100
AcDbArc
 50
280.2484233968
 51
347.5
  0
ARC
  5
81
330
1F
100
AcDbEntity
  8
1
  6
________________
 62
     7
370
     9
100
AcDbCircle
 10
1085.6880232113
 20
-728.1814688356
 30
0.0
 40
50.0
100
AcDbArc
 50
79.7515766032
 51
100.1810444701
  0
LINE
  5
82
330
1F
100
AcDbEntity
  8
1
  6
________________
 62
     7
370
     9
100
AcDbLine
 10
1098.5757442907
 20
-682.817219048
 30
0.0
 11
1101.7693332381
 21
-697.2225678704
 31
0.0
  0
ARC
  5
83
330
1F
100
AcDbEntity
  8
1
  6
________________
 62
     7
370
     9
100
AcDbCircle
 10
1104.2100732559
 20
-696.6814688356
 30
0.0
 40
2.5
100
AcDbArc
 50
192.5
 51
270.0
  0
LINE
  5
84
330
1F
100
AcDbEntity
  8
1
  6
________________
 62
     7
370
     9
100
AcDbLine
 10
1072.8523826454
 20
-682.8078344575
 30
0.0
 11
1069.6567131844
 21
-697.2225678704
 31
0.0
  0
ARC
  5
85
330
1F
100
AcDbEntity
  8
1
  6
________________
 62
     7
370
     9
100
AcDbCircle
 10
1067.2159731666
 20
-696.6814688356
 30
0.0
 40
2.5
100
AcDbArc
 50
270.0
 51
347.5
  0
LINE
  5
86
330
1F
100
AcDbEntity
  8
1
  6
________________
 62
     7
370
     9
100
AcDbLine
 10
1060.2100732559
 20
-699.1814688356
 30
0.0
 11
1067.2159731666
 21
-699.1814688356
 31
0.0
  0
ARC
  5
87
330
1F
100
AcDbEntity
  8
1
  6
________________
 62
     7
370
     9
100
AcDbCircle
 10
1077.733862681
 20
-683.8900325272
 30
0.0
 40
5.0
100
AcDbArc
 50
100.1810444701
 51
167.5
  0
ARC
  5
88
330
1F
100
AcDbEntity
  8
1
  6
________________
 62
     7
370
     9
100
AcDbCircle
 10
1093.6942642551
 20
-683.8994171177
 30
0.0
 40
5.0
100
AcDbArc
 50
12.5
 51
79.7515766032
  0
ARC
  5
89
330
1F
100
AcDbEntity
  8
1
  6
________________
 62
     7
370
     9
100
AcDbCircle
 10
1041.6880232113
 20
-822.1814688356
 30
0.0
 40
50.0
100
AcDbArc
 50
259.8189555299
 51
280.2484233968
  0
LINE
  5
8A
330
1F
100
AcDbEntity
  8
1
  6
________________
 62
     7
370
     9
100
AcDbLine
 10
1053.5480232113
 20
-869.656064264
 30
0.0
 11
1053.5480232113
 21
-680.7068734072
 31
0.0
  0
LINE
  5
8B
330
1F
100
AcDbEntity
  8
1
  6
________________
 62
     7
370
     9
100
AcDbLine
 10
1029.8780232113
 20
-680.7068734072
 30
0.0
 11
1029.8780232113
 21
-869.656064264
 31
0.0
  0
LINE
  5
8C
330
1F
100
AcDbEntity
  8
1
  6
________________
 62
     7
370
     9
100
AcDbLine
 10
1054.5757442907
 20
-867.5457186232
 30
0.0
 11
1057.7693332381
 21
-853.1403698007
 31
0.0
  0
ARC
  5
8D
330
1F
100
AcDbEntity
  8
1
  6
________________
 62
     7
370
     9
100
AcDbCircle
 10
1060.2100732559
 20
-853.6814688356
 30
0.0
 40
2.5
100
AcDbArc
 50
90.0
 51
167.5
  0
LINE
  5
8E
330
1F
100
AcDbEntity
  8
1
  6
________________
 62
     7
370
     9
100
AcDbLine
 10
1028.8523826454
 20
-867.5551032136
 30
0.0
 11
1025.6567131844
 21
-853.1403698007
 31
0.0
  0
ARC
  5
8F
330
1F
100
AcDbEntity
  8
1
  6
________________
 62
     7
370
     9
100
AcDbCircle
 10
1023.2159731666
 20
-853.6814688356
 30
0.0
 40
2.5
100
AcDbArc
 50
12.5
 51
90.0
  0
LINE
  5
90
330
1F
100
AcDbEntity
  8
1
  6
________________
 62
     7
370
     9
100
AcDbLine
 10
1016.2100732559
 20
-851.1814688356
 30
0.0
 11
1023.2159731666
 21
-851.1814688356
 31
0.0
  0
ARC
  5
91
330
1F
100
AcDbEntity
  8
1
  6
________________
 62
     7
370
     9
100
AcDbCircle
 10
1033.733862681
 20
-866.472905144
 30
0.0
 40
5.0
100
AcDbArc
 50
192.5
 51
259.8189555299
  0
ARC
  5
92
330
1F
100
AcDbEntity
  8
1
  6
________________
 62
     7
370
     9
100
AcDbCircle
 10
1049.6942642551
 20
-866.4635205535
 30
0.0
 40
5.0
100
AcDbArc
 50
280.2484233968
 51
347.5
  0
ARC
  5
93
330
1F
100
AcDbEntity
  8
1
  6
________________
 62
     7
370
     9
100
AcDbCircle
 10
1041.6880232113
 20
-728.1814688356
 30
0.0
 40
50.0
100
AcDbArc
 50
79.7515766032
 51
100.1810444701
  0
LINE
  5
94
330
1F
100
AcDbEntity
  8
1
  6
________________
 62
     7
370
     9
100
AcDbLine
 10
1054.5757442907
 20
-682.817219048
 30
0.0
 11
1057.7693332381
 21
-697.2225678704
 31
0.0
  0
ARC
  5
95
330
1F
100
AcDbEntity
  8
1
  6
________________
 62
     7
370
     9
100
AcDbCircle
 10
1060.2100732559
 20
-696.6814688356
 30
0.0
 40
2.5
100
AcDbArc
 50
192.5
 51
270.0
  0
LINE
  5
96
330
1F
100
AcDbEntity
  8
1
  6
________________
 62
     7
370
     9
100
AcDbLine
 10
1028.8523826454
 20
-682.8078344575
 30
0.0
 11
1025.6567131844
 21
-697.2225678704
 31
0.0
  0
ARC
  5
97
330
1F
100
AcDbEntity
  8
1
  6
________________
 62
     7
370
     9
100
AcDbCircle
 10
1023.2159731666
 20
-696.6814688356
 30
0.0
 40
2.5
100
AcDbArc
 50
270.0
 51
347.5
  0
LINE
  5
98
330
1F
100
AcDbEntity
  8
1
  6
________________
 62
     7
370
     9
100
AcDbLine
 10
1016.2100732559
 20
-699.1814688356
 30
0.0
 11
1023.2159731666
 21
-699.1814688356
 31
0.0
  0
ARC
  5
99
330
1F
100
AcDbEntity
  8
1
  6
________________
 62
     7
370
     9
100
AcDbCircle
 10
1033.733862681
 20
-683.8900325272
 30
0.0
 40
5.0
100
AcDbArc
 50
100.1810444701
 51
167.5
  0
ARC
  5
9A
330
1F
100
AcDbEntity
  8
1
  6
________________
 62
     7
370
     9
100
AcDbCircle
 10
1049.6942642551
 20
-683.8994171177
 30
0.0
 40
5.0
100
AcDbArc
 50
12.5
 51
79.7515766032
  0
ARC
  5
9B
330
1F
100
AcDbEntity
  8
1
  6
________________
 62
     7
370
     9
100
AcDbCircle
 10
997.6880232113
 20
-822.1814688356
 30
0.0
 40
50.0
100
AcDbArc
 50
259.8189555299
 51
280.2484233968
  0
LINE
  5
9C
330
1F
100
AcDbEntity
  8
1
  6
________________
 62
     7
370
     9
100
AcDbLine
 10
1009.5480232113
 20
-869.656064264
 30
0.0
 11
1009.5480232113
 21
-680.7068734072
 31
0.0
  0
LINE
  5
9D
330
1F
100
AcDbEntity
  8
1
  6
________________
 62
     7
370
     9
100
AcDbLine
 10
985.8780232113
 20
-680.7068734072
 30
0.0
 11
985.8780232113
 21
-869.656064264
 31
0.0
  0
LINE
  5
9E
330
1F
100
AcDbEntity
  8
1
  6
________________
 62
     7
370
     9
100
AcDbLine
 10
1010.5757442907
 20
-867.5457186232
 30
0.0
 11
1013.7693332381
 21
-853.1403698007
 31
0.0
  0
ARC
  5
9F
330
1F
100
AcDbEntity
  8
1
  6
________________
 62
     7
370
     9
100
AcDbCircle
 10
1016.2100732559
 20
-853.6814688356
 30
0.0
 40
2.5
100
AcDbArc
 50
90.0
 51
167.5
  0
LINE
  5
A0
330
1F
100
AcDbEntity
  8
1
  6
________________
 62
     7
370
     9
100
AcDbLine
 10
984.8523826454
 20
-867.5551032136
 30
0.0
 11
981.6567131844
 21
-853.1403698007
 31
0.0
  0
ARC
  5
A1
330
1F
100
AcDbEntity
  8
1
  6
________________
 62
     7
370
     9
100
AcDbCircle
 10
979.2159731666
 20
-853.6814688356
 30
0.0
 40
2.5
100
AcDbArc
 50
12.5
 51
90.0
  0
LINE
  5
A2
330
1F
100
AcDbEntity
  8
1
  6
________________
 62
     7
370
     9
100
AcDbLine
 10
972.2100732559
 20
-851.1814688356
 30
0.0
 11
979.2159731666
 21
-851.1814688356
 31
0.0
  0
ARC
  5
A3
330
1F
100
AcDbEntity
  8
1
  6
________________
 62
     7
370
     9
100
AcDbCircle
 10
989.733862681
 20
-866.472905144
 30
0.0
 40
5.0
100
AcDbArc
 50
192.5
 51
259.8189555299
  0
ARC
  5
A4
330
1F
100
AcDbEntity
  8
1
  6
________________
 62
     7
370
     9
100
AcDbCircle
 10
1005.6942642551
 20
-866.4635205535
 30
0.0
 40
5.0
100
AcDbArc
 50
280.2484233968
 51
347.5
  0
ARC
  5
A5
330
1F
100
AcDbEntity
  8
1
  6
________________
 62
     7
370
     9
100
AcDbCircle
 10
997.6880232113
 20
-728.1814688356
 30
0.0
 40
50.0
100
AcDbArc
 50
79.7515766032
 51
100.1810444701
  0
LINE
  5
A6
330
1F
100
AcDbEntity
  8
1
  6
________________
 62
     7
370
     9
100
AcDbLine
 10
1010.5757442907
 20
-682.817219048
 30
0.0
 11
1013.7693332381
 21
-697.2225678704
 31
0.0
  0
ARC
  5
A7
330
1F
100
AcDbEntity
  8
1
  6
________________
 62
     7
370
     9
100
AcDbCircle
 10
1016.2100732559
 20
-696.6814688356
 30
0.0
 40
2.5
100
AcDbArc
 50
192.5
 51
270.0
  0
LINE
  5
A8
330
1F
100
AcDbEntity
  8
1
  6
________________
 62
     7
370
     9
100
AcDbLine
 10
984.8523826454
 20
-682.8078344575
 30
0.0
 11
981.6567131844
 21
-697.2225678704
 31
0.0
  0
ARC
  5
A9
330
1F
100
AcDbEntity
  8
1
  6
________________
 62
     7
370
     9
100
AcDbCircle
 10
979.2159731666
 20
-696.6814688356
 30
0.0
 40
2.5
100
AcDbArc
 50
270.0
 51
347.5
  0
LINE
  5
AA
330
1F
100
AcDbEntity
  8
1
  6
________________
 62
     7
370
     9
100
AcDbLine
 10
972.2100732559
 20
-699.1814688356
 30
0.0
 11
979.2159731666
 21
-699.1814688356
 31
0.0
  0
ARC
  5
AB
330
1F
100
AcDbEntity
  8
1
  6
________________
 62
     7
370
     9
100
AcDbCircle
 10
989.733862681
 20
-683.8900325272
 30
0.0
 40
5.0
100
AcDbArc
 50
100.1810444701
 51
167.5
  0
ARC
  5
AC
330
1F
100
AcDbEntity
  8
1
  6
________________
 62
     7
370
     9
100
AcDbCircle
 10
1005.6942642551
 20
-683.8994171177
 30
0.0
 40
5.0
100
AcDbArc
 50
12.5
 51
79.7515766032
  0
ARC
  5
AD
330
1F
100
AcDbEntity
  8
1
  6
________________
 62
     7
370
     9
100
AcDbCircle
 10
953.6880232113
 20
-822.1814688356
 30
0.0
 40
50.0
100
AcDbArc
 50
259.8189555299
 51
280.2484233968
  0
LINE
  5
AE
330
1F
100
AcDbEntity
  8
1
  6
________________
 62
     7
370
     9
100
AcDbLine
 10
965.5480232113
 20
-869.656064264
 30
0.0
 11
965.5480232113
 21
-680.7068734072
 31
0.0
  0
LINE
  5
AF
330
1F
100
AcDbEntity
  8
1
  6
________________
 62
     7
370
     9
100
AcDbLine
 10
941.8780232113
 20
-680.7068734072
 30
0.0
 11
941.8780232113
 21
-869.656064264
 31
0.0
  0
LINE
  5
B0
330
1F
100
AcDbEntity
  8
1
  6
________________
 62
     7
370
     9
100
AcDbLine
 10
966.5757442907
 20
-867.5457186232
 30
0.0
 11
969.7693332381
 21
-853.1403698007
 31
0.0
  0
ARC
  5
B1
330
1F
100
AcDbEntity
  8
1
  6
________________
 62
     7
370
     9
100
AcDbCircle
 10
972.2100732559
 20
-853.6814688356
 30
0.0
 40
2.5
100
AcDbArc
 50
90.0
 51
167.5
  0
LINE
  5
B2
330
1F
100
AcDbEntity
  8
1
  6
________________
 62
     7
370
     9
100
AcDbLine
 10
940.8523826454
 20
-867.5551032136
 30
0.0
 11
937.6567131844
 21
-853.1403698007
 31
0.0
  0
ARC
  5
B3
330
1F
100
AcDbEntity
  8
1
  6
________________
 62
     7
370
     9
100
AcDbCircle
 10
935.2159731666
 20
-853.6814688356
 30
0.0
 40
2.5
100
AcDbArc
 50
12.5
 51
90.0
  0
LINE
  5
B4
330
1F
100
AcDbEntity
  8
1
  6
________________
 62
     7
370
     9
100
AcDbLine
 10
928.2100732559
 20
-851.1814688356
 30
0.0
 11
935.2159731666
 21
-851.1814688356
 31
0.0
  0
ARC
  5
B5
330
1F
100
AcDbEntity
  8
1
  6
________________
 62
     7
370
     9
100
AcDbCircle
 10
945.733862681
 20
-866.472905144
 30
0.0
 40
5.0
100
AcDbArc
 50
192.5
 51
259.8189555299
  0
ARC
  5
B6
330
1F
100
AcDbEntity
  8
1
  6
________________
 62
     7
370
     9
100
AcDbCircle
 10
961.6942642551
 20
-866.4635205535
 30
0.0
 40
5.0
100
AcDbArc
 50
280.2484233968
 51
347.5
  0
ARC
  5
B7
330
1F
100
AcDbEntity
  8
1
  6
________________
 62
     7
370
     9
100
AcDbCircle
 10
953.6880232113
 20
-728.1814688356
 30
0.0
 40
50.0
100
AcDbArc
 50
79.7515766032
 51
100.1810444701
  0
LINE
  5
B8
330
1F
100
AcDbEntity
  8
1
  6
________________
 62
     7
370
     9
100
AcDbLine
 10
966.5757442907
 20
-682.817219048
 30
0.0
 11
969.7693332381
 21
-697.2225678704
 31
0.0
  0
ARC
  5
B9
330
1F
100
AcDbEntity
  8
1
  6
________________
 62
     7
370
     9
100
AcDbCircle
 10
972.2100732559
 20
-696.6814688356
 30
0.0
 40
2.5
100
AcDbArc
 50
192.5
 51
270.0
  0
LINE
  5
BA
330
1F
100
AcDbEntity
  8
1
  6
________________
 62
     7
370
     9
100
AcDbLine
 10
940.8523826454
 20
-682.8078344575
 30
0.0
 11
937.6567131844
 21
-697.2225678704
 31
0.0
  0
ARC
  5
BB
330
1F
100
AcDbEntity
  8
1
  6
________________
 62
     7
370
     9
100
AcDbCircle
 10
935.2159731666
 20
-696.6814688356
 30
0.0
 40
2.5
100
AcDbArc
 50
270.0
 51
347.5
  0
LINE
  5
BC
330
1F
100
AcDbEntity
  8
1
  6
________________
 62
     7
370
     9
100
AcDbLine
 10
928.2100732559
 20
-699.1814688356
 30
0.0
 11
935.2159731666
 21
-699.1814688356
 31
0.0
  0
ARC
  5
BD
330
1F
100
AcDbEntity
  8
1
  6
________________
 62
     7
370
     9
100
AcDbCircle
 10
945.733862681
 20
-683.8900325272
 30
0.0
 40
5.0
100
AcDbArc
 50
100.1810444701
 51
167.5
  0
ARC
  5
BE
330
1F
100
AcDbEntity
  8
1
  6
________________
 62
     7
370
     9
100
AcDbCircle
 10
961.6942642551
 20
-683.8994171177
 30
0.0
 40
5.0
100
AcDbArc
 50
12.5
 51
79.7515766032
  0
ARC
  5
BF
330
1F
100
AcDbEntity
  8
1
  6
________________
 62
     7
370
     9
100
AcDbCircle
 10
909.6880232113
 20
-822.1814688356
 30
0.0
 40
50.0
100
AcDbArc
 50
259.8189555299
 51
280.2484233968
  0
LINE
  5
C0
330
1F
100
AcDbEntity
  8
1
  6
________________
 62
     7
370
     9
100
AcDbLine
 10
921.5480232113
 20
-869.656064264
 30
0.0
 11
921.5480232113
 21
-680.7068734072
 31
0.0
  0
LINE
  5
C1
330
1F
100
AcDbEntity
  8
1
  6
________________
 62
     7
370
     9
100
AcDbLine
 10
897.8780232113
 20
-680.7068734072
 30
0.0
 11
897.8780232113
 21
-869.656064264
 31
0.0
  0
LINE
  5
C2
330
1F
100
AcDbEntity
  8
1
  6
________________
 62
     7
370
     9
100
AcDbLine
 10
922.5757442907
 20
-867.5457186232
 30
0.0
 11
925.7693332381
 21
-853.1403698007
 31
0.0
  0
ARC
  5
C3
330
1F
100
AcDbEntity
  8
1
  6
________________
 62
     7
370
     9
100
AcDbCircle
 10
928.2100732559
 20
-853.6814688356
 30
0.0
 40
2.5
100
AcDbArc
 50
90.0
 51
167.5
  0
LINE
  5
C4
330
1F
100
AcDbEntity
  8
1
  6
________________
 62
     7
370
     9
100
AcDbLine
 10
896.8523826454
 20
-867.5551032136
 30
0.0
 11
893.6567131844
 21
-853.1403698007
 31
0.0
  0
ARC
  5
C5
330
1F
100
AcDbEntity
  8
1
  6
________________
 62
     7
370
     9
100
AcDbCircle
 10
891.2159731666
 20
-853.6814688356
 30
0.0
 40
2.5
100
AcDbArc
 50
12.5
 51
90.0
  0
LINE
  5
C6
330
1F
100
AcDbEntity
  8
1
  6
________________
 62
     7
370
     9
100
AcDbLine
 10
884.2100732559
 20
-851.1814688356
 30
0.0
 11
891.2159731666
 21
-851.1814688356
 31
0.0
  0
ARC
  5
C7
330
1F
100
AcDbEntity
  8
1
  6
________________
 62
     7
370
     9
100
AcDbCircle
 10
901.733862681
 20
-866.472905144
 30
0.0
 40
5.0
100
AcDbArc
 50
192.5
 51
259.8189555299
  0
ARC
  5
C8
330
1F
100
AcDbEntity
  8
1
  6
________________
 62
     7
370
     9
100
AcDbCircle
 10
917.6942642551
 20
-866.4635205535
 30
0.0
 40
5.0
100
AcDbArc
 50
280.2484233968
 51
347.5
  0
ARC
  5
C9
330
1F
100
AcDbEntity
  8
1
  6
________________
 62
     7
370
     9
100
AcDbCircle
 10
909.6880232113
 20
-728.1814688356
 30
0.0
 40
50.0
100
AcDbArc
 50
79.7515766032
 51
100.1810444701
  0
LINE
  5
CA
330
1F
100
AcDbEntity
  8
1
  6
________________
 62
     7
370
     9
100
AcDbLine
 10
922.5757442907
 20
-682.817219048
 30
0.0
 11
925.7693332381
 21
-697.2225678704
 31
0.0
  0
ARC
  5
CB
330
1F
100
AcDbEntity
  8
1
  6
________________
 62
     7
370
     9
100
AcDbCircle
 10
928.2100732559
 20
-696.6814688356
 30
0.0
 40
2.5
100
AcDbArc
 50
192.5
 51
270.0
  0
LINE
  5
CC
330
1F
100
AcDbEntity
  8
1
  6
________________
 62
     7
370
     9
100
AcDbLine
 10
896.8523826454
 20
-682.8078344575
 30
0.0
 11
893.6567131844
 21
-697.2225678704
 31
0.0
  0
ARC
  5
CD
330
1F
100
AcDbEntity
  8
1
  6
________________
 62
     7
370
     9
100
AcDbCircle
 10
891.2159731666
 20
-696.6814688356
 30
0.0
 40
2.5
100
AcDbArc
 50
270.0
 51
347.5
  0
LINE
  5
CE
330
1F
100
AcDbEntity
  8
1
  6
________________
 62
     7
370
     9
100
AcDbLine
 10
884.2100732559
 20
-699.1814688356
 30
0.0
 11
891.2159731666
 21
-699.1814688356
 31
0.0
  0
ARC
  5
CF
330
1F
100
AcDbEntity
  8
1
  6
________________
 62
     7
370
     9
100
AcDbCircle
 10
901.733862681
 20
-683.8900325272
 30
0.0
 40
5.0
100
AcDbArc
 50
100.1810444701
 51
167.5
  0
ARC
  5
D0
330
1F
100
AcDbEntity
  8
1
  6
________________
 62
     7
370
     9
100
AcDbCircle
 10
917.6942642551
 20
-683.8994171177
 30
0.0
 40
5.0
100
AcDbArc
 50
12.5
 51
79.7515766032
  0
ARC
  5
D1
330
1F
100
AcDbEntity
  8
1
  6
________________
 62
     7
370
     9
100
AcDbCircle
 10
865.6880232113
 20
-822.1814688356
 30
0.0
 40
50.0
100
AcDbArc
 50
259.8189555299
 51
280.2484233968
  0
LINE
  5
D2
330
1F
100
AcDbEntity
  8
1
  6
________________
 62
     7
370
     9
100
AcDbLine
 10
877.5480232113
 20
-869.656064264
 30
0.0
 11
877.5480232113
 21
-680.7068734072
 31
0.0
  0
LINE
  5
D3
330
1F
100
AcDbEntity
  8
1
  6
________________
 62
     7
370
     9
100
AcDbLine
 10
853.8780232113
 20
-680.7068734072
 30
0.0
 11
853.8780232113
 21
-869.656064264
 31
0.0
  0
LINE
  5
D4
330
1F
100
AcDbEntity
  8
1
  6
________________
 62
     7
370
     9
100
AcDbLine
 10
878.5757442907
 20
-867.5457186232
 30
0.0
 11
881.7693332381
 21
-853.1403698007
 31
0.0
  0
ARC
  5
D5
330
1F
100
AcDbEntity
  8
1
  6
________________
 62
     7
370
     9
100
AcDbCircle
 10
884.2100732559
 20
-853.6814688356
 30
0.0
 40
2.5
100
AcDbArc
 50
90.0
 51
167.5
  0
LINE
  5
D6
330
1F
100
AcDbEntity
  8
1
  6
________________
 62
     7
370
     9
100
AcDbLine
 10
852.8523826454
 20
-867.5551032136
 30
0.0
 11
849.6567131844
 21
-853.1403698007
 31
0.0
  0
ARC
  5
D7
330
1F
100
AcDbEntity
  8
1
  6
________________
 62
     7
370
     9
100
AcDbCircle
 10
847.2159731666
 20
-853.6814688356
 30
0.0
 40
2.5
100
AcDbArc
 50
12.5
 51
90.0
  0
LINE
  5
D8
330
1F
100
AcDbEntity
  8
1
  6
________________
 62
     7
370
     9
100
AcDbLine
 10
840.2100732559
 20
-851.1814688356
 30
0.0
 11
847.2159731666
 21
-851.1814688356
 31
0.0
  0
ARC
  5
D9
330
1F
100
AcDbEntity
  8
1
  6
________________
 62
     7
370
     9
100
AcDbCircle
 10
857.733862681
 20
-866.472905144
 30
0.0
 40
5.0
100
AcDbArc
 50
192.5
 51
259.8189555299
  0
ARC
  5
DA
330
1F
100
AcDbEntity
  8
1
  6
________________
 62
     7
370
     9
100
AcDbCircle
 10
873.6942642551
 20
-866.4635205535
 30
0.0
 40
5.0
100
AcDbArc
 50
280.2484233968
 51
347.5
  0
ARC
  5
DB
330
1F
100
AcDbEntity
  8
1
  6
________________
 62
     7
370
     9
100
AcDbCircle
 10
865.6880232113
 20
-728.1814688356
 30
0.0
 40
50.0
100
AcDbArc
 50
79.7515766032
 51
100.1810444701
  0
LINE
  5
DC
330
1F
100
AcDbEntity
  8
1
  6
________________
 62
     7
370
     9
100
AcDbLine
 10
878.5757442907
 20
-682.817219048
 30
0.0
 11
881.7693332381
 21
-697.2225678704
 31
0.0
  0
ARC
  5
DD
330
1F
100
AcDbEntity
  8
1
  6
________________
 62
     7
370
     9
100
AcDbCircle
 10
884.2100732559
 20
-696.6814688356
 30
0.0
 40
2.5
100
AcDbArc
 50
192.5
 51
270.0
  0
LINE
  5
DE
330
1F
100
AcDbEntity
  8
1
  6
________________
 62
     7
370
     9
100
AcDbLine
 10
852.8523826454
 20
-682.8078344575
 30
0.0
 11
849.6567131844
 21
-697.2225678704
 31
0.0
  0
ARC
  5
DF
330
1F
100
AcDbEntity
  8
1
  6
________________
 62
     7
370
     9
100
AcDbCircle
 10
847.2159731666
 20
-696.6814688356
 30
0.0
 40
2.5
100
AcDbArc
 50
270.0
 51
347.5
  0
LINE
  5
E0
330
1F
100
AcDbEntity
  8
1
  6
________________
 62
     7
370
     9
100
AcDbLine
 10
840.2100732559
 20
-699.1814688356
 30
0.0
 11
847.2159731666
 21
-699.1814688356
 31
0.0
  0
ARC
  5
E1
330
1F
100
AcDbEntity
  8
1
  6
________________
 62
     7
370
     9
100
AcDbCircle
 10
857.733862681
 20
-683.8900325272
 30
0.0
 40
5.0
100
AcDbArc
 50
100.1810444701
 51
167.5
  0
ARC
  5
E2
330
1F
100
AcDbEntity
  8
1
  6
________________
 62
     7
370
     9
100
AcDbCircle
 10
873.6942642551
 20
-683.8994171177
 30
0.0
 40
5.0
100
AcDbArc
 50
12.5
 51
79.7515766032
  0
ARC
  5
E3
330
1F
100
AcDbEntity
  8
1
  6
________________
 62
     7
370
     9
100
AcDbCircle
 10
821.6880232113
 20
-822.1814688356
 30
0.0
 40
50.0
100
AcDbArc
 50
259.8189555299
 51
280.2484233968
  0
LINE
  5
E4
330
1F
100
AcDbEntity
  8
1
  6
________________
 62
     7
370
     9
100
AcDbLine
 10
833.5480232113
 20
-869.656064264
 30
0.0
 11
833.5480232113
 21
-680.7068734072
 31
0.0
  0
LINE
  5
E5
330
1F
100
AcDbEntity
  8
1
  6
________________
 62
     7
370
     9
100
AcDbLine
 10
809.8780232113
 20
-680.7068734072
 30
0.0
 11
809.8780232113
 21
-869.656064264
 31
0.0
  0
LINE
  5
E6
330
1F
100
AcDbEntity
  8
1
  6
________________
 62
     7
370
     9
100
AcDbLine
 10
834.5757442907
 20
-867.5457186232
 30
0.0
 11
837.7693332381
 21
-853.1403698007
 31
0.0
  0
ARC
  5
E7
330
1F
100
AcDbEntity
  8
1
  6
________________
 62
     7
370
     9
100
AcDbCircle
 10
840.2100732559
 20
-853.6814688356
 30
0.0
 40
2.5
100
AcDbArc
 50
90.0
 51
167.5
  0
LINE
  5
E8
330
1F
100
AcDbEntity
  8
1
  6
________________
 62
     7
370
     9
100
AcDbLine
 10
808.8523826454
 20
-867.5551032136
 30
0.0
 11
805.6567131844
 21
-853.1403698007
 31
0.0
  0
ARC
  5
E9
330
1F
100
AcDbEntity
  8
1
  6
________________
 62
     7
370
     9
100
AcDbCircle
 10
803.2159731666
 20
-853.6814688356
 30
0.0
 40
2.5
100
AcDbArc
 50
12.5
 51
90.0
  0
LINE
  5
EA
330
1F
100
AcDbEntity
  8
1
  6
________________
 62
     7
370
     9
100
AcDbLine
 10
796.2100732559
 20
-851.1814688356
 30
0.0
 11
803.2159731666
 21
-851.1814688356
 31
0.0
  0
ARC
  5
EB
330
1F
100
AcDbEntity
  8
1
  6
________________
 62
     7
370
     9
100
AcDbCircle
 10
813.733862681
 20
-866.472905144
 30
0.0
 40
5.0
100
AcDbArc
 50
192.5
 51
259.8189555299
  0
ARC
  5
EC
330
1F
100
AcDbEntity
  8
1
  6
________________
 62
     7
370
     9
100
AcDbCircle
 10
829.6942642551
 20
-866.4635205535
 30
0.0
 40
5.0
100
AcDbArc
 50
280.2484233968
 51
347.5
  0
ARC
  5
ED
330
1F
100
AcDbEntity
  8
1
  6
________________
 62
     7
370
     9
100
AcDbCircle
 10
821.6880232113
 20
-728.1814688356
 30
0.0
 40
50.0
100
AcDbArc
 50
79.7515766032
 51
100.1810444701
  0
LINE
  5
EE
330
1F
100
AcDbEntity
  8
1
  6
________________
 62
     7
370
     9
100
AcDbLine
 10
834.5757442907
 20
-682.817219048
 30
0.0
 11
837.7693332381
 21
-697.2225678704
 31
0.0
  0
ARC
  5
EF
330
1F
100
AcDbEntity
  8
1
  6
________________
 62
     7
370
     9
100
AcDbCircle
 10
840.2100732559
 20
-696.6814688356
 30
0.0
 40
2.5
100
AcDbArc
 50
192.5
 51
270.0
  0
LINE
  5
F0
330
1F
100
AcDbEntity
  8
1
  6
________________
 62
     7
370
     9
100
AcDbLine
 10
808.8523826454
 20
-682.8078344575
 30
0.0
 11
805.6567131844
 21
-697.2225678704
 31
0.0
  0
ARC
  5
F1
330
1F
100
AcDbEntity
  8
1
  6
________________
 62
     7
370
     9
100
AcDbCircle
 10
803.2159731666
 20
-696.6814688356
 30
0.0
 40
2.5
100
AcDbArc
 50
270.0
 51
347.5
  0
LINE
  5
F2
330
1F
100
AcDbEntity
  8
1
  6
________________
 62
     7
370
     9
100
AcDbLine
 10
796.2100732559
 20
-699.1814688356
 30
0.0
 11
803.2159731666
 21
-699.1814688356
 31
0.0
  0
ARC
  5
F3
330
1F
100
AcDbEntity
  8
1
  6
________________
 62
     7
370
     9
100
AcDbCircle
 10
813.733862681
 20
-683.8900325272
 30
0.0
 40
5.0
100
AcDbArc
 50
100.1810444701
 51
167.5
  0
ARC
  5
F4
330
1F
100
AcDbEntity
  8
1
  6
________________
 62
     7
370
     9
100
AcDbCircle
 10
829.6942642551
 20
-683.8994171177
 30
0.0
 40
5.0
100
AcDbArc
 50
12.5
 51
79.7515766032
  0
ARC
  5
F5
330
1F
100
AcDbEntity
  8
1
  6
________________
 62
     7
370
     9
100
AcDbCircle
 10
777.6880232113
 20
-822.1814688356
 30
0.0
 40
50.0
100
AcDbArc
 50
259.8189555299
 51
280.2484233968
  0
LINE
  5
F6
330
1F
100
AcDbEntity
  8
1
  6
________________
 62
     7
370
     9
100
AcDbLine
 10
789.5480232113
 20
-869.656064264
 30
0.0
 11
789.5480232113
 21
-680.7068734072
 31
0.0
  0
LINE
  5
F7
330
1F
100
AcDbEntity
  8
1
  6
________________
 62
     7
370
     9
100
AcDbLine
 10
765.8780232113
 20
-680.7068734072
 30
0.0
 11
765.8780232113
 21
-869.656064264
 31
0.0
  0
LINE
  5
F8
330
1F
100
AcDbEntity
  8
1
  6
________________
 62
     7
370
     9
100
AcDbLine
 10
790.5757442907
 20
-867.5457186232
 30
0.0
 11
793.7693332381
 21
-853.1403698007
 31
0.0
  0
ARC
  5
F9
330
1F
100
AcDbEntity
  8
1
  6
________________
 62
     7
370
     9
100
AcDbCircle
 10
796.2100732559
 20
-853.6814688356
 30
0.0
 40
2.5
100
AcDbArc
 50
90.0
 51
167.5
  0
LINE
  5
FA
330
1F
100
AcDbEntity
  8
1
  6
________________
 62
     7
370
     9
100
AcDbLine
 10
764.8523826454
 20
-867.5551032136
 30
0.0
 11
761.6567131844
 21
-853.1403698007
 31
0.0
  0
ARC
  5
FB
330
1F
100
AcDbEntity
  8
1
  6
________________
 62
     7
370
     9
100
AcDbCircle
 10
759.2159731666
 20
-853.6814688356
 30
0.0
 40
2.5
100
AcDbArc
 50
12.5
 51
90.0
  0
LINE
  5
FC
330
1F
100
AcDbEntity
  8
1
  6
________________
 62
     7
370
     9
100
AcDbLine
 10
752.2100732559
 20
-851.1814688356
 30
0.0
 11
759.2159731666
 21
-851.1814688356
 31
0.0
  0
ARC
  5
FD
330
1F
100
AcDbEntity
  8
1
  6
________________
 62
     7
370
     9
100
AcDbCircle
 10
769.733862681
 20
-866.472905144
 30
0.0
 40
5.0
100
AcDbArc
 50
192.5
 51
259.8189555299
  0
ARC
  5
FE
330
1F
100
AcDbEntity
  8
1
  6
________________
 62
     7
370
     9
100
AcDbCircle
 10
785.6942642551
 20
-866.4635205535
 30
0.0
 40
5.0
100
AcDbArc
 50
280.2484233968
 51
347.5
  0
ARC
  5
FF
330
1F
100
AcDbEntity
  8
1
  6
________________
 62
     7
370
     9
100
AcDbCircle
 10
777.6880232113
 20
-728.1814688356
 30
0.0
 40
50.0
100
AcDbArc
 50
79.7515766032
 51
100.1810444701
  0
LINE
  5
100
330
1F
100
AcDbEntity
  8
1
  6
________________
 62
     7
370
     9
100
AcDbLine
 10
790.5757442907
 20
-682.817219048
 30
0.0
 11
793.7693332381
 21
-697.2225678704
 31
0.0
  0
ARC
  5
101
330
1F
100
AcDbEntity
  8
1
  6
________________
 62
     7
370
     9
100
AcDbCircle
 10
796.2100732559
 20
-696.6814688356
 30
0.0
 40
2.5
100
AcDbArc
 50
192.5
 51
270.0
  0
LINE
  5
102
330
1F
100
AcDbEntity
  8
1
  6
________________
 62
     7
370
     9
100
AcDbLine
 10
764.8523826454
 20
-682.8078344575
 30
0.0
 11
761.6567131844
 21
-697.2225678704
 31
0.0
  0
ARC
  5
103
330
1F
100
AcDbEntity
  8
1
  6
________________
 62
     7
370
     9
100
AcDbCircle
 10
759.2159731666
 20
-696.6814688356
 30
0.0
 40
2.5
100
AcDbArc
 50
270.0
 51
347.5
  0
LINE
  5
104
330
1F
100
AcDbEntity
  8
1
  6
________________
 62
     7
370
     9
100
AcDbLine
 10
752.2100732559
 20
-699.1814688356
 30
0.0
 11
759.2159731666
 21
-699.1814688356
 31
0.0
  0
ARC
  5
105
330
1F
100
AcDbEntity
  8
1
  6
________________
 62
     7
370
     9
100
AcDbCircle
 10
769.733862681
 20
-683.8900325272
 30
0.0
 40
5.0
100
AcDbArc
 50
100.1810444701
 51
167.5
  0
ARC
  5
106
330
1F
100
AcDbEntity
  8
1
  6
________________
 62
     7
370
     9
100
AcDbCircle
 10
785.6942642551
 20
-683.8994171177
 30
0.0
 40
5.0
100
AcDbArc
 50
12.5
 51
79.7515766032
  0
ARC
  5
107
330
1F
100
AcDbEntity
  8
1
  6
________________
 62
     7
370
     9
100
AcDbCircle
 10
733.6880232113
 20
-822.1814688356
 30
0.0
 40
50.0
100
AcDbArc
 50
259.8189555299
 51
280.2484233968
  0
LINE
  5
108
330
1F
100
AcDbEntity
  8
1
  6
________________
 62
     7
370
     9
100
AcDbLine
 10
745.5480232113
 20
-869.656064264
 30
0.0
 11
745.5480232113
 21
-680.7068734072
 31
0.0
  0
LINE
  5
109
330
1F
100
AcDbEntity
  8
1
  6
________________
 62
     7
370
     9
100
AcDbLine
 10
721.8780232113
 20
-680.7068734072
 30
0.0
 11
721.8780232113
 21
-869.656064264
 31
0.0
  0
LINE
  5
10A
330
1F
100
AcDbEntity
  8
1
  6
________________
 62
     7
370
     9
100
AcDbLine
 10
746.5757442907
 20
-867.5457186232
 30
0.0
 11
749.7693332381
 21
-853.1403698007
 31
0.0
  0
ARC
  5
10B
330
1F
100
AcDbEntity
  8
1
  6
________________
 62
     7
370
     9
100
AcDbCircle
 10
752.2100732559
 20
-853.6814688356
 30
0.0
 40
2.5
100
AcDbArc
 50
90.0
 51
167.5
  0
LINE
  5
10C
330
1F
100
AcDbEntity
  8
1
  6
________________
 62
     7
370
     9
100
AcDbLine
 10
720.8523826454
 20
-867.5551032136
 30
0.0
 11
717.6567131844
 21
-853.1403698007
 31
0.0
  0
ARC
  5
10D
330
1F
100
AcDbEntity
  8
1
  6
________________
 62
     7
370
     9
100
AcDbCircle
 10
715.2159731666
 20
-853.6814688356
 30
0.0
 40
2.5
100
AcDbArc
 50
12.5
 51
90.0
  0
LINE
  5
10E
330
1F
100
AcDbEntity
  8
1
  6
________________
 62
     7
370
     9
100
AcDbLine
 10
708.2100732559
 20
-851.1814688356
 30
0.0
 11
715.2159731666
 21
-851.1814688356
 31
0.0
  0
ARC
  5
10F
330
1F
100
AcDbEntity
  8
1
  6
________________
 62
     7
370
     9
100
AcDbCircle
 10
725.733862681
 20
-866.472905144
 30
0.0
 40
5.0
100
AcDbArc
 50
192.5
 51
259.8189555299
  0
ARC
  5
110
330
1F
100
AcDbEntity
  8
1
  6
________________
 62
     7
370
     9
100
AcDbCircle
 10
741.6942642551
 20
-866.4635205535
 30
0.0
 40
5.0
100
AcDbArc
 50
280.2484233968
 51
347.5
  0
ARC
  5
111
330
1F
100
AcDbEntity
  8
1
  6
________________
 62
     7
370
     9
100
AcDbCircle
 10
733.6880232113
 20
-728.1814688356
 30
0.0
 40
50.0
100
AcDbArc
 50
79.7515766032
 51
100.1810444701
  0
LINE
  5
112
330
1F
100
AcDbEntity
  8
1
  6
________________
 62
     7
370
     9
100
AcDbLine
 10
746.5757442907
 20
-682.817219048
 30
0.0
 11
749.7693332381
 21
-697.2225678704
 31
0.0
  0
ARC
  5
113
330
1F
100
AcDbEntity
  8
1
  6
________________
 62
     7
370
     9
100
AcDbCircle
 10
752.2100732559
 20
-696.6814688356
 30
0.0
 40
2.5
100
AcDbArc
 50
192.5
 51
270.0
  0
LINE
  5
114
330
1F
100
AcDbEntity
  8
1
  6
________________
 62
     7
370
     9
100
AcDbLine
 10
720.8523826454
 20
-682.8078344575
 30
0.0
 11
717.6567131844
 21
-697.2225678704
 31
0.0
  0
ARC
  5
115
330
1F
100
AcDbEntity
  8
1
  6
________________
 62
     7
370
     9
100
AcDbCircle
 10
715.2159731666
 20
-696.6814688356
 30
0.0
 40
2.5
100
AcDbArc
 50
270.0
 51
347.5
  0
LINE
  5
116
330
1F
100
AcDbEntity
  8
1
  6
________________
 62
     7
370
     9
100
AcDbLine
 10
708.2100732559
 20
-699.1814688356
 30
0.0
 11
715.2159731666
 21
-699.1814688356
 31
0.0
  0
ARC
  5
117
330
1F
100
AcDbEntity
  8
1
  6
________________
 62
     7
370
     9
100
AcDbCircle
 10
725.733862681
 20
-683.8900325272
 30
0.0
 40
5.0
100
AcDbArc
 50
100.1810444701
 51
167.5
  0
ARC
  5
118
330
1F
100
AcDbEntity
  8
1
  6
________________
 62
     7
370
     9
100
AcDbCircle
 10
741.6942642551
 20
-683.8994171177
 30
0.0
 40
5.0
100
AcDbArc
 50
12.5
 51
79.7515766032
  0
LINE
  5
119
330
1F
100
AcDbEntity
  8
1
  6
________________
 62
     7
370
     9
100
AcDbLine
 10
1243.2159731666
 20
-699.1814688356
 30
0.0
 11
1243.2159731666
 21
-851.1814688356
 31
0.0
  0
CIRCLE
  5
11A
330
1F
100
AcDbEntity
  8
1
  6
________________
 62
     7
370
     9
100
AcDbCircle
 10
1399.4216090167
 20
-775.1814688356
 30
0.0
 40
105.0
  0
LINE
  5
11B
330
1F
100
AcDbEntity
  8
1
  6
________...._...
 62
     7
370
     9
100
AcDbLine
 10
1292.4216090167
 20
-775.1814688356
 30
0.0
 11
1506.4216090167
 21
-775.1814688356
 31
0.0
  0
LINE
  5
11C
330
1F
100
AcDbEntity
  8
1
  6
________...._...
 62
     7
370
     9
100
AcDbLine
 10
1399.4216090167
 20
-668.1814688356
 30
0.0
 11
1399.4216090167
 21
-882.1814688356
 31
0.0
  0
LINE
  5
11D
330
1F
100
AcDbEntity
  8
1
  6
________________
 62
     7
370
     9
100
AcDbLine
 10
1246.2159731665
 20
-670.1814688356
 30
0.0
 11
1246.2159731665
 21
-880.1814688356
 31
0.0
  0
LINE
  5
11E
330
1F
100
AcDbEntity
  8
1
  6
________________
 62
     7
370
     9
100
AcDbLine
 10
1246.2159731665
 20
-670.1814688356
 30
0.0
 11
1249.2159731665
 21
-670.1814688356
 31
0.0
  0
LINE
  5
11F
330
1F
100
AcDbEntity
  8
1
  6
________________
 62
     7
370
     9
100
AcDbLine
 10
1252.2159731665
 20
-673.1814688356
 30
0.0
 11
1252.2159731665
 21
-700.2832645949
 31
0.0
  0
LINE
  5
120
330
1F
100
AcDbEntity
  8
1
  6
________________
 62
     7
370
     9
100
AcDbLine
 10
1252.2159731665
 20
-705.9165352447
 30
0.0
 11
1252.2159731665
 21
-770.1814688357
 31
0.0
  0
LINE
  5
121
330
1F
100
AcDbEntity
  8
1
  6
________________
 62
     7
370
     9
100
AcDbLine
 10
1252.2159731665
 20
-780.1814688354
 30
0.0
 11
1252.2159731665
 21
-844.4464024264
 31
0.0
  0
LINE
  5
122
330
1F
100
AcDbEntity
  8
1
  6
________________
 62
     7
370
     9
100
AcDbLine
 10
1252.2159731665
 20
-850.0796730763
 30
0.0
 11
1252.2159731665
 21
-877.1814688356
 31
0.0
  0
ARC
  5
123
330
1F
100
AcDbEntity
  8
1
  6
________________
 62
     7
370
     9
100
AcDbCircle
 10
1243.2159731665
 20
-699.6814688356
 30
0.0
 40
3.0
100
AcDbArc
 50
269.9999999999
 51
0.0
  0
ARC
  5
124
330
1F
100
AcDbEntity
  8
1
  6
________________
 62
     7
370
     9
100
AcDbCircle
 10
1243.2159731665
 20
-850.6814688356
 30
0.0
 40
3.0
100
AcDbArc
 50
0.0
 51
90.0000000001
  0
LINE
  5
125
330
1F
100
AcDbEntity
  8
1
  6
________________
 62
     7
370
     9
100
AcDbLine
 10
1246.2159731665
 20
-880.1814688356
 30
0.0
 11
1249.2159731665
 21
-880.1814688356
 31
0.0
  0
ARC
  5
126
330
1F
100
AcDbEntity
  8
1
  6
________________
 62
     7
370
     9
100
AcDbCircle
 10
1249.2159731665
 20
-673.1814688356
 30
0.0
 40
3.0
100
AcDbArc
 50
0.0
 51
90.0
  0
ARC
  5
127
330
1F
100
AcDbEntity
  8
1
  6
________________
 62
     7
370
     9
100
AcDbCircle
 10
1249.2159731665
 20
-877.1814688356
 30
0.0
 40
3.0
100
AcDbArc
 50
270.0
 51
0.0
  0
LINE
  5
128
330
1F
100
AcDbEntity
  8
1
  6
________________
 62
     7
370
     9
100
AcDbLine
 10
1322.3772806309
 20
-703.7939946991
 30
0.0
 11
1329.4180376792
 21
-710.8347517476
 31
0.0
  0
LINE
  5
129
330
1F
100
AcDbEntity
  8
1
  6
________________
 62
     7
370
     9
100
AcDbLine
 10
1329.4180376792
 20
-710.8347517476
 30
0.0
 11
1335.0748919287
 21
-705.1778974981
 31
0.0
  0
LINE
  5
12A
330
1F
100
AcDbEntity
  8
1
  6
________________
 62
     7
370
     9
100
AcDbLine
 10
1335.0748919287
 20
-705.1778974981
 30
0.0
 11
1328.0341348802
 21
-698.1371404498
 31
0.0
  0
ARC
  5
12B
330
1F
100
AcDbEntity
  8
1
  6
________________
 62
     7
370
     9
100
AcDbCircle
 10
1250.5758319064
 20
-700.3030594412
 30
0.0
 40
1.6402607077
100
AcDbArc
 50
0.6914685415
 51
36.21197258550001
  0
ARC
  5
12C
330
1F
100
AcDbEntity
  8
1
  6
________________
 62
     7
370
     9
100
AcDbCircle
 10
1250.0054118839
 20
-700.7012761139
 30
0.0
 40
2.3358055076
100
AcDbArc
 50
35.8270164778
 51
55.2356674345
  0
ARC
  5
12D
330
1F
100
AcDbEntity
  8
1
  6
________________
 62
     7
370
     9
100
AcDbCircle
 10
1249.5082974058
 20
-701.4057732441
 30
0.0
 40
3.1980157254
100
AcDbArc
 50
55.1160629974
 51
70.8456037172
  0
ARC
  5
12E
330
1F
100
AcDbEntity
  8
1
  6
________________
 62
     7
370
     9
100
AcDbCircle
 10
1249.2293042808
 20
-702.2093251615
 30
0.0
 40
4.0486230603
100
AcDbArc
 50
70.8471587555
 51
90.1886611704
  0
ARC
  5
12F
330
1F
100
AcDbEntity
  8
1
  6
________________
 62
     7
370
     9
100
AcDbCircle
 10
1250.5758319054
 20
-705.9363300913
 30
0.0
 40
1.6402607086
100
AcDbArc
 50
0.6914685527
 51
36.2119725743
  0
ARC
  5
130
330
1F
100
AcDbEntity
  8
1
  6
________________
 62
     7
370
     9
100
AcDbCircle
 10
1250.0054118839
 20
-706.3345467637
 30
0.0
 40
2.3358055076
100
AcDbArc
 50
35.8270164778
 51
55.2356674345
  0
ARC
  5
131
330
1F
100
AcDbEntity
  8
1
  6
________________
 62
     7
370
     9
100
AcDbCircle
 10
1249.5082974058
 20
-707.0390438939
 30
0.0
 40
3.1980157254
100
AcDbArc
 50
55.1160629974
 51
70.8456037172
  0
ARC
  5
132
330
1F
100
AcDbEntity
  8
1
  6
________________
 62
     7
370
     9
100
AcDbCircle
 10
1249.2293042808
 20
-707.8425958113
 30
0.0
 40
4.0486230603
100
AcDbArc
 50
70.8471587555
 51
90.1886611705
  0
LINE
  5
133
330
1F
100
AcDbEntity
  8
1
  6
________________
 62
     7
370
     9
100
AcDbLine
 10
1248.2159731665
 20
-698.1607240493
 30
0.0
 11
1249.2159731665
 21
-698.1607240493
 31
0.0
  0
LINE
  5
134
330
1F
100
AcDbEntity
  8
1
  6
________________
 62
     7
370
     9
100
AcDbLine
 10
1248.2159731665
 20
-703.7939946991
 30
0.0
 11
1249.2159731665
 21
-703.7939946991
 31
0.0
  0
ARC
  5
135
330
1F
100
AcDbEntity
  8
1
  6
________________
 62
     7
370
     9
100
AcDbCircle
 10
1248.6692711309
 20
-698.8748269653
 30
0.0
 40
0.5467418555
100
AcDbArc
 50
0.6915112984
 51
36.2123746621
  0
ARC
  5
136
330
1F
100
AcDbEntity
  8
1
  6
________________
 62
     7
370
     9
100
AcDbCircle
 10
1248.4791261922
 20
-699.0075710369
 30
0.0
 40
0.7785971272
100
AcDbArc
 50
35.827389719
 51
55.23603485069999
  0
ARC
  5
137
330
1F
100
AcDbEntity
  8
1
  6
________________
 62
     7
370
     9
100
AcDbCircle
 10
1248.3134170888
 20
-699.2424125349
 30
0.0
 40
1.0660104514
100
AcDbArc
 50
55.11642261509999
 51
70.8458437393
  0
ARC
  5
138
330
1F
100
AcDbEntity
  8
1
  6
________________
 62
     7
370
     9
100
AcDbCircle
 10
1248.2204169844
 20
-699.5102735599
 30
0.0
 40
1.3495568269
100
AcDbArc
 50
70.8473969126
 51
90.188663763
  0
LINE
  5
139
330
1F
100
AcDbEntity
  8
1
  6
________________
 62
     7
370
     9
100
AcDbLine
 10
1249.2159731665
 20
-698.8682284166
 30
0.0
 11
1249.2159731665
 21
-703.7939946991
 31
0.0
  0
LINE
  5
13A
330
1F
100
AcDbEntity
  8
1
  6
________________
 62
     7
370
     9
100
AcDbLine
 10
1251.6704473267
 20
-704.6960884589
 30
0.0
 11
1252.2159731665
 21
-700.2832645949
 31
0.0
  0
CIRCLE
  5
13B
330
1F
100
AcDbEntity
  8
1
  6
________________
 62
     7
370
     9
100
AcDbCircle
 10
1399.4216090167
 20
-775.1814688356
 30
0.0
 40
66.662
  0
LINE
  5
13C
330
1F
100
AcDbEntity
  8
1
  6
________________
 62
     7
370
     9
100
AcDbLine
 10
1294.4644749095
 20
-779.1814688354
 30
0.0
 11
1304.4216090167
 21
-779.1814688356
 31
0.0
  0
LINE
  5
13D
330
1F
100
AcDbEntity
  8
1
  6
________________
 62
     7
370
     9
100
AcDbLine
 10
1304.4216090167
 20
-779.1814688356
 30
0.0
 11
1304.4216090167
 21
-771.1814688356
 31
0.0
  0
LINE
  5
13E
330
1F
100
AcDbEntity
  8
1
  6
________________
 62
     7
370
     9
100
AcDbLine
 10
1304.4216090167
 20
-771.1814688356
 30
0.0
 11
1294.4644749094
 21
-771.1814688357
 31
0.0
  0
LINE
  5
13F
330
1F
100
AcDbEntity
  8
1
  6
________________
 62
     7
370
     9
100
AcDbLine
 10
1328.0341348802
 20
-852.2257972214
 30
0.0
 11
1335.0748919287
 21
-845.185040173
 31
0.0
  0
LINE
  5
140
330
1F
100
AcDbEntity
  8
1
  6
________________
 62
     7
370
     9
100
AcDbLine
 10
1335.0748919287
 20
-845.185040173
 30
0.0
 11
1329.4180376792
 21
-839.5281859236
 31
0.0
  0
LINE
  5
141
330
1F
100
AcDbEntity
  8
1
  6
________________
 62
     7
370
     9
100
AcDbLine
 10
1329.4180376792
 20
-839.5281859236
 30
0.0
 11
1322.3772806309
 21
-846.568942972
 31
0.0
  0
LINE
  5
142
330
1F
100
AcDbEntity
  8
1
  6
________________
 62
     7
370
     9
100
AcDbLine
 10
1403.4216090165
 20
-880.1386029428
 30
0.0
 11
1403.4216090167
 21
-870.1814688356
 31
0.0
  0
LINE
  5
143
330
1F
100
AcDbEntity
  8
1
  6
________________
 62
     7
370
     9
100
AcDbLine
 10
1403.4216090167
 20
-870.1814688356
 30
0.0
 11
1395.4216090167
 21
-870.1814688356
 31
0.0
  0
LINE
  5
144
330
1F
100
AcDbEntity
  8
1
  6
________________
 62
     7
370
     9
100
AcDbLine
 10
1395.4216090167
 20
-870.1814688356
 30
0.0
 11
1395.4216090168
 21
-880.1386029428
 31
0.0
  0
LINE
  5
145
330
1F
100
AcDbEntity
  8
1
  6
________________
 62
     7
370
     9
100
AcDbLine
 10
1476.4659374024
 20
-846.568942972
 30
0.0
 11
1469.4251803541
 21
-839.5281859236
 31
0.0
  0
LINE
  5
146
330
1F
100
AcDbEntity
  8
1
  6
________________
 62
     7
370
     9
100
AcDbLine
 10
1469.4251803541
 20
-839.5281859236
 30
0.0
 11
1463.7683261046
 21
-845.185040173
 31
0.0
  0
LINE
  5
147
330
1F
100
AcDbEntity
  8
1
  6
________________
 62
     7
370
     9
100
AcDbLine
 10
1463.7683261046
 20
-845.185040173
 30
0.0
 11
1470.8090831531
 21
-852.2257972214
 31
0.0
  0
LINE
  5
148
330
1F
100
AcDbEntity
  8
1
  6
________________
 62
     7
370
     9
100
AcDbLine
 10
1504.3787431239
 20
-771.1814688357
 30
0.0
 11
1494.4216090167
 21
-771.1814688356
 31
0.0
  0
LINE
  5
149
330
1F
100
AcDbEntity
  8
1
  6
________________
 62
     7
370
     9
100
AcDbLine
 10
1494.4216090167
 20
-771.1814688356
 30
0.0
 11
1494.4216090167
 21
-779.1814688356
 31
0.0
  0
LINE
  5
14A
330
1F
100
AcDbEntity
  8
1
  6
________________
 62
     7
370
     9
100
AcDbLine
 10
1494.4216090167
 20
-779.1814688356
 30
0.0
 11
1504.3787431239
 21
-779.1814688354
 31
0.0
  0
LINE
  5
14B
330
1F
100
AcDbEntity
  8
1
  6
________________
 62
     7
370
     9
100
AcDbLine
 10
1470.8090831531
 20
-698.1371404498
 30
0.0
 11
1463.7683261046
 21
-705.1778974981
 31
0.0
  0
LINE
  5
14C
330
1F
100
AcDbEntity
  8
1
  6
________________
 62
     7
370
     9
100
AcDbLine
 10
1463.7683261046
 20
-705.1778974981
 30
0.0
 11
1469.4251803541
 21
-710.8347517476
 31
0.0
  0
LINE
  5
14D
330
1F
100
AcDbEntity
  8
1
  6
________________
 62
     7
370
     9
100
AcDbLine
 10
1469.4251803541
 20
-710.8347517476
 30
0.0
 11
1476.4659374024
 21
-703.7939946991
 31
0.0
  0
LINE
  5
14E
330
1F
100
AcDbEntity
  8
1
  6
________________
 62
     7
370
     9
100
AcDbLine
 10
1395.4216090168
 20
-670.2243347284
 30
0.0
 11
1395.4216090167
 21
-680.1814688356
 31
0.0
  0
LINE
  5
14F
330
1F
100
AcDbEntity
  8
1
  6
________________
 62
     7
370
     9
100
AcDbLine
 10
1395.4216090167
 20
-680.1814688356
 30
0.0
 11
1403.4216090167
 21
-680.1814688356
 31
0.0
  0
LINE
  5
150
330
1F
100
AcDbEntity
  8
1
  6
________________
 62
     7
370
     9
100
AcDbLine
 10
1403.4216090167
 20
-680.1814688356
 30
0.0
 11
1403.4216090165
 21
-670.2243347284
 31
0.0
  0
LINE
  5
151
330
1F
100
AcDbEntity
  8
1
  6
________________
 62
     7
370
     9
100
AcDbLine
 10
1249.2159731665
 20
-771.1814688357
 30
0.0
 11
1249.2159731665
 21
-779.1814688354
 31
0.0
  0
LINE
  5
152
330
1F
100
AcDbEntity
  8
1
  6
________________
 62
     7
370
     9
100
AcDbLine
 10
1248.2159731665
 20
-771.1814688357
 30
0.0
 11
1251.2159731665
 21
-771.1814688357
 31
0.0
  0
LINE
  5
153
330
1F
100
AcDbEntity
  8
1
  6
________________
 62
     7
370
     9
100
AcDbLine
 10
1248.2159731665
 20
-779.1814688354
 30
0.0
 11
1251.2159731665
 21
-779.1814688354
 31
0.0
  0
ARC
  5
154
330
1F
100
AcDbEntity
  8
1
  6
________________
 62
     7
370
     9
100
AcDbCircle
 10
1251.2159731665
 20
-780.1814688354
 30
0.0
 40
1.0
100
AcDbArc
 50
0.0
 51
90.0
  0
ARC
  5
155
330
1F
100
AcDbEntity
  8
1
  6
________________
 62
     7
370
     9
100
AcDbCircle
 10
1251.2159731665
 20
-770.1814688357
 30
0.0
 40
1.0
100
AcDbArc
 50
270.0
 51
0.0
  0
ARC
  5
156
330
1F
100
AcDbEntity
  8
1
  6
________________
 62
     7
370
     9
100
AcDbCircle
 10
1249.2293042808
 20
-848.1536125096
 30
0.0
 40
4.0486230603
100
AcDbArc
 50
269.8113388295
 51
289.1528412445001
  0
ARC
  5
157
330
1F
100
AcDbEntity
  8
1
  6
________________
 62
     7
370
     9
100
AcDbCircle
 10
1249.5082974061
 20
-848.957164427
 30
0.0
 40
3.1980157252
100
AcDbArc
 50
289.1543962769999
 51
304.8839369967
  0
ARC
  5
158
330
1F
100
AcDbEntity
  8
1
  6
________________
 62
     7
370
     9
100
AcDbCircle
 10
1250.0054118839
 20
-849.6616615573
 30
0.0
 40
2.3358055076
100
AcDbArc
 50
304.7643325655
 51
324.1729835222
  0
ARC
  5
159
330
1F
100
AcDbEntity
  8
1
  6
________________
 62
     7
370
     9
100
AcDbCircle
 10
1250.5758319064
 20
-850.05987823
 30
0.0
 40
1.6402607077
100
AcDbArc
 50
323.7880274145
 51
359.3085314585001
  0
ARC
  5
15A
330
1F
100
AcDbEntity
  8
1
  6
________________
 62
     7
370
     9
100
AcDbCircle
 10
1249.2293042808
 20
-842.5203418598
 30
0.0
 40
4.0486230603
100
AcDbArc
 50
269.8113388296
 51
289.1528412445001
  0
ARC
  5
15B
330
1F
100
AcDbEntity
  8
1
  6
________________
 62
     7
370
     9
100
AcDbCircle
 10
1249.5082974061
 20
-843.3238937773
 30
0.0
 40
3.1980157252
100
AcDbArc
 50
289.1543962769999
 51
304.8839369967999
  0
ARC
  5
15C
330
1F
100
AcDbEntity
  8
1
  6
________________
 62
     7
370
     9
100
AcDbCircle
 10
1250.0054118839
 20
-844.0283909075
 30
0.0
 40
2.3358055076
100
AcDbArc
 50
304.7643325655
 51
324.1729835222
  0
ARC
  5
15D
330
1F
100
AcDbEntity
  8
1
  6
________________
 62
     7
370
     9
100
AcDbCircle
 10
1250.5758319052
 20
-844.4266075798
 30
0.0
 40
1.6402607088
100
AcDbArc
 50
323.7880274275
 51
359.3085314491
  0
LINE
  5
15E
330
1F
100
AcDbEntity
  8
1
  6
________________
 62
     7
370
     9
100
AcDbLine
 10
1248.2159731665
 20
-852.2022136218
 30
0.0
 11
1249.2159731665
 21
-852.2022136218
 31
0.0
  0
LINE
  5
15F
330
1F
100
AcDbEntity
  8
1
  6
________________
 62
     7
370
     9
100
AcDbLine
 10
1248.2159731665
 20
-846.568942972
 30
0.0
 11
1249.2159731665
 21
-846.568942972
 31
0.0
  0
ARC
  5
160
330
1F
100
AcDbEntity
  8
1
  6
________________
 62
     7
370
     9
100
AcDbCircle
 10
1248.2204169844
 20
-850.8526641112
 30
0.0
 40
1.3495568269
100
AcDbArc
 50
269.8113362371
 51
289.1526030873
  0
ARC
  5
161
330
1F
100
AcDbEntity
  8
1
  6
________________
 62
     7
370
     9
100
AcDbCircle
 10
1248.3134170888
 20
-851.1205251362
 30
0.0
 40
1.0660104514
100
AcDbArc
 50
289.1541562607
 51
304.8835773849
  0
ARC
  5
162
330
1F
100
AcDbEntity
  8
1
  6
________________
 62
     7
370
     9
100
AcDbCircle
 10
1248.4791261925
 20
-851.3553666343
 30
0.0
 40
0.778597127
100
AcDbArc
 50
304.7639651336
 51
324.1726102655999
  0
ARC
  5
163
330
1F
100
AcDbEntity
  8
1
  6
________________
 62
     7
370
     9
100
AcDbCircle
 10
1248.6692711309
 20
-851.4881107059
 30
0.0
 40
0.5467418555
100
AcDbArc
 50
323.7876253379
 51
359.3084887017001
  0
LINE
  5
164
330
1F
100
AcDbEntity
  8
1
  6
________________
 62
     7
370
     9
100
AcDbLine
 10
1249.2159731665
 20
-851.4947092546
 30
0.0
 11
1249.2159731665
 21
-846.568942972
 31
0.0
  0
LINE
  5
165
330
1F
100
AcDbEntity
  8
1
  6
________________
 62
     7
370
     9
100
AcDbLine
 10
1251.6704473267
 20
-845.6668492122
 30
0.0
 11
1252.2159731665
 21
-850.0796730763
 31
0.0
  0
LINE
  5
166
330
1F
100
AcDbEntity
  8
1
  6
________________
 62
     7
370
     9
100
AcDbLine
 10
1251.6035525219
 20
-771.1033051787
 30
0.0
 11
1251.6035525219
 21
-779.2596324924
 31
0.0
  0
LINE
  5
167
330
1F
100
AcDbEntity
  8
1
  6
________________
 62
     7
370
     9
100
AcDbLine
 10
708.2100732559
 20
-699.1814688356
 30
0.0
 11
708.2100732559
 21
-851.1814688356
 31
0.0
  0
MTEXT
  5
168
330
1F
100
AcDbEntity
  8
1
 62
     7
100
AcDbMText
 10
1374.928535988429
 20
-897.9284407272728
 30
0.0
 40
5.0
 41
0.0
 46
0.0
 71
     1
 72
     1
  1
{\FＭＳ ゴシック;\W0.867543;Ｎ－ＦＥＰ－１５０５０Ｃ}
 73
     1
 44
1.0
  0
ENDSEC
  0
SECTION
  2
OBJECTS
  0
DICTIONARY
  5
C
330
0
100
AcDbDictionary
281
     1
  3
ACAD_GROUP
350
D
  3
ACAD_LAYOUT
350
1A
  3
ACAD_MLEADERSTYLE
350
16A
  3
ACAD_MLINESTYLE
350
17
  3
ACAD_PLOTSETTINGS
350
19
  3
ACAD_PLOTSTYLENAME
350
E
  3
ACAD_TABLESTYLE
350
169
  3
ACAD_VISUALSTYLE
350
2A
  0
DICTIONARY
  5
D
102
{ACAD_REACTORS
330
C
102
}
330
C
100
AcDbDictionary
281
     1
  0
DICTIONARY
  5
1A
102
{ACAD_REACTORS
330
C
102
}
330
C
100
AcDbDictionary
281
     1
  3
Layout1
350
1E
  3
Layout2
350
26
  3
Model
350
22
  0
DICTIONARY
  5
16A
102
{ACAD_REACTORS
330
C
102
}
330
C
100
AcDbDictionary
281
     1
  0
DICTIONARY
  5
17
102
{ACAD_REACTORS
330
C
102
}
330
C
100
AcDbDictionary
281
     1
  3
Standard
350
18
  0
DICTIONARY
  5
19
102
{ACAD_REACTORS
330
C
102
}
330
C
100
AcDbDictionary
281
     1
  0
ACDBDICTIONARYWDFLT
  5
E
102
{ACAD_REACTORS
330
C
102
}
330
C
100
AcDbDictionary
281
     1
  3
Normal
350
F
100
AcDbDictionaryWithDefault
340
F
  0
DICTIONARY
  5
169
102
{ACAD_REACTORS
330
C
102
}
330
C
100
AcDbDictionary
281
     1
  0
DICTIONARY
  5
2A
102
{ACAD_REACTORS
330
C
102
}
330
C
100
AcDbDictionary
281
     1
  3
2dWireframe
350
2F
  3
3D Hidden
350
31
  3
3dWireframe
350
30
  3
Basic
350
32
  3
Brighten
350
36
  3
ColorChange
350
3A
  3
Conceptual
350
34
  3
Dim
350
35
  3
Facepattern
350
39
  3
Flat
350
2B
  3
FlatWithEdges
350
2C
  3
Gouraud
350
2D
  3
GouraudWithEdges
350
2E
  3
Linepattern
350
38
  3
Realistic
350
33
  3
Thicken
350
37
  0
LAYOUT
  5
1E
102
{ACAD_REACTORS
330
1A
102
}
330
1A
100
AcDbPlotSettings
  1

  2
none_device
  4

  6

 40
0.0
 41
0.0
 42
0.0
 43
0.0
 44
0.0
 45
0.0
 46
0.0
 47
0.0
 48
0.0
 49
0.0
140
0.0
141
0.0
142
1.0
143
1.0
 70
   688
 72
     0
 73
     0
 74
     5
  7

 75
    16
 76
     0
 77
     2
 78
   300
147
1.0
148
0.0
149
0.0
100
AcDbLayout
  1
Layout1
 70
     1
 71
     1
 10
0.0
 20
0.0
 11
12.0
 21
9.0
 12
0.0
 22
0.0
 32
0.0
 14
1.000000000000000E+20
 24
1.000000000000000E+20
 34
1.000000000000000E+20
 15
-1.000000000000000E+20
 25
-1.000000000000000E+20
 35
-1.000000000000000E+20
146
0.0
 13
0.0
 23
0.0
 33
0.0
 16
1.0
 26
0.0
 36
0.0
 17
0.0
 27
1.0
 37
0.0
 76
     0
330
1B
  0
LAYOUT
  5
26
102
{ACAD_REACTORS
330
1A
102
}
330
1A
100
AcDbPlotSettings
  1

  2
none_device
  4

  6

 40
0.0
 41
0.0
 42
0.0
 43
0.0
 44
0.0
 45
0.0
 46
0.0
 47
0.0
 48
0.0
 49
0.0
140
0.0
141
0.0
142
1.0
143
1.0
 70
   688
 72
     0
 73
     0
 74
     5
  7

 75
    16
 76
     0
 77
     2
 78
   300
147
1.0
148
0.0
149
0.0
100
AcDbLayout
  1
Layout2
 70
     1
 71
     2
 10
0.0
 20
0.0
 11
0.0
 21
0.0
 12
0.0
 22
0.0
 32
0.0
 14
0.0
 24
0.0
 34
0.0
 15
0.0
 25
0.0
 35
0.0
146
0.0
 13
0.0
 23
0.0
 33
0.0
 16
1.0
 26
0.0
 36
0.0
 17
0.0
 27
1.0
 37
0.0
 76
     0
330
23
  0
LAYOUT
  5
22
102
{ACAD_REACTORS
330
1A
102
}
330
1A
100
AcDbPlotSettings
  1

  2
none_device
  4

  6

 40
0.0
 41
0.0
 42
0.0
 43
0.0
 44
0.0
 45
0.0
 46
0.0
 47
0.0
 48
0.0
 49
0.0
140
0.0
141
0.0
142
1.0
143
1.0
 70
  1712
 72
     0
 73
     0
 74
     0
  7

 75
     0
 76
     0
 77
     2
 78
   300
147
1.0
148
0.0
149
0.0
100
AcDbLayout
  1
Model
 70
     1
 71
     0
 10
0.0
 20
0.0
 11
12.0
 21
9.0
 12
0.0
 22
0.0
 32
0.0
 14
701.116899782
 24
-901.951168
 34
0.0
 15
1506.4216090167
 25
-668.1814688356
 35
0.0
146
0.0
 13
0.0
 23
0.0
 33
0.0
 16
1.0
 26
0.0
 36
0.0
 17
0.0
 27
1.0
 37
0.0
 76
     0
330
1F
331
29
  0
MLINESTYLE
  5
18
102
{ACAD_REACTORS
330
17
102
}
330
17
100
AcDbMlineStyle
  2
Standard
 70
     0
  3

 62
   256
 51
90.0
 52
90.0
 71
     2
 49
0.5
 62
   256
  6
BYLAYER
 49
-0.5
 62
   256
  6
BYLAYER
  0
ACDBPLACEHOLDER
  5
F
102
{ACAD_REACTORS
330
E
102
}
330
E
  0
VISUALSTYLE
  5
2F
102
{ACAD_REACTORS
330
2A
102
}
330
2A
100
AcDbVisualStyle
  2
2dWireframe
 70
     4
 71
     0
 72
     2
 73
     0
 90
        0
 40
-0.6
 41
-30.0
 62
     5
 63
     7
421
 16777215
 74
     1
 91
        4
 64
     7
 65
   257
 75
     1
175
     1
 42
1.0
 92
        0
 66
   257
 43
1.0
 76
     1
 77
     6
 78
     2
 67
     7
 79
     5
170
     0
171
     0
290
     0
174
     0
 93
        1
 44
0.0
173
     0
291
     0
 45
0.0
  0
VISUALSTYLE
  5
31
102
{ACAD_REACTORS
330
2A
102
}
330
2A
100
AcDbVisualStyle
  2
3D Hidden
 70
     6
 71
     1
 72
     2
 73
     2
 90
        0
 40
-0.6
 41
-30.0
 62
     5
 63
     7
421
 16777215
 74
     2
 91
        2
 64
     7
 65
   257
 75
     2
175
     1
 42
40.0
 92
        0
 66
   257
 43
1.0
 76
     1
 77
     6
 78
     2
 67
     7
 79
     3
170
     0
171
     0
290
     0
174
     0
 93
        1
 44
0.0
173
     0
291
     0
 45
0.0
  0
VISUALSTYLE
  5
30
102
{ACAD_REACTORS
330
2A
102
}
330
2A
100
AcDbVisualStyle
  2
3dWireframe
 70
     5
 71
     0
 72
     2
 73
     0
 90
        0
 40
-0.6
 41
-30.0
 62
     5
 63
     7
421
 16777215
 74
     1
 91
        4
 64
     7
 65
   257
 75
     1
175
     1
 42
1.0
 92
        0
 66
   257
 43
1.0
 76
     1
 77
     6
 78
     2
 67
     7
 79
     5
170
     0
171
     0
290
     0
174
     0
 93
        1
 44
0.0
173
     0
291
     0
 45
0.0
  0
VISUALSTYLE
  5
32
102
{ACAD_REACTORS
330
2A
102
}
330
2A
100
AcDbVisualStyle
  2
Basic
 70
     7
 71
     1
 72
     0
 73
     1
 90
        0
 40
-0.6
 41
-30.0
 62
     5
 63
     7
421
 16777215
 74
     0
 91
        4
 64
     7
 65
   257
 75
     1
175
     1
 42
1.0
 92
        8
 66
     7
 43
1.0
 76
     1
 77
     6
 78
     2
 67
     7
 79
     5
170
     0
171
     0
290
     0
174
     0
 93
        1
 44
0.0
173
     0
291
     1
 45
0.0
  0
VISUALSTYLE
  5
36
102
{ACAD_REACTORS
330
2A
102
}
330
2A
100
AcDbVisualStyle
  2
Brighten
 70
    12
 71
     2
 72
     2
 73
     0
 90
        0
 40
-0.6
 41
-30.0
 62
     5
 63
     7
421
 16777215
 74
     1
 91
        4
 64
     7
 65
   257
 75
     1
175
     1
 42
1.0
 92
        8
 66
     7
 43
1.0
 76
     1
 77
     6
 78
     2
 67
     7
 79
     5
170
     0
171
     0
290
     0
174
     0
 93
        1
 44
50.0
173
     0
291
     1
 45
0.0
  0
VISUALSTYLE
  5
3A
102
{ACAD_REACTORS
330
2A
102
}
330
2A
100
AcDbVisualStyle
  2
ColorChange
 70
    16
 71
     2
 72
     2
 73
     3
 90
        0
 40
-0.6
 41
-30.0
 62
     5
 63
     8
421
  8421504
 74
     1
 91
        4
 64
     7
 65
   257
 75
     1
175
     1
 42
1.0
 92
        8
 66
     8
424
  8421504
 43
1.0
 76
     1
 77
     6
 78
     2
 67
     7
 79
     5
170
     0
171
     0
290
     0
174
     0
 93
        1
 44
0.0
173
     0
291
     1
 45
0.0
  0
VISUALSTYLE
  5
34
102
{ACAD_REACTORS
330
2A
102
}
330
2A
100
AcDbVisualStyle
  2
Conceptual
 70
     9
 71
     3
 72
     2
 73
     0
 90
        0
 40
-0.6
 41
-30.0
 62
     5
 63
     7
421
 16777215
 74
     2
 91
        2
 64
     7
 65
   257
 75
     1
175
     1
 42
40.0
 92
        8
 66
     7
 43
1.0
 76
     1
 77
     6
 78
     2
 67
     7
 79
     3
170
     0
171
     0
290
     0
174
     0
 93
        1
 44
0.0
173
     0
291
     0
 45
0.0
  0
VISUALSTYLE
  5
35
102
{ACAD_REACTORS
330
2A
102
}
330
2A
100
AcDbVisualStyle
  2
Dim
 70
    11
 71
     2
 72
     2
 73
     0
 90
        0
 40
-0.6
 41
-30.0
 62
     5
 63
     7
421
 16777215
 74
     1
 91
        4
 64
     7
 65
   257
 75
     1
175
     1
 42
1.0
 92
        8
 66
     7
 43
1.0
 76
     1
 77
     6
 78
     2
 67
     7
 79
     5
170
     0
171
     0
290
     0
174
     0
 93
        1
 44
-50.0
173
     0
291
     1
 45
0.0
  0
VISUALSTYLE
  5
39
102
{ACAD_REACTORS
330
2A
102
}
330
2A
100
AcDbVisualStyle
  2
Facepattern
 70
    15
 71
     2
 72
     2
 73
     0
 90
        0
 40
-0.6
 41
-30.0
 62
     5
 63
     7
421
 16777215
 74
     1
 91
        4
 64
     7
 65
   257
 75
     1
175
     1
 42
1.0
 92
        8
 66
     7
 43
1.0
 76
     1
 77
     6
 78
     2
 67
     7
 79
     5
170
     0
171
     0
290
     0
174
     0
 93
        1
 44
0.0
173
     0
291
     1
 45
0.0
  0
VISUALSTYLE
  5
2B
102
{ACAD_REACTORS
330
2A
102
}
330
2A
100
AcDbVisualStyle
  2
Flat
 70
     0
 71
     2
 72
     1
 73
     1
 90
        2
 40
-0.6
 41
30.0
 62
     5
 63
     7
421
 16777215
 74
     0
 91
        4
 64
     7
 65
   257
 75
     1
175
     1
 42
1.0
 92
        8
 66
     7
 43
1.0
 76
     1
 77
     6
 78
     2
 67
     7
 79
     5
170
     0
171
     0
290
     0
174
     0
 93
       13
 44
0.0
173
     0
291
     1
 45
0.0
  0
VISUALSTYLE
  5
2C
102
{ACAD_REACTORS
330
2A
102
}
330
2A
100
AcDbVisualStyle
  2
FlatWithEdges
 70
     1
 71
     2
 72
     1
 73
     1
 90
        2
 40
-0.6
 41
30.0
 62
     5
 63
     7
421
 16777215
 74
     1
 91
        4
 64
     7
 65
   257
 75
     1
175
     1
 42
1.0
 92
        0
 66
   257
 43
1.0
 76
     1
 77
     6
 78
     2
 67
     7
 79
     5
170
     0
171
     0
290
     0
174
     0
 93
       13
 44
0.0
173
     0
291
     1
 45
0.0
  0
VISUALSTYLE
  5
2D
102
{ACAD_REACTORS
330
2A
102
}
330
2A
100
AcDbVisualStyle
  2
Gouraud
 70
     2
 71
     2
 72
     2
 73
     1
 90
        2
 40
-0.6
 41
30.0
 62
     5
 63
     7
421
 16777215
 74
     0
 91
        4
 64
     7
 65
   257
 75
     1
175
     1
 42
1.0
 92
        0
 66
     7
 43
1.0
 76
     1
 77
     6
 78
     2
 67
     7
 79
     5
170
     0
171
     0
290
     0
174
     0
 93
       13
 44
0.0
173
     0
291
     1
 45
0.0
  0
VISUALSTYLE
  5
2E
102
{ACAD_REACTORS
330
2A
102
}
330
2A
100
AcDbVisualStyle
  2
GouraudWithEdges
 70
     3
 71
     2
 72
     2
 73
     1
 90
        2
 40
-0.6
 41
30.0
 62
     5
 63
     7
421
 16777215
 74
     1
 91
        4
 64
     7
 65
   257
 75
     1
175
     1
 42
1.0
 92
        0
 66
   257
 43
1.0
 76
     1
 77
     6
 78
     2
 67
     7
 79
     5
170
     0
171
     0
290
     0
174
     0
 93
       13
 44
0.0
173
     0
291
     1
 45
0.0
  0
VISUALSTYLE
  5
38
102
{ACAD_REACTORS
330
2A
102
}
330
2A
100
AcDbVisualStyle
  2
Linepattern
 70
    14
 71
     2
 72
     2
 73
     0
 90
        0
 40
-0.6
 41
-30.0
 62
     5
 63
     7
421
 16777215
 74
     1
 91
        4
 64
     7
 65
   257
 75
     7
175
     7
 42
1.0
 92
        8
 66
     7
 43
1.0
 76
     1
 77
     6
 78
     2
 67
     7
 79
     5
170
     0
171
     0
290
     0
174
     0
 93
        1
 44
0.0
173
     0
291
     1
 45
0.0
  0
VISUALSTYLE
  5
33
102
{ACAD_REACTORS
330
2A
102
}
330
2A
100
AcDbVisualStyle
  2
Realistic
 70
     8
 71
     2
 72
     2
 73
     0
 90
        0
 40
-0.6
 41
-30.0
 62
     5
 63
     7
421
 16777215
 74
     1
 91
        0
 64
     7
 65
   257
 75
     1
175
     1
 42
1.0
 92
        8
 66
     8
424
  7895160
 43
1.0
 76
     1
 77
     6
 78
     2
 67
     7
 79
     5
170
     0
171
     0
290
     0
174
     0
 93
       13
 44
0.0
173
     0
291
     0
 45
0.0
  0
VISUALSTYLE
  5
37
102
{ACAD_REACTORS
330
2A
102
}
330
2A
100
AcDbVisualStyle
  2
Thicken
 70
    13
 71
     2
 72
     2
 73
     0
 90
        0
 40
-0.6
 41
-30.0
 62
     5
 63
     7
421
 16777215
 74
     1
 91
        4
 64
     7
 65
   257
 75
     1
175
     1
 42
1.0
 92
       12
 66
     7
 43
1.0
 76
     1
 77
     6
 78
     2
 67
     7
 79
     5
170
     0
171
     0
290
     0
174
     0
 93
        1
 44
0.0
173
     0
291
     1
 45
0.0
  0
ENDSEC
  0
EOF
